  0
SECTION
  2
HEADER
  9
$ACADVER
  1
AC1009
  9
$INSBASE
 10
3581.8179016463591324
 20
183.4944741125580094
 30
0.0
  9
$EXTMIN
 10
3570.7179011051089219
 20
175.3296714365814921
 30
0.0
  9
$EXTMAX
 10
3592.9179021876088882
 20
191.659276788534612
 30
0.0
  9
$LIMMIN
 10
0.0
 20
0.0
  9
$LIMMAX
 10
11.6929133858000007
 20
8.2677165353999982
  9
$ORTHOMODE
 70
     0
  9
$REGENMODE
 70
     1
  9
$FILLMODE
 70
     1
  9
$QTEXTMODE
 70
     0
  9
$MIRRTEXT
 70
     0
  9
$DRAGMODE
 70
     2
  9
$LTSCALE
 40
0.6431102362
  9
$OSMODE
 70
  3839
  9
$ATTMODE
 70
     1
  9
$TEXTSIZE
 40
0.2
  9
$TRACEWID
 40
0.05
  9
$TEXTSTYLE
  7
STANDARD
  9
$CLAYER
  8
0
  9
$CELTYPE
  6
BYLAYER
  9
$CECOLOR
 62
   256
  9
$DIMSCALE
 40
1.0
  9
$DIMASZ
 40
0.1875
  9
$DIMEXO
 40
0.0625
  9
$DIMDLI
 40
0.4443307087
  9
$DIMRND
 40
0.0
  9
$DIMDLE
 40
0.0
  9
$DIMEXE
 40
0.125
  9
$DIMTP
 40
0.01
  9
$DIMTM
 40
0.01
  9
$DIMTXT
 40
2.0
  9
$DIMCEN
 40
0.1052362205
  9
$DIMTSZ
 40
0.0
  9
$DIMTOL
 70
     1
  9
$DIMLIM
 70
     0
  9
$DIMTIH
 70
     1
  9
$DIMTOH
 70
     1
  9
$DIMSE1
 70
     0
  9
$DIMSE2
 70
     0
  9
$DIMTAD
 70
     0
  9
$DIMZIN
 70
     0
  9
$DIMBLK
  1

  9
$DIMASO
 70
     1
  9
$DIMSHO
 70
     1
  9
$DIMPOST
  1
\X
  9
$DIMAPOST
  1

  9
$DIMALT
 70
     1
  9
$DIMALTD
 70
     2
  9
$DIMALTF
 40
25.3999999999999986
  9
$DIMLFAC
 40
1.0
  9
$DIMTOFL
 70
     0
  9
$DIMTVP
 40
0.0
  9
$DIMTIX
 70
     0
  9
$DIMSOXD
 70
     0
  9
$DIMSAH
 70
     0
  9
$DIMBLK1
  1

  9
$DIMBLK2
  1

  9
$DIMSTYLE
  2
STANDARD
  9
$DIMCLRD
 70
     0
  9
$DIMCLRE
 70
     0
  9
$DIMCLRT
 70
     0
  9
$DIMTFAC
 40
1.0
  9
$DIMGAP
 40
0.09
  9
$LUNITS
 70
     2
  9
$LUPREC
 70
     4
  9
$SKETCHINC
 40
0.1
  9
$FILLETRAD
 40
0.0
  9
$AUNITS
 70
     0
  9
$AUPREC
 70
     0
  9
$MENU
  1
.
  9
$ELEVATION
 40
0.0
  9
$PELEVATION
 40
0.0
  9
$THICKNESS
 40
0.0
  9
$LIMCHECK
 70
     0
  9
$BLIPMODE
 70
     0
  9
$CHAMFERA
 40
0.0
  9
$CHAMFERB
 40
0.0
  9
$SKPOLY
 70
     0
  9
$TDCREATE
 40
2458060.468368056230247
  9
$TDUPDATE
 40
2459016.7174189807847142
  9
$TDINDWG
 40
0.6898681713
  9
$TDUSRTIMER
 40
0.6898681713
  9
$USRTIMER
 70
     1
  9
$ANGBASE
 50
0.0
  9
$ANGDIR
 70
     0
  9
$PDMODE
 70
     0
  9
$PDSIZE
 40
0.3125
  9
$PLINEWID
 40
0.0
  9
$COORDS
 70
     1
  9
$SPLFRAME
 70
     0
  9
$SPLINETYPE
 70
     6
  9
$SPLINESEGS
 70
     8
  9
$ATTDIA
 70
     1
  9
$ATTREQ
 70
     1
  9
$HANDLING
 70
     1
  9
$HANDSEED
  5
983F
  9
$SURFTAB1
 70
     6
  9
$SURFTAB2
 70
     6
  9
$SURFTYPE
 70
     6
  9
$SURFU
 70
     6
  9
$SURFV
 70
     6
  9
$UCSNAME
  2

  9
$UCSORG
 10
0.0
 20
0.0
 30
0.0
  9
$UCSXDIR
 10
1.0
 20
0.0
 30
0.0
  9
$UCSYDIR
 10
0.0
 20
1.0
 30
0.0
  9
$PUCSNAME
  2

  9
$PUCSORG
 10
0.0
 20
0.0
 30
0.0
  9
$PUCSXDIR
 10
1.0
 20
0.0
 30
0.0
  9
$PUCSYDIR
 10
0.0
 20
1.0
 30
0.0
  9
$USERI1
 70
     0
  9
$USERI2
 70
     0
  9
$USERI3
 70
     0
  9
$USERI4
 70
     0
  9
$USERI5
 70
     0
  9
$USERR1
 40
0.0
  9
$USERR2
 40
0.0
  9
$USERR3
 40
0.0
  9
$USERR4
 40
0.0
  9
$USERR5
 40
0.0
  9
$WORLDVIEW
 70
     1
  9
$SHADEDGE
 70
     3
  9
$SHADEDIF
 70
    70
  9
$TILEMODE
 70
     1
  9
$MAXACTVP
 70
    64
  9
$PLIMCHECK
 70
     0
  9
$PEXTMIN
 10
1.0000000000000000E+20
 20
1.0000000000000000E+20
 30
1.0000000000000000E+20
  9
$PEXTMAX
 10
-1.0000000000000000E+20
 20
-1.0000000000000000E+20
 30
-1.0000000000000000E+20
  9
$PLIMMIN
 10
0.0
 20
0.0
  9
$PLIMMAX
 10
12.0
 20
9.0
  9
$UNITMODE
 70
     0
  9
$VISRETAIN
 70
     1
  9
$PLINEGEN
 70
     0
  9
$PSLTSCALE
 70
     1
  0
ENDSEC
  0
SECTION
  2
TABLES
  0
TABLE
  2
VPORT
 70
     1
  0
VPORT
  2
*ACTIVE
 70
     0
 10
0.0
 20
0.0
 11
1.0
 21
1.0
 12
6.5880260399966133
 22
4.7265487296351782
 13
0.0
 23
0.0
 14
1.0
 24
1.0
 15
0.0
 25
0.0
 16
0.0
 26
0.0
 36
94.9091132703776879
 17
3581.8179931640629547
 27
183.4944686889647869
 37
0.0
 40
37.0261724956068079
 41
2.3528591352859132
 42
50.0
 43
0.0
 44
0.0
 50
0.0
 51
0.0
 71
     0
 72
   100
 73
     1
 74
     1
 75
     0
 76
     0
 77
     0
 78
     0
  0
ENDTAB
  0
TABLE
  2
LTYPE
 70
     2
  0
LTYPE
  2
CONTINUOUS
 70
     0
  3
Solid line
 72
    65
 73
     0
 40
0.0
  0
LTYPE
  2
PHANTOM2
 70
     0
  3
___ _ _ ___ _ _ ___ _ _ ___ _ _
 72
    65
 73
     6
 40
1.25
 49
0.625
 49
-0.125
 49
0.125
 49
-0.125
 49
0.125
 49
-0.125
  0
ENDTAB
  0
TABLE
  2
LAYER
 70
     2
  0
LAYER
  2
0
 70
     0
 62
   255
  6
CONTINUOUS
  0
LAYER
  2
DEFPOINTS
 70
     0
 62
     7
  6
CONTINUOUS
  0
ENDTAB
  0
TABLE
  2
STYLE
 70
     1
  0
STYLE
  2
STANDARD
 70
     0
 40
0.0
 41
0.8
 50
0.0
 71
     0
 42
0.2
  3
txt
  4

  0
ENDTAB
  0
TABLE
  2
VIEW
 70
     0
  0
ENDTAB
  0
TABLE
  2
UCS
 70
     0
  0
ENDTAB
  0
TABLE
  2
APPID
 70
     9
  0
APPID
  2
ACAD
 70
     0
  0
APPID
  2
ACAD_MLEADERVER
 70
     0
  0
APPID
  2
ACAD_EXEMPT_FROM_CAD_STANDARDS
 70
     0
  0
APPID
  2
ACAD_NAV_VCDISPLAY
 70
     0
  0
APPID
  2
ACAECLAYERSTANDARD
 70
     0
  0
APPID
  2
ACCMTRANSPARENCY
 70
     0
  0
APPID
  2
ACAD_DSTYLE_DIMJAG
 70
     0
  0
APPID
  2
ACAD_DSTYLE_DIMTALN
 70
     0
  0
APPID
  2
ACDBATTR
 70
     0
  0
ENDTAB
  0
TABLE
  2
DIMSTYLE
 70
     1
  0
DIMSTYLE
  2
STANDARD
 70
     0
  3

  4

  5

  6

  7

 40
1.0
 41
0.1875
 42
0.0625
 43
0.38
 44
0.125
 45
0.0
 46
0.0
 47
0.01
 48
0.01
140
0.15625
141
0.09
142
0.0
143
25.3999999999999986
144
1.0
145
0.0
146
1.0
147
0.09
 71
     1
 72
     0
 73
     1
 74
     1
 75
     0
 76
     0
 77
     0
 78
     4
170
     0
171
     2
172
     0
173
     0
174
     0
175
     0
176
     0
177
     0
178
     0
  0
ENDTAB
  0
ENDSEC
  0
SECTION
  2
BLOCKS
  0
BLOCK
  8
0
  2
$MODEL_SPACE
 70
     0
 10
0.0
 20
0.0
 30
0.0
  3
$MODEL_SPACE
  1

  0
ENDBLK
  5
21
  8
0
  0
BLOCK
 67
     1
  8
0
  2
$PAPER_SPACE
 70
     0
 10
0.0
 20
0.0
 30
0.0
  3
$PAPER_SPACE
  1

  0
ENDBLK
  5
1D
 67
     1
  8
0
  0
BLOCK
  8
0
  2
_FILLED
 70
     0
 10
0.0
 20
0.0
 30
0.0
  3
_FILLED
  1

  0
SOLID
  5
6F59
  8
0
  6
BYBLOCK
 62
     0
 10
0.0
 20
0.0
 30
0.0
 11
-1.0
 21
0.1666666667
 31
0.0
 12
-1.0
 22
-0.1666666667
 32
0.0
 13
-1.0
 23
-0.1666666667
 33
0.0
  0
ENDBLK
  5
6F5A
  8
0
  6
BYBLOCK
 62
     0
  0
BLOCK
  8
0
  2
2075T_4FRT
 70
     2
 10
0.0
 20
0.0
 30
0.0
  3
2075T_4FRT
  1

  0
ATTDEF
  5
91FC
  8
DEFPOINTS
 10
0.0005065988370916
 20
-0.0015379076966724
 30
0.0
 40
0.001
  1
K-2363T-4
  3

  2
MODELNUMBER
 70
     0
1001
ACDBATTR
1070
     0
1070
     1
  0
ATTDEF
  5
91FD
  8
DEFPOINTS
 10
0.0005065988370916
 20
-0.0032045743633375
 30
0.0
 40
0.001
  1
CIMARRON
  3

  2
TRADENAME
 70
     0
1001
ACDBATTR
1070
     0
1070
     1
  0
ATTDEF
  5
91FE
  8
DEFPOINTS
 10
0.0005065988370916
 20
-0.0048712410300027
 30
0.0
 40
0.001
  1
BATHROOM SINK
  3

  2
PRODUCT
 70
     0
1001
ACDBATTR
1070
     0
1070
     1
  0
LINE
  5
91FF
  8
0
 10
-1.702446445250188
 20
-3.6559854182684708
 30
0.0
 11
-1.8312130459503351
 21
-3.6553081742684692
 31
0.0
  0
ARC
  5
9200
  8
0
 10
-1.145018072322272
 20
-3.1870208008157301
 30
0.0
 40
0.8307566466585103
 50
194.3702540833928083
 51
214.3112182448909095
  0
ARC
  5
9201
  8
0
 10
-8.0252783282567162
 20
-3.9688330451135978
 30
0.0
 40
6.1027045785138041
 50
5.4123918190437132
 51
6.1666939526861038
  0
ARC
  5
9202
  8
0
 10
54.2077863598728911
 20
0.6034415920986193
 30
0.0
 40
56.3020733260596629
 50
182.3483454992691861
 51
183.9890634552461961
  0
ARC
  5
9203
  8
0
 10
0.1962529468937646
 20
-1.583250565391551
 30
0.0
 40
2.2464783623042952
 50
177.8763343751674881
 51
183.0691462475068079
  0
ARC
  5
9204
  8
0
 10
2.3969376365580501
 20
-1.838531946929407
 30
0.0
 40
4.458490701128329
 50
168.2252243735362924
 51
175.645407986395611
  0
ARC
  5
9205
  8
0
 10
-48.972503740668337
 20
-2.4751561163822942
 30
0.0
 40
47.0302012485456302
 50
1.144933128590748
 51
1.884338743721595
  0
ARC
  5
9206
  8
0
 10
50.6923039375487789
 20
0.0424840976818075
 30
0.0
 40
52.6676381027916705
 50
181.7168196651020935
 51
183.6901250841924025
  0
ARC
  5
9207
  8
0
 10
-0.8842534073137358
 20
-3.2721988727184619
 30
0.0
 40
0.9847482542524476
 50
184.3693041259072061
 51
191.648450044979711
  0
ARC
  5
9208
  8
0
 10
-4.1643281237938927
 20
-3.7839907154992991
 30
0.0
 40
2.33666111425693
 50
3.1569397818689171
 51
7.6971486912485236
  0
LINE
  5
9209
  8
0
 10
-1.9677344846199949
 20
-0.9287096529298253
 30
0.0
 11
-1.838135387050442
 21
-0.9278252058686859
 31
0.0
  0
ARC
  5
920A
  8
0
 10
1065.2836620914729338
 20
27.0007634054995513
 30
0.0
 40
1067.4872068159020273
 50
181.4991962956667066
 51
181.5318212783616048
  0
ARC
  5
920B
  8
0
 10
50.8560779770755218
 20
0.0275403914779702
 30
0.0
 40
52.7013198837911503
 50
181.6995042810856091
 51
183.669950531066803
  0
ARC
  5
920C
  8
0
 10
-0.7784512291918873
 20
-3.2797273337323811
 30
0.0
 40
0.9609925453715922
 50
183.9433392284699096
 51
191.4449814184023921
  0
ARC
  5
920D
  8
0
 10
-3.9939348278771831
 20
-3.7832318803562819
 30
0.0
 40
2.2950186643749348
 50
3.1783731944402129
 51
7.8339697838892448
  0
ARC
  5
920E
  8
0
 10
-2.5230339890185851
 20
-3.1605109820195301
 30
0.0
 40
0.9585712461597194
 50
328.8762325110233746
 51
344.1212497957836263
  0
ARC
  5
920F
  8
0
 10
-2.2202726114451252
 20
-3.3388126730499721
 30
0.0
 40
0.6249003203309579
 50
352.2779978494442048
 51
6.4567941712463393
  0
ARC
  5
9210
  8
0
 10
-327.6516205764900747
 20
-21.892251108891859
 30
0.0
 40
326.5837332743763
 50
3.2691132839991748
 51
3.5790138188171512
  0
ARC
  5
9211
  8
0
 10
-9.3321461906889454
 20
-2.9618584522302172
 30
0.0
 40
7.765145792086531
 50
10.8115729972964303
 51
15.1854427600774393
  0
ARC
  5
9212
  8
0
 10
-4.1636653610335079
 20
-3.7587459541564381
 30
0.0
 40
0.8331774786658531
 50
7.7423903353227761
 51
34.3636091507115822
  0
ARC
  5
9213
  8
0
 10
4.9769770002039868
 20
1.7416866984609951
 30
0.0
 40
9.8363389483655101
 50
200.8647139940088095
 51
210.7560968814682951
  0
ARC
  5
9214
  8
0
 10
-9.9046834790001412
 20
-4.0097500214257593
 30
0.0
 40
6.1183357425165781
 50
21.5576146744399395
 51
29.9548262014181788
  0
ARC
  5
9215
  8
0
 10
-10.6366240649840602
 20
-2.9185957170776069
 30
0.0
 40
6.3445690734782039
 50
11.9452409529588799
 51
18.030913537461231
  0
ARC
  5
9216
  8
0
 10
-1.7244016710083081
 20
-0.9611776127690916
 30
0.0
 40
2.7806984048165928
 50
193.3961610711347134
 51
201.8097291252254877
  0
ARC
  5
9217
  8
0
 10
4.4022221732570861
 20
1.4379809719750929
 30
0.0
 40
9.3602709768901651
 50
201.511238142998991
 51
210.9473017638871966
  0
ARC
  5
9218
  8
0
 10
-3.3864336674055262
 20
-3.2375668372940249
 30
0.0
 40
0.2760439380442165
 50
209.986727780232286
 51
242.2000849344869096
  0
ARC
  5
9219
  8
0
 10
-3.7890921193470599
 20
-3.9537423287173108
 30
0.0
 40
0.5457163080486063
 50
34.263929671576598
 51
59.8717172882737572
  0
LINE
  5
921A
  8
0
 10
-3.338083295982869
 20
-3.6465008436966282
 30
0.0
 11
-3.434520464418255
 21
-3.6459558863580241
 31
0.0
  0
ARC
  5
921B
  8
0
 10
-4.1190574616730373
 20
-4.244249119690692
 30
0.0
 40
0.9091455844154216
 50
41.153833136198223
 51
56.9287661347169802
  0
ARC
  5
921C
  8
0
 10
-3.494551319011407
 20
-3.2214591599866651
 30
0.0
 40
0.2908142925324462
 50
210.4614295352365048
 51
243.7986424691461025
  0
ARC
  5
921D
  8
0
 10
4.1249594535252072
 20
1.4706315422378109
 30
0.0
 40
9.2390890206950882
 50
202.0127055865235945
 51
211.5881251421785976
  0
ARC
  5
921E
  8
0
 10
-1.8592243099747059
 20
-0.9233121709829674
 30
0.0
 40
2.7939673920493542
 50
192.5771479248157902
 51
202.4949937878120068
  0
ARC
  5
921F
  8
0
 10
61.3042073363708369
 20
13.8997718727084401
 30
0.0
 40
67.6732546208538679
 50
192.6809840199755115
 51
193.1810732427817072
  0
LINE
  5
9220
  8
0
 10
-4.7183243957533696
 20
-0.9560247959166758
 30
0.0
 11
-4.6036389998503182
 21
-0.9547607107684541
 31
0.0
  0
ARC
  5
9221
  8
0
 10
16.4279213001259414
 20
17.2433140131024594
 30
0.0
 40
29.4476073656933686
 50
218.2222059950842947
 51
225.1716122174501038
  0
ARC
  5
9222
  8
0
 10
-10.4879726408494207
 20
-3.6122747311769952
 30
0.0
 40
4.6094415675248133
 50
26.2960460731831311
 51
34.880308602333443
  0
ARC
  5
9223
  8
0
 10
-4.8403852296864889
 20
-0.882519720421385
 30
0.0
 40
1.6639216060339459
 50
204.4134627359923968
 51
219.5870249089643096
  0
ARC
  5
9224
  8
0
 10
3.5908138749132368
 20
5.5823109672630258
 30
0.0
 40
12.2874091655426394
 50
217.7653326447498046
 51
226.924211993469612
  0
ARC
  5
9225
  8
0
 10
-4.5222515533068872
 20
-3.0896154933326438
 30
0.0
 40
0.4120667047086226
 50
227.4209815810959014
 51
254.7788063749408138
  0
ARC
  5
9226
  8
0
 10
-4.8464334224704544
 20
-4.2698696704258046
 30
0.0
 40
0.8119015091362177
 50
50.7027257303629781
 51
74.5714550201013395
  0
LINE
  5
9227
  8
0
 10
-4.3322204259502541
 20
-3.6415631729684601
 30
0.0
 11
-4.3695653688500888
 21
-3.6414723861786911
 31
0.0
  0
ARC
  5
9228
  8
0
 10
-4.9017677729666502
 20
-4.3122360502566428
 30
0.0
 40
0.8562495500697831
 50
51.5705453658109789
 51
74.4988640799435728
  0
ARC
  5
9229
  8
0
 10
-4.5699888443300551
 20
-3.0905236690470299
 30
0.0
 40
0.4097500823381817
 50
228.1008113277495966
 51
255.4499338062410914
  0
ARC
  5
922A
  8
0
 10
3.4380311288969092
 20
5.5862011518410091
 30
0.0
 40
12.2170788629180702
 50
218.0338676229127941
 51
227.3221400764894895
  0
ARC
  5
922B
  8
0
 10
-4.6207695583239001
 20
-0.6942731585093611
 30
0.0
 40
2.000105410675959
 50
206.0021983254922873
 51
218.5624337148198038
  0
ARC
  5
922C
  8
0
 10
-12.2255726677485601
 20
-4.6147112838325191
 30
0.0
 40
6.5564029604507859
 50
27.6594305112026007
 51
33.6991644887777397
  0
LINE
  5
922D
  8
0
 10
-6.7708931513379857
 20
-0.9770071791730572
 30
0.0
 11
-6.7066243385502267
 21
-0.9763011764684392
 31
0.0
  0
ARC
  5
922E
  8
0
 10
-0.6002473439084497
 20
-5.8488609180772348
 30
0.0
 40
0.252124927507654
 50
183.9439219494313136
 51
270.1900718048999011
  0
LINE
  5
922F
  8
0
 10
-0.8517752008501702
 20
-5.8662020902684731
 30
0.0
 11
-1.2401762593026431
 21
-0.2325756670287262
 31
0.0
  0
ARC
  5
9230
  8
0
 10
-1.4907259975138909
 20
-0.2512406450726985
 30
0.0
 40
0.2512440103230144
 50
4.2604423316238336
 51
89.7034493067978076
  0
ARC
  5
9231
  8
0
 10
-1.230458229650139
 20
-6.2259990853064826
 30
0.0
 40
0.1250004352619758
 50
185.0001828420849108
 51
270.0
  0
LINE
  5
9232
  8
0
 10
-1.3549829657499679
 20
-6.2368939884684664
 30
0.0
 11
-1.4634486443014789
 21
-4.9971711752677939
 31
0.0
  0
ARC
  5
9233
  8
0
 10
-1.712727031861959
 20
-5.018981009826831
 30
0.0
 40
0.2502306603682488
 50
5.0001828420849908
 51
83.4604175467368776
  0
ARC
  5
9234
  8
0
 10
-0.898376717253086
 20
1.1903491184862669
 30
0.0
 40
6.0123070878321272
 50
231.0591387976795943
 51
262.4895411096113094
  0
ARC
  5
9235
  8
0
 10
10.2606511285471207
 20
14.4389848428244498
 30
0.0
 40
23.3531343548705017
 50
218.4678836623583038
 51
228.8466842667843082
  0
ARC
  5
9236
  8
0
 10
-8.2252172540506763
 20
-0.2731714669396581
 30
0.0
 40
0.2732700887940456
 50
42.5331677937156201
 51
88.4606363552642705
  0
ARC
  5
9237
  8
0
 10
-10.2699861658502396
 20
0.0300142690315397
 30
0.0
 40
0.0300142721999975
 50
180.026324045996688
 51
269.9736732401016752
  0
ARC
  5
9238
  8
0
 10
-10.4561317370448705
 20
0.1500483929706888
 30
0.0
 40
0.1200478552626738
 50
191.3072715334014902
 51
269.8429343233796089
  0
ARC
  5
9239
  8
0
 10
-16.4724933488055285
 20
-1.052933342644621
 30
0.0
 40
6.0154042144462574
 50
11.3072715334015808
 51
26.2897465693903811
  0
ARC
  5
923A
  8
0
 10
-10.89975432363007
 20
1.700045066944085
 30
0.0
 40
0.200246223470483
 50
180.0138502213474965
 51
206.2897465693918093
  0
ARC
  5
923B
  8
0
 10
-10.9000457275687896
 20
1.7000449965024409
 30
0.0
 40
0.1999548195234729
 50
90.0227043361552433
 51
180.0138502213474965
  0
LINE
  5
923C
  8
0
 10
-10.4564608254027007
 20
0.0300009887754129
 30
0.0
 11
10.4564608254022406
 21
0.0300009887754129
 31
0.0
  0
LINE
  5
923D
  8
0
 10
-10.2699999570668297
 20
0.0
 30
0.0
 11
10.2699999570604596
 21
-0.0000000000000284
 31
0.0
  0
LINE
  5
923E
  8
0
 10
-0.5994109515499986
 20
-6.1009844582684698
 30
0.0
 11
0.5994109515499986
 21
-6.1009844582684698
 31
0.0
  0
LINE
  5
923F
  8
0
 10
-1.230458229650139
 20
-6.3509995205684779
 30
0.0
 11
1.230458229649684
 21
-6.3509995205684779
 31
0.0
  0
LINE
  5
9240
  8
0
 10
-10.9001249627472099
 20
1.8999998003268099
 30
0.0
 11
10.9001249627499401
 21
1.8999998003268099
 31
0.0
  0
LINE
  5
9241
  8
0
 10
-1.6842283645501079
 20
-4.7703784970684628
 30
0.0
 11
-1.1313311300395981
 21
-4.7701865272444763
 31
0.0
  0
ARC
  5
9242
  8
0
 10
-1.1307659294157011
 20
-4.9883047531612874
 30
0.0
 40
0.2181189582059282
 50
6.211305234542662
 51
90.1484678215682749
  0
LINE
  5
9243
  8
0
 10
1.7024464452497341
 20
-3.6559854182684708
 30
0.0
 11
1.8312130459498801
 21
-3.6553081742684692
 31
0.0
  0
ARC
  5
9244
  8
0
 10
1.145018072322272
 20
-3.1870208008157301
 30
0.0
 40
0.8307566466585103
 50
325.6887817551091189
 51
345.6297459166071917
  0
ARC
  5
9245
  8
0
 10
8.0252783282562632
 20
-3.9688330451135978
 30
0.0
 40
6.1027045785138041
 50
173.8333060473138971
 51
174.5876081809562947
  0
ARC
  5
9246
  8
0
 10
-54.20778635987336
 20
0.6034415920986193
 30
0.0
 40
56.3020733260596629
 50
356.0109365447538039
 51
357.6516545007307855
  0
ARC
  5
9247
  8
0
 10
-0.1962529468942193
 20
-1.583250565391551
 30
0.0
 40
2.2464783623042952
 50
356.9308537524931921
 51
2.123665624832499
  0
ARC
  5
9248
  8
0
 10
-2.396937636558504
 20
-1.838531946929407
 30
0.0
 40
4.458490701128329
 50
4.354592013604381
 51
11.7747756264636294
  0
ARC
  5
9249
  8
0
 10
48.972503740668337
 20
-2.4751561163822942
 30
0.0
 40
47.0302012485456302
 50
178.1156612562784005
 51
178.8550668714092069
  0
ARC
  5
924A
  8
0
 10
-50.6923039375487789
 20
0.0424840976818075
 30
0.0
 40
52.6676381027916705
 50
356.3098749158075975
 51
358.2831803348977928
  0
ARC
  5
924B
  8
0
 10
0.8842534073137358
 20
-3.2721988727184619
 30
0.0
 40
0.9847482542524476
 50
348.351549955020289
 51
355.6306958740926802
  0
ARC
  5
924C
  8
0
 10
4.1643281237938927
 20
-3.7839907154992991
 30
0.0
 40
2.33666111425693
 50
172.3028513087515137
 51
176.843060218131086
  0
LINE
  5
924D
  8
0
 10
1.967734484619541
 20
-0.9287096529298253
 30
0.0
 11
1.838135387049987
 21
-0.9278252058686859
 31
0.0
  0
ARC
  5
924E
  8
0
 10
-1065.2836620914729338
 20
27.0007634054995513
 30
0.0
 40
1067.4872068159020273
 50
358.4681787216384237
 51
358.5008037043332934
  0
ARC
  5
924F
  8
0
 10
-50.8560779770759908
 20
0.0275403914779702
 30
0.0
 40
52.7013198837911503
 50
356.3300494689331117
 51
358.3004957189144193
  0
ARC
  5
9250
  8
0
 10
0.7784512291914325
 20
-3.2797273337323811
 30
0.0
 40
0.9609925453715922
 50
348.5550185815976079
 51
356.0566607715301188
  0
ARC
  5
9251
  8
0
 10
3.9939348278771831
 20
-3.7832318803562819
 30
0.0
 40
2.2950186643749348
 50
172.1660302161106983
 51
176.821626805559788
  0
ARC
  5
9252
  8
0
 10
2.5230339890185851
 20
-3.1605109820195301
 30
0.0
 40
0.9585712461597194
 50
195.8787502042164022
 51
211.123767488976597
  0
ARC
  5
9253
  8
0
 10
2.22027261144467
 20
-3.3388126730499721
 30
0.0
 40
0.6249003203309579
 50
173.5432058287535995
 51
187.7220021505557952
  0
ARC
  5
9254
  8
0
 10
327.6516205764900747
 20
-21.892251108891859
 30
0.0
 40
326.5837332743763
 50
176.4209861811827977
 51
176.7308867160008106
  0
ARC
  5
9255
  8
0
 10
9.3321461906884906
 20
-2.9618584522302172
 30
0.0
 40
7.765145792086531
 50
164.8145572399224932
 51
169.1884270027036052
  0
ARC
  5
9256
  8
0
 10
4.1636653610335079
 20
-3.7587459541564381
 30
0.0
 40
0.8331774786658531
 50
145.6363908492884036
 51
172.2576096646772044
  0
ARC
  5
9257
  8
0
 10
-4.9769770002044416
 20
1.7416866984609951
 30
0.0
 40
9.8363389483655101
 50
329.2439031185315912
 51
339.1352860059910768
  0
ARC
  5
9258
  8
0
 10
9.9046834789996865
 20
-4.0097500214257593
 30
0.0
 40
6.1183357425165781
 50
150.0451737985817999
 51
158.4423853255599965
  0
ARC
  5
9259
  8
0
 10
10.6366240649840602
 20
-2.9185957170776069
 30
0.0
 40
6.3445690734782039
 50
161.9690864625387974
 51
168.0547590470411023
  0
ARC
  5
925A
  8
0
 10
1.724401671007854
 20
-0.9611776127690916
 30
0.0
 40
2.7806984048165928
 50
338.1902708747745123
 51
346.6038389288651729
  0
ARC
  5
925B
  8
0
 10
-4.4022221732575408
 20
1.4379809719750929
 30
0.0
 40
9.3602709768901651
 50
329.0526982361128034
 51
338.4887618570011227
  0
ARC
  5
925C
  8
0
 10
3.386433667405071
 20
-3.2375668372940249
 30
0.0
 40
0.2760439380442165
 50
297.7999150655131189
 51
330.013272219767714
  0
ARC
  5
925D
  8
0
 10
3.7890921193466052
 20
-3.9537423287173108
 30
0.0
 40
0.5457163080486063
 50
120.1282827117262002
 51
145.7360703284234091
  0
LINE
  5
925E
  8
0
 10
3.3380832959824138
 20
-3.6465008436966282
 30
0.0
 11
3.434520464418255
 21
-3.6459558863580241
 31
0.0
  0
ARC
  5
925F
  8
0
 10
4.1190574616725817
 20
-4.244249119690692
 30
0.0
 40
0.9091455844154216
 50
123.0712338652830056
 51
138.8461668638018125
  0
ARC
  5
9260
  8
0
 10
3.494551319011407
 20
-3.2214591599866651
 30
0.0
 40
0.2908142925324462
 50
296.2013575308540112
 51
329.5385704647634952
  0
ARC
  5
9261
  8
0
 10
-4.1249594535256611
 20
1.4706315422378109
 30
0.0
 40
9.2390890206950882
 50
328.411874857821374
 51
337.9872944134763202
  0
ARC
  5
9262
  8
0
 10
1.8592243099747059
 20
-0.9233121709829674
 30
0.0
 40
2.7939673920493542
 50
337.5050062121878796
 51
347.4228520751840961
  0
ARC
  5
9263
  8
0
 10
-61.3042073363712916
 20
13.8997718727084401
 30
0.0
 40
67.6732546208538679
 50
346.8189267572183212
 51
347.3190159800245169
  0
LINE
  5
9264
  8
0
 10
4.7183243957533696
 20
-0.9560247959166758
 30
0.0
 11
4.6036389998498626
 21
-0.9547607107684541
 31
0.0
  0
ARC
  5
9265
  8
0
 10
-16.4279213001263997
 20
17.2433140131024594
 30
0.0
 40
29.4476073656933686
 50
314.8283877825498962
 51
321.7777940049156769
  0
ARC
  5
9266
  8
0
 10
10.4879726408494207
 20
-3.6122747311769952
 30
0.0
 40
4.6094415675248133
 50
145.1196913976665996
 51
153.7039539268168937
  0
ARC
  5
9267
  8
0
 10
4.840385229686035
 20
-0.882519720421385
 30
0.0
 40
1.6639216060339459
 50
320.4129750910357188
 51
335.5865372640075748
  0
ARC
  5
9268
  8
0
 10
-3.5908138749132368
 20
5.5823109672630258
 30
0.0
 40
12.2874091655426394
 50
313.075788006530388
 51
322.2346673552502239
  0
ARC
  5
9269
  8
0
 10
4.5222515533064316
 20
-3.0896154933326438
 30
0.0
 40
0.4120667047086226
 50
285.2211936250591862
 51
312.579018418904127
  0
ARC
  5
926A
  8
0
 10
4.8464334224704544
 20
-4.2698696704258046
 30
0.0
 40
0.8119015091362177
 50
105.4285449798986036
 51
129.2972742696370005
  0
LINE
  5
926B
  8
0
 10
4.3322204259497994
 20
-3.6415631729684601
 30
0.0
 11
4.3695653688496341
 21
-3.6414723861786911
 31
0.0
  0
ARC
  5
926C
  8
0
 10
4.9017677729661946
 20
-4.3122360502566428
 30
0.0
 40
0.8562495500697831
 50
105.5011359200563987
 51
128.4294546341889998
  0
ARC
  5
926D
  8
0
 10
4.5699888443300551
 20
-3.0905236690470299
 30
0.0
 40
0.4097500823381817
 50
284.5500661937588802
 51
311.8991886722504887
  0
ARC
  5
926E
  8
0
 10
-3.4380311288969092
 20
5.5862011518410091
 30
0.0
 40
12.2170788629180702
 50
312.6778599235104821
 51
321.9661323770872059
  0
ARC
  5
926F
  8
0
 10
4.6207695583239001
 20
-0.6942731585093611
 30
0.0
 40
2.000105410675959
 50
321.4375662851803099
 51
333.997801674507798
  0
ARC
  5
9270
  8
0
 10
12.2255726677485601
 20
-4.6147112838325191
 30
0.0
 40
6.5564029604507859
 50
146.3008355112222034
 51
152.3405694887973993
  0
LINE
  5
9271
  8
0
 10
6.770893151337531
 20
-0.9770071791730572
 30
0.0
 11
6.7066243385497719
 21
-0.9763011764684392
 31
0.0
  0
ARC
  5
9272
  8
0
 10
0.6002473439079949
 20
-5.8488609180772348
 30
0.0
 40
0.252124927507654
 50
269.8099281951002126
 51
356.0560780505686012
  0
LINE
  5
9273
  8
0
 10
0.8517752008497154
 20
-5.8662020902684731
 30
0.0
 11
1.2401762593021881
 21
-0.2325756670287262
 31
0.0
  0
ARC
  5
9274
  8
0
 10
1.4907259975138909
 20
-0.2512406450726985
 30
0.0
 40
0.2512440103230144
 50
90.2965506932022066
 51
175.7395576683761078
  0
ARC
  5
9275
  8
0
 10
1.230458229649684
 20
-6.2259990853064826
 30
0.0
 40
0.1250004352619758
 50
270.0
 51
354.9998171579150039
  0
LINE
  5
9276
  8
0
 10
1.3549829657499679
 20
-6.2368939884684664
 30
0.0
 11
1.4634486443010239
 21
-4.9971711752677939
 31
0.0
  0
ARC
  5
9277
  8
0
 10
1.712727031861959
 20
-5.018981009826831
 30
0.0
 40
0.2502306603682488
 50
96.5395824532631508
 51
174.9998171579150039
  0
ARC
  5
9278
  8
0
 10
0.8983767172526314
 20
1.1903491184862669
 30
0.0
 40
6.0123070878321272
 50
277.5104588903888043
 51
308.940861202320491
  0
ARC
  5
9279
  8
0
 10
-10.2606511285475808
 20
14.4389848428244498
 30
0.0
 40
23.3531343548705017
 50
311.1533157332157771
 51
321.5321163376416962
  0
ARC
  5
927A
  8
0
 10
8.2252172540502215
 20
-0.2731714669396581
 30
0.0
 40
0.2732700887940456
 50
91.5393636447357153
 51
137.4668322062842947
  0
ARC
  5
927B
  8
0
 10
10.2699861658497795
 20
0.0300142690315397
 30
0.0
 40
0.0300142721999975
 50
270.0263267598983248
 51
359.9736759540032836
  0
ARC
  5
927C
  8
0
 10
10.4561317370444105
 20
0.1500483929706888
 30
0.0
 40
0.1200478552626738
 50
270.1570656766203911
 51
348.6927284665983962
  0
ARC
  5
927D
  8
0
 10
16.4724933488055285
 20
-1.052933342644621
 30
0.0
 40
6.0154042144462574
 50
153.7102534306096118
 51
168.6927284665983962
  0
ARC
  5
927E
  8
0
 10
10.89975432363007
 20
1.700045066944085
 30
0.0
 40
0.200246223470483
 50
333.710253430608077
 51
359.9861497786524183
  0
ARC
  5
927F
  8
0
 10
10.9000457275683402
 20
1.7000449965024409
 30
0.0
 40
0.1999548195234729
 50
359.9861497786524183
 51
89.9772956638447567
  0
LINE
  5
9280
  8
0
 10
1.684228364549653
 20
-4.7703784970684628
 30
0.0
 11
1.1313311300391431
 21
-4.7701865272444763
 31
0.0
  0
ARC
  5
9281
  8
0
 10
1.130765929415247
 20
-4.9883047531612874
 30
0.0
 40
0.2181189582059282
 50
89.8515321784317109
 51
173.7886947654573078
  0
ENDBLK
  5
9285
  8
0
  0
ENDSEC
  0
SECTION
  2
ENTITIES
  0
ATTDEF
  5
3930
  8
DEFPOINTS
 10
3581.8091053679258948
 20
183.4981363721238949
 30
0.0
 40
0.001
  1
K-2075IN-1
  3

  2
MODELNUMBER
 70
     0
1001
ACDBATTR
1070
     0
1070
     1
  0
ATTDEF
  5
3931
  8
DEFPOINTS
 10
3581.8091053679258948
 20
183.4964697054572014
 30
0.0
 40
0.001
  1
SERIF
  3

  2
TRADENAME
 70
     0
1001
ACDBATTR
1070
     0
1070
     1
  0
ATTDEF
  5
3932
  8
DEFPOINTS
 10
3581.8091053679258948
 20
183.4948030387905931
 30
0.0
 40
0.001
  1
BATHROOM SINK
  3

  2
PRODUCT
 70
     0
1001
ACDBATTR
1070
     0
1070
     1
  0
ARC
  5
962F
  8
0
 10
3581.8247071149899057
 20
193.1371138444289102
 30
0.0
 40
17.8074437082700605
 50
257.4881944456890892
 51
269.978103278278013
  0
ARC
  5
9630
  8
0
 10
3580.1500647712127829
 20
186.3911857993851982
 30
0.0
 40
10.8603111048942402
 50
226.5221943401475926
 51
258.4031925671654903
  0
ARC
  5
9631
  8
0
 10
3577.2595227032079492
 20
183.179251631503007
 30
0.0
 40
6.5416629064408962
 50
180.2036163544410101
 51
225.5363553473729041
  0
ARC
  5
9632
  8
0
 10
3579.2940031272228225
 20
182.8089350464865959
 30
0.0
 40
8.5831219731369366
 50
137.5269965980529037
 51
177.6825432721655034
  0
ARC
  5
9633
  8
0
 10
3580.006704017589982
 20
181.1808703277563097
 30
0.0
 40
10.2334782446668697
 50
105.7981755283318961
 51
133.4946909244698077
  0
ARC
  5
9634
  8
0
 10
3582.0060737144090126
 20
173.2393188898057019
 30
0.0
 40
18.4209190247973709
 50
90.5852939704912927
 51
105.0571495490843006
  0
CIRCLE
  5
9635
  8
0
 10
3581.8179016463591324
 20
182.9060041222346058
 30
0.0
 40
0.875
  0
CIRCLE
  5
9636
  8
0
 10
3581.8179016463591324
 20
182.9060041222346058
 30
0.0
 40
1.4319213428682751
  0
ARC
  5
9637
  8
0
 10
3581.7050175742201645
 20
177.082230078822505
 30
0.0
 40
0.2795359298570521
 50
231.9381659138786063
 51
257.061556100520022
  0
ARC
  5
9638
  8
0
 10
3581.5627856719170268
 20
176.901882674123101
 30
0.0
 40
0.0498589458303633
 50
132.0456926305504055
 51
232.8568917899198993
  0
ARC
  5
9639
  8
0
 10
3581.6839456288839756
 20
176.7654468850053888
 30
0.0
 40
0.2323254890697338
 50
103.5605539921464953
 51
131.700553045041687
  0
ARC
  5
963A
  8
0
 10
3581.8166599554051572
 20
176.2849133056554081
 30
0.0
 40
0.7307637431090525
 50
73.3975560699420697
 51
104.8420002826823065
  0
ARC
  5
963B
  8
0
 10
3581.9698601116178907
 20
176.798732958893595
 30
0.0
 40
0.1945912672044866
 50
42.3475383504393292
 51
73.3975560699420697
  0
ARC
  5
963C
  8
0
 10
3582.0822100134050743
 20
176.9011340302276949
 30
0.0
 40
0.042576531596572
 50
307.1786799201266831
 51
42.3475383504381284
  0
ARC
  5
963D
  8
0
 10
3581.8903643095832194
 20
177.1540767983235867
 30
0.0
 40
0.360042778632533
 50
273.2503182540319813
 51
307.1786799201266831
  0
ARC
  5
963E
  8
0
 10
3581.8425835089537941
 20
177.9687427371702881
 30
0.0
 40
1.176108275610126
 50
260.2014645412829168
 51
273.3240621374500847
  0
ARC
  5
963F
  8
0
 10
3581.7595407016788158
 20
190.2457654088674985
 30
0.0
 40
13.4689188408715399
 50
244.5670426124844994
 51
270.2482638971677034
  0
ARC
  5
9640
  8
0
 10
3578.1793460840281114
 20
182.5173232221094111
 30
0.0
 40
4.9526639008921274
 50
200.3155869404181999
 51
243.5745929899505882
  0
ARC
  5
9641
  8
0
 10
3577.1408544382320542
 20
181.8551511801661889
 30
0.0
 40
3.7579068646135232
 50
138.4710134751055932
 51
196.3417488443290893
  0
ARC
  5
9642
  8
0
 10
3579.2258290699478493
 20
179.907934590738904
 30
0.0
 40
6.6101937311737231
 50
104.6192124179524967
 51
137.8175324503592094
  0
ARC
  5
9643
  8
0
 10
3582.0180580867408935
 20
169.0580347436383875
 30
0.0
 40
17.8136026765045585
 50
90.6437979340365843
 51
104.5014327502911016
  0
ARC
  5
9644
  8
0
 10
3580.7130971846490866
 20
177.1116107565073889
 30
0.0
 40
0.2703628947982577
 50
227.7905819356830079
 51
254.0417819230042937
  0
ARC
  5
9645
  8
0
 10
3580.5615611673501917
 20
176.9510985907508882
 30
0.0
 40
0.0498589458303633
 50
132.0456926305504055
 51
232.8568917899198993
  0
ARC
  5
9646
  8
0
 10
3580.6714497789807865
 20
176.8076797076506068
 30
0.0
 40
0.2304116468443549
 50
100.4449571373287
 51
128.4509808719840009
  0
ARC
  5
9647
  8
0
 10
3580.772599556206842
 20
176.3119833883673095
 30
0.0
 40
0.7362942678369837
 50
70.8503913642119016
 51
101.1926750905848991
  0
ARC
  5
9648
  8
0
 10
3580.9433544288767735
 20
176.7876376482180945
 30
0.0
 40
0.2310067087633035
 50
44.2579804978850007
 51
72.1587202888994881
  0
ARC
  5
9649
  8
0
 10
3581.0739885178859367
 20
176.9143942130482117
 30
0.0
 40
0.0489852969112137
 50
306.8571335038437837
 51
44.7078341530483101
  0
ARC
  5
964A
  8
0
 10
3580.9096688126642221
 20
177.1796786097592928
 30
0.0
 40
0.3608713004280898
 50
270.2143572492379917
 51
302.4635135016695244
  0
ARC
  5
964B
  8
0
 10
3580.8652391901700867
 20
177.5838570337504905
 30
0.0
 40
0.76641568341415
 50
252.81257623726421
 51
273.4244436736869943
  0
CIRCLE
  5
964C
  8
0
 10
3581.8179016463591324
 20
188.8449582790346142
 30
0.0
 40
0.6549999999999998
  0
ARC
  5
964E
  8
0
 10
3581.8110961777269949
 20
193.1371138444289102
 30
0.0
 40
17.8074437082700605
 50
270.021896721721987
 51
282.5118055543109108
  0
ARC
  5
964F
  8
0
 10
3583.4857385215041177
 20
186.3911857993851982
 30
0.0
 40
10.8603111048942402
 50
281.5968074328345097
 51
313.477805659852379
  0
ARC
  5
9650
  8
0
 10
3583.6290992751269187
 20
181.1808703277563097
 30
0.0
 40
10.2334782446668697
 50
46.505309075530171
 51
74.2018244716680755
  0
ARC
  5
9651
  8
0
 10
3581.629729578307888
 20
173.2393188898057019
 30
0.0
 40
18.4209190247973709
 50
74.9428504509156852
 51
89.4147060295087357
  0
ARC
  5
9652
  8
0
 10
3581.8762625910380848
 20
190.2457654088674985
 30
0.0
 40
13.4689188408715399
 50
269.7517361028322966
 51
295.4329573875155006
  0
ARC
  5
9653
  8
0
 10
3585.4564572086887893
 20
182.5173232221094111
 30
0.0
 40
4.9526639008921274
 50
296.4254070100494118
 51
339.6844130595816864
  0
ARC
  5
9654
  8
0
 10
3586.4949488544848464
 20
181.8551511801661889
 30
0.0
 40
3.7579068646135232
 50
343.6582511556708255
 51
41.528986524894357
  0
ARC
  5
9655
  8
0
 10
3584.4099742227690513
 20
179.907934590738904
 30
0.0
 40
6.6101937311737231
 50
42.1824675496407409
 51
75.3807875820474322
  0
ARC
  5
9656
  8
0
 10
3581.6177452059760071
 20
169.0580347436383875
 30
0.0
 40
17.8136026765045585
 50
75.4985672497088842
 51
89.3562020659634157
  0
ARC
  5
9657
  8
0
 10
3582.9227061080691783
 20
177.1116107565073889
 30
0.0
 40
0.2703628947982577
 50
285.9582180769957063
 51
312.2094180643168784
  0
ARC
  5
9658
  8
0
 10
3583.0742421253680732
 20
176.9510985907508882
 30
0.0
 40
0.0498589458303633
 50
307.1431082100801859
 51
47.9543073694496016
  0
ARC
  5
9659
  8
0
 10
3582.9643535137361141
 20
176.8076797076506068
 30
0.0
 40
0.2304116468443549
 50
51.5490191280159422
 51
79.5550428626713426
  0
ARC
  5
965A
  8
0
 10
3582.8632037365100587
 20
176.3119833883673095
 30
0.0
 40
0.7362942678369837
 50
78.8073249094150583
 51
109.1496086357880984
  0
ARC
  5
965B
  8
0
 10
3582.6924488638401272
 20
176.7876376482180945
 30
0.0
 40
0.2310067087633035
 50
107.8412797111004977
 51
135.7420195021149993
  0
ARC
  5
965C
  8
0
 10
3582.5618147748327829
 20
176.9143942130482117
 30
0.0
 40
0.0489852969112137
 50
135.2921658469516899
 51
233.1428664961561026
  0
ARC
  5
965D
  8
0
 10
3582.7261344800540428
 20
177.1796786097592928
 30
0.0
 40
0.3608713004280898
 50
237.536486498330504
 51
269.7856427507620083
  0
ARC
  5
965E
  8
0
 10
3582.7705641025481782
 20
177.5838570337504905
 30
0.0
 40
0.76641568341415
 50
266.5755563263130057
 51
287.1874237627358184
  0
POINT
  5
9661
  8
DEFPOINTS
 10
3581.8179016463591324
 20
188.8449582790346142
 30
0.0
  0
ARC
  5
9662
  8
0
 10
3586.3762805895089514
 20
183.179251631503007
 30
0.0
 40
6.5416629064408962
 50
314.4636446526258737
 51
359.7963836455588762
  0
ARC
  5
9663
  8
0
 10
3584.3418001654940781
 20
182.8089350464865959
 30
0.0
 40
8.5831219731369366
 50
2.3174567278344891
 51
42.4730034019471105
  0
ARC
  5
9664
  8
0
 10
3586.3762805895089514
 20
183.179251631503007
 30
0.0
 40
6.5416629064408962
 50
314.4636446526258737
 51
359.7963836455588762
  0
ARC
  5
9665
  8
0
 10
3584.3418001654940781
 20
182.8089350464865959
 30
0.0
 40
8.5831219731369366
 50
2.3174567278344891
 51
42.4730034019471105
  0
ENDSEC
  0
EOF
