  0
SECTION
  2
HEADER
  9
$ACADVER
  1
AC1009
  9
$INSBASE
 10
6503.7478120545029014
 20
331.7237994571087256
 30
0.0
  9
$EXTMIN
 10
6500.645449849803299
 20
328.1811863218072176
 30
0.0
  9
$EXTMAX
 10
6503.7588053417821357
 20
335.2664125924101768
 30
0.0
  9
$LIMMIN
 10
0.0
 20
0.0
  9
$LIMMAX
 10
11.6929133858000007
 20
8.2677165353999982
  9
$ORTHOMODE
 70
     0
  9
$REGENMODE
 70
     1
  9
$FILLMODE
 70
     1
  9
$QTEXTMODE
 70
     0
  9
$MIRRTEXT
 70
     0
  9
$DRAGMODE
 70
     2
  9
$LTSCALE
 40
0.6431102362
  9
$OSMODE
 70
  4095
  9
$ATTMODE
 70
     1
  9
$TEXTSIZE
 40
0.2
  9
$TRACEWID
 40
0.05
  9
$TEXTSTYLE
  7
STANDARD
  9
$CLAYER
  8
0
  9
$CELTYPE
  6
BYLAYER
  9
$CECOLOR
 62
   256
  9
$DIMSCALE
 40
1.0
  9
$DIMASZ
 40
0.1875
  9
$DIMEXO
 40
0.0625
  9
$DIMDLI
 40
0.4443307087
  9
$DIMRND
 40
0.0
  9
$DIMDLE
 40
0.0
  9
$DIMEXE
 40
0.125
  9
$DIMTP
 40
0.01
  9
$DIMTM
 40
0.01
  9
$DIMTXT
 40
2.0
  9
$DIMCEN
 40
0.1052362205
  9
$DIMTSZ
 40
0.0
  9
$DIMTOL
 70
     1
  9
$DIMLIM
 70
     0
  9
$DIMTIH
 70
     1
  9
$DIMTOH
 70
     1
  9
$DIMSE1
 70
     0
  9
$DIMSE2
 70
     0
  9
$DIMTAD
 70
     0
  9
$DIMZIN
 70
     0
  9
$DIMBLK
  1

  9
$DIMASO
 70
     1
  9
$DIMSHO
 70
     1
  9
$DIMPOST
  1
\X
  9
$DIMAPOST
  1

  9
$DIMALT
 70
     1
  9
$DIMALTD
 70
     2
  9
$DIMALTF
 40
25.3999999999999986
  9
$DIMLFAC
 40
1.0
  9
$DIMTOFL
 70
     0
  9
$DIMTVP
 40
0.0
  9
$DIMTIX
 70
     0
  9
$DIMSOXD
 70
     0
  9
$DIMSAH
 70
     0
  9
$DIMBLK1
  1

  9
$DIMBLK2
  1

  9
$DIMSTYLE
  2
STANDARD
  9
$DIMCLRD
 70
     0
  9
$DIMCLRE
 70
     0
  9
$DIMCLRT
 70
     0
  9
$DIMTFAC
 40
1.0
  9
$DIMGAP
 40
0.09
  9
$LUNITS
 70
     2
  9
$LUPREC
 70
     4
  9
$SKETCHINC
 40
0.1
  9
$FILLETRAD
 40
0.0
  9
$AUNITS
 70
     0
  9
$AUPREC
 70
     0
  9
$MENU
  1
.
  9
$ELEVATION
 40
0.0
  9
$PELEVATION
 40
0.0
  9
$THICKNESS
 40
0.0
  9
$LIMCHECK
 70
     0
  9
$BLIPMODE
 70
     0
  9
$CHAMFERA
 40
0.0
  9
$CHAMFERB
 40
0.0
  9
$SKPOLY
 70
     0
  9
$TDCREATE
 40
2458060.468368056230247
  9
$TDUPDATE
 40
2460462.5242361109703779
  9
$TDINDWG
 40
1.0254584491000001
  9
$TDUSRTIMER
 40
1.0254584491000001
  9
$USRTIMER
 70
     1
  9
$ANGBASE
 50
0.0
  9
$ANGDIR
 70
     0
  9
$PDMODE
 70
     0
  9
$PDSIZE
 40
0.3125
  9
$PLINEWID
 40
0.0
  9
$COORDS
 70
     1
  9
$SPLFRAME
 70
     0
  9
$SPLINETYPE
 70
     6
  9
$SPLINESEGS
 70
     8
  9
$ATTDIA
 70
     1
  9
$ATTREQ
 70
     1
  9
$HANDLING
 70
     1
  9
$HANDSEED
  5
3431E
  9
$SURFTAB1
 70
     6
  9
$SURFTAB2
 70
     6
  9
$SURFTYPE
 70
     6
  9
$SURFU
 70
     6
  9
$SURFV
 70
     6
  9
$UCSNAME
  2

  9
$UCSORG
 10
0.0
 20
0.0
 30
0.0
  9
$UCSXDIR
 10
1.0
 20
0.0
 30
0.0
  9
$UCSYDIR
 10
0.0
 20
1.0
 30
0.0
  9
$PUCSNAME
  2

  9
$PUCSORG
 10
0.0
 20
0.0
 30
0.0
  9
$PUCSXDIR
 10
1.0
 20
0.0
 30
0.0
  9
$PUCSYDIR
 10
0.0
 20
1.0
 30
0.0
  9
$USERI1
 70
     0
  9
$USERI2
 70
     0
  9
$USERI3
 70
     0
  9
$USERI4
 70
     0
  9
$USERI5
 70
     0
  9
$USERR1
 40
0.0
  9
$USERR2
 40
0.0
  9
$USERR3
 40
0.0
  9
$USERR4
 40
0.0
  9
$USERR5
 40
0.0
  9
$WORLDVIEW
 70
     1
  9
$SHADEDGE
 70
     3
  9
$SHADEDIF
 70
    70
  9
$TILEMODE
 70
     1
  9
$MAXACTVP
 70
    64
  9
$PLIMCHECK
 70
     0
  9
$PEXTMIN
 10
1.0000000000000000E+20
 20
1.0000000000000000E+20
 30
1.0000000000000000E+20
  9
$PEXTMAX
 10
-1.0000000000000000E+20
 20
-1.0000000000000000E+20
 30
-1.0000000000000000E+20
  9
$PLIMMIN
 10
0.0
 20
0.0
  9
$PLIMMAX
 10
12.0
 20
9.0
  9
$UNITMODE
 70
     0
  9
$VISRETAIN
 70
     1
  9
$PLINEGEN
 70
     0
  9
$PSLTSCALE
 70
     1
  0
ENDSEC
  0
SECTION
  2
TABLES
  0
TABLE
  2
VPORT
 70
     1
  0
VPORT
  2
*ACTIVE
 70
     0
 10
0.0
 20
0.0
 11
1.0
 21
1.0
 12
2590.8367711504802173
 22
199.1441943545696063
 13
0.0
 23
0.0
 14
1.0
 24
1.0
 15
0.0
 25
0.0
 16
0.0
 26
0.0
 36
60.4960186965801583
 17
3911.3653564453120453
 27
132.5796051025390057
 37
0.0
 40
7.146198485523608
 41
2.5251322751322749
 42
50.0
 43
0.0
 44
0.0
 50
0.0
 51
0.0
 71
     0
 72
   100
 73
     1
 74
     1
 75
     0
 76
     0
 77
     0
 78
     0
  0
ENDTAB
  0
TABLE
  2
LTYPE
 70
     2
  0
LTYPE
  2
CONTINUOUS
 70
     0
  3
Solid line
 72
    65
 73
     0
 40
0.0
  0
LTYPE
  2
PHANTOM2
 70
     0
  3
___ _ _ ___ _ _ ___ _ _ ___ _ _
 72
    65
 73
     6
 40
1.25
 49
0.625
 49
-0.125
 49
0.125
 49
-0.125
 49
0.125
 49
-0.125
  0
ENDTAB
  0
TABLE
  2
LAYER
 70
     2
  0
LAYER
  2
0
 70
     0
 62
   255
  6
CONTINUOUS
  0
LAYER
  2
DEFPOINTS
 70
     0
 62
     7
  6
CONTINUOUS
  0
ENDTAB
  0
TABLE
  2
STYLE
 70
     1
  0
STYLE
  2
STANDARD
 70
     0
 40
0.0
 41
0.8
 50
0.0
 71
     0
 42
0.2
  3
txt
  4

  0
ENDTAB
  0
TABLE
  2
VIEW
 70
     0
  0
ENDTAB
  0
TABLE
  2
UCS
 70
     0
  0
ENDTAB
  0
TABLE
  2
APPID
 70
    11
  0
APPID
  2
ACAD
 70
     0
  0
APPID
  2
ACAD_MLEADERVER
 70
     0
  0
APPID
  2
ACAD_EXEMPT_FROM_CAD_STANDARDS
 70
     0
  0
APPID
  2
ACAD_NAV_VCDISPLAY
 70
     0
  0
APPID
  2
ACAECLAYERSTANDARD
 70
     0
  0
APPID
  2
ACCMTRANSPARENCY
 70
     0
  0
APPID
  2
ACAD_DSTYLE_DIMJAG
 70
     0
  0
APPID
  2
ACAD_DSTYLE_DIMTALN
 70
     0
  0
APPID
  2
ACDBATTR
 70
     0
  0
APPID
  2
ACADANNOTATIVE
 70
     0
  0
APPID
  2
DCO15
 70
     0
  0
ENDTAB
  0
TABLE
  2
DIMSTYLE
 70
     1
  0
DIMSTYLE
  2
STANDARD
 70
     0
  3

  4

  5

  6

  7

 40
1.0
 41
0.1875
 42
0.0625
 43
0.38
 44
0.125
 45
0.0
 46
0.0
 47
0.01
 48
0.01
140
0.15625
141
0.09
142
0.0
143
25.3999999999999986
144
1.0
145
0.0
146
1.0
147
0.09
 71
     1
 72
     0
 73
     1
 74
     1
 75
     0
 76
     0
 77
     0
 78
     4
170
     0
171
     2
172
     0
173
     0
174
     0
175
     0
176
     0
177
     0
178
     0
  0
ENDTAB
  0
ENDSEC
  0
SECTION
  2
BLOCKS
  0
BLOCK
  8
0
  2
$MODEL_SPACE
 70
     0
 10
0.0
 20
0.0
 30
0.0
  3
$MODEL_SPACE
  1

  0
ENDBLK
  5
21
  8
0
  0
BLOCK
 67
     1
  8
0
  2
$PAPER_SPACE
 70
     0
 10
0.0
 20
0.0
 30
0.0
  3
$PAPER_SPACE
  1

  0
ENDBLK
  5
1D
 67
     1
  8
0
  0
BLOCK
  8
0
  2
_FILLED
 70
     0
 10
0.0
 20
0.0
 30
0.0
  3
_FILLED
  1

  0
SOLID
  5
2853B
  8
0
  6
BYBLOCK
 62
     0
 10
0.0
 20
0.0
 30
0.0
 11
-1.0
 21
0.1666666667
 31
0.0
 12
-1.0
 22
-0.1666666667
 32
0.0
 13
-1.0
 23
-0.1666666667
 33
0.0
  0
ENDBLK
  5
2853C
  8
0
  6
BYBLOCK
 62
     0
  0
ENDSEC
  0
SECTION
  2
ENTITIES
  0
ATTDEF
  5
2842F
  8
DEFPOINTS
 10
6503.7481386751132959
 20
331.7245824093046167
 30
0.0
 40
0.001
  1
K-20742IN-9FP
  3

  2
MODELNUMBER
 70
     0
1001
ACDBATTR
1070
     0
1070
     1
  0
ATTDEF
  5
28430
  8
DEFPOINTS
 10
6503.7480128654569853
 20
331.7229155689254867
 30
0.0
 40
0.001
  1
AUTOSENSE
  3

  2
TRADENAME
 70
     0
1001
ACDBATTR
1070
     0
1070
     1
  0
ATTDEF
  5
28431
  8
DEFPOINTS
 10
6503.7481386751132959
 20
331.7212490759711727
 30
0.0
 40
0.001
  1
VALVE TRIM
  3

  2
PRODUCT
 70
     0
1001
ACDBATTR
1070
     0
1070
     1
  0
LINE
  5
341A6
  8
0
 10
6501.1769608734030044
 20
329.2237934798836818
 30
0.0
 11
6501.6887419758022588
 21
329.2237934798836818
 31
0.0
  0
LINE
  5
341A7
  8
0
 10
6503.7478120545029014
 20
335.2467125924101765
 30
0.0
 11
6503.7478120545029014
 21
328.2008863218072179
 31
0.0
  0
ARC
  5
341A8
  8
0
 10
6682.0296016207557841
 20
332.853091301738516
 30
0.0
 40
178.8873557899759987
 50
179.2454117383130097
 51
179.6240208178512034
  0
ARC
  5
341A9
  8
0
 10
6858.5891794639828731
 20
331.5970577883276178
 30
0.0
 40
355.4513877224464977
 50
179.6083179093641036
 51
179.9795703066189105
  0
LINE
  5
341AA
  8
0
 10
6502.3383632356026283
 20
334.1056952167837153
 30
0.0
 11
6502.3383632356026283
 21
332.60963222458372
 31
0.0
  0
LINE
  5
341AB
  8
0
 10
6502.3383632356026283
 20
331.1529393111836725
 30
0.0
 11
6502.3383632356026283
 21
329.2631755316933777
 31
0.0
  0
LINE
  5
341AC
  8
0
 10
6502.4052923695016943
 20
334.0269550593076247
 30
0.0
 11
6503.1460973354023736
 21
334.0269550593076247
 31
0.0
  0
LINE
  5
341AD
  8
0
 10
6502.3856073301021752
 20
334.0072700198837197
 30
0.0
 11
6502.3856073301021752
 21
332.7080574214837156
 31
0.0
  0
LINE
  5
341AE
  8
0
 10
6502.4052923695016943
 20
332.6883723820836849
 30
0.0
 11
6503.1394670344052429
 21
332.6883723820836849
 31
0.0
  0
LINE
  5
341AF
  8
0
 10
6502.3856073301021752
 20
332.7080574214837156
 30
0.0
 11
6502.4052923695016943
 21
332.6883723820836849
 31
0.0
  0
LINE
  5
341B0
  8
0
 10
6502.4052923695016943
 20
334.0269550593076247
 30
0.0
 11
6502.3856073301021752
 21
334.0072700198837197
 31
0.0
  0
LINE
  5
341B1
  8
0
 10
6502.4052923695016943
 20
334.0269550593076247
 30
0.0
 11
6502.4052923695016943
 21
332.6883723820836849
 31
0.0
  0
LINE
  5
341B2
  8
0
 10
6502.3383632356026283
 20
333.9383723820836849
 30
0.0
 11
6502.3856073301021752
 21
333.9383723820836849
 31
0.0
  0
LINE
  5
341B3
  8
0
 10
6502.3383632356026283
 20
332.7769550592836936
 30
0.0
 11
6502.3856073301021752
 21
332.7769550592836936
 31
0.0
  0
LINE
  5
341B4
  8
0
 10
6500.645449849803299
 20
334.0713925546191945
 30
0.0
 11
6500.645449849803299
 21
332.643934886748184
 31
0.0
  0
LINE
  5
341B5
  8
0
 10
6502.3383632356026283
 20
334.1056952167837153
 30
0.0
 11
6500.664977937052754
 21
334.0910918045036055
 31
0.0
  0
LINE
  5
341B6
  8
0
 10
6502.3383632356026283
 20
332.60963222458372
 30
0.0
 11
6500.664977937052754
 21
332.6242356368637729
 31
0.0
  0
ARC
  5
341B7
  8
0
 10
6500.6651498498031287
 20
334.0713925546191945
 30
0.0
 40
0.0197
 50
90.5000000005908447
 51
179.9999999999934914
  0
ARC
  5
341B8
  8
0
 10
6500.6651498498031287
 20
332.643934886748184
 30
0.0
 40
0.0197
 50
180.0
 51
269.4999999994092263
  0
LINE
  5
341B9
  8
0
 10
6503.7274245518965472
 20
335.2664005923127775
 30
0.0
 11
6503.1957812089549407
 21
335.2478356702529823
 31
0.0
  0
ARC
  5
341BA
  8
0
 10
6503.7281120545021622
 20
335.2467125924101765
 30
0.0
 40
0.0197
 50
359.9999999999968168
 51
91.9999491325392711
  0
ARC
  5
341BB
  8
0
 10
6503.1971562141670802
 20
335.2084596704477804
 30
0.0
 40
0.0394
 50
91.9999491325392711
 51
179.2454117383651067
  0
LINE
  5
341BC
  8
0
 10
6503.1577596310862646
 20
335.2089785554059063
 30
0.0
 11
6503.1577596310862646
 21
328.2386203588135913
 31
0.0
  0
ARC
  5
341BD
  8
0
 10
6658.9960506191837339
 20
330.4376059423885863
 30
0.0
 40
155.8538048162048142
 50
180.4028066198112015
 51
180.8084292451883925
  0
ARC
  5
341BE
  8
0
 10
6883.3047292192995883
 20
331.8548731729305246
 30
0.0
 40
380.1669374776722066
 50
180.0197544029493031
 51
180.3787360032202116
  0
LINE
  5
341BF
  8
0
 10
6502.4052923695016943
 20
329.3419156891836792
 30
0.0
 11
6503.1460973354023736
 21
329.3419156891836792
 31
0.0
  0
LINE
  5
341C0
  8
0
 10
6502.3856073301021752
 20
329.3616007286075842
 30
0.0
 11
6502.3856073301021752
 21
331.0545141143837213
 31
0.0
  0
LINE
  5
341C1
  8
0
 10
6502.4052923695016943
 20
331.0741991537836952
 30
0.0
 11
6503.1394670344052429
 21
331.0741991537836952
 31
0.0
  0
LINE
  5
341C2
  8
0
 10
6502.3856073301021752
 20
331.0545141143837213
 30
0.0
 11
6502.4052923695016943
 21
331.0741991537836952
 31
0.0
  0
LINE
  5
341C3
  8
0
 10
6502.4052923695016943
 20
329.3419156891836792
 30
0.0
 11
6502.3856073301021752
 21
329.3616007286075842
 31
0.0
  0
LINE
  5
341C4
  8
0
 10
6502.4052923695016943
 20
329.3419156891836792
 30
0.0
 11
6502.4052923695016943
 21
331.0741991537836952
 31
0.0
  0
LINE
  5
341C5
  8
0
 10
6502.3383632356026283
 20
329.430498366407619
 30
0.0
 11
6502.3856073301021752
 21
329.430498366407619
 31
0.0
  0
LINE
  5
341C6
  8
0
 10
6502.3383632356026283
 20
330.9856164765836866
 30
0.0
 11
6502.3856073301021752
 21
330.9856164765836866
 31
0.0
  0
LINE
  5
341C7
  8
0
 10
6500.645449849803299
 20
329.2974781938719957
 30
0.0
 11
6500.645449849803299
 21
331.1186366491191961
 31
0.0
  0
LINE
  5
341C8
  8
0
 10
6502.3383632356026283
 20
329.2631755317075886
 30
0.0
 11
6500.664977937052754
 21
329.2777789439876983
 31
0.0
  0
LINE
  5
341C9
  8
0
 10
6502.3383632356026283
 20
331.152939311283717
 30
0.0
 11
6500.664977937052754
 21
331.1383358990036072
 31
0.0
  0
ARC
  5
341CA
  8
0
 10
6500.6651498498031287
 20
329.2974781938719957
 30
0.0
 40
0.0197
 50
180.0000000000065086
 51
269.4999999994092263
  0
ARC
  5
341CB
  8
0
 10
6500.6651498498031287
 20
331.1186366491191961
 30
0.0
 40
0.0197
 50
90.5000000005908447
 51
180.0
  0
LINE
  5
341CC
  8
0
 10
6503.7274245518965472
 20
328.1811983219045032
 30
0.0
 11
6503.1957812089549407
 21
328.1997632439642985
 31
0.0
  0
ARC
  5
341CD
  8
0
 10
6503.7281120545021622
 20
328.2008863218072179
 30
0.0
 40
0.0197
 50
268.0000508674606863
 51
0.0000000000032569
  0
ARC
  5
341CE
  8
0
 10
6503.1971562141670802
 20
328.239139243769614
 30
0.0
 40
0.0394
 50
180.7545882616348081
 51
268.0000508674606863
  0
LINE
  5
341CF
  8
0
 10
6501.1572608734022651
 20
329.2434934798836821
 30
0.0
 11
6501.1572608734022651
 21
329.2734828558815821
 31
0.0
  0
LINE
  5
341D0
  8
0
 10
6501.7084419758039076
 20
329.2434934798836821
 30
0.0
 11
6501.7084419758039076
 21
329.2686727712667221
 31
0.0
  0
ARC
  5
341D1
  8
0
 10
6501.1769608734030044
 20
329.2434934798836821
 30
0.0
 40
0.0197
 50
180.0
 51
270.0
  0
ARC
  5
341D2
  8
0
 10
6501.6887419758022588
 20
329.2434934798836821
 30
0.0
 40
0.0197
 50
270.0
 51
0.0000000000032569
  0
ENDSEC
  0
EOF
