  0
SECTION
  2
HEADER
  9
$ACADVER
  1
AC1009
  9
$INSBASE
 10
6509.207063309689147
 20
331.9728896327334837
 30
0.0
  9
$EXTMIN
 10
6506.4518577452627142
 20
328.8705274280334834
 30
0.0
  9
$EXTMAX
 10
6511.9622688741155798
 20
331.9778089414995748
 30
0.0
  9
$LIMMIN
 10
0.0
 20
0.0
  9
$LIMMAX
 10
11.6929133858000007
 20
8.2677165353999982
  9
$ORTHOMODE
 70
     0
  9
$REGENMODE
 70
     1
  9
$FILLMODE
 70
     1
  9
$QTEXTMODE
 70
     0
  9
$MIRRTEXT
 70
     0
  9
$DRAGMODE
 70
     2
  9
$LTSCALE
 40
0.6431102362
  9
$OSMODE
 70
  4095
  9
$ATTMODE
 70
     1
  9
$TEXTSIZE
 40
0.2
  9
$TRACEWID
 40
0.05
  9
$TEXTSTYLE
  7
STANDARD
  9
$CLAYER
  8
0
  9
$CELTYPE
  6
BYLAYER
  9
$CECOLOR
 62
   256
  9
$DIMSCALE
 40
1.0
  9
$DIMASZ
 40
0.1875
  9
$DIMEXO
 40
0.0625
  9
$DIMDLI
 40
0.4443307087
  9
$DIMRND
 40
0.0
  9
$DIMDLE
 40
0.0
  9
$DIMEXE
 40
0.125
  9
$DIMTP
 40
0.01
  9
$DIMTM
 40
0.01
  9
$DIMTXT
 40
2.0
  9
$DIMCEN
 40
0.1052362205
  9
$DIMTSZ
 40
0.0
  9
$DIMTOL
 70
     1
  9
$DIMLIM
 70
     0
  9
$DIMTIH
 70
     1
  9
$DIMTOH
 70
     1
  9
$DIMSE1
 70
     0
  9
$DIMSE2
 70
     0
  9
$DIMTAD
 70
     0
  9
$DIMZIN
 70
     0
  9
$DIMBLK
  1

  9
$DIMASO
 70
     1
  9
$DIMSHO
 70
     1
  9
$DIMPOST
  1
\X
  9
$DIMAPOST
  1

  9
$DIMALT
 70
     1
  9
$DIMALTD
 70
     2
  9
$DIMALTF
 40
25.3999999999999986
  9
$DIMLFAC
 40
1.0
  9
$DIMTOFL
 70
     0
  9
$DIMTVP
 40
0.0
  9
$DIMTIX
 70
     0
  9
$DIMSOXD
 70
     0
  9
$DIMSAH
 70
     0
  9
$DIMBLK1
  1

  9
$DIMBLK2
  1

  9
$DIMSTYLE
  2
STANDARD
  9
$DIMCLRD
 70
     0
  9
$DIMCLRE
 70
     0
  9
$DIMCLRT
 70
     0
  9
$DIMTFAC
 40
1.0
  9
$DIMGAP
 40
0.09
  9
$LUNITS
 70
     2
  9
$LUPREC
 70
     4
  9
$SKETCHINC
 40
0.1
  9
$FILLETRAD
 40
0.0
  9
$AUNITS
 70
     0
  9
$AUPREC
 70
     0
  9
$MENU
  1
.
  9
$ELEVATION
 40
0.0
  9
$PELEVATION
 40
0.0
  9
$THICKNESS
 40
0.0
  9
$LIMCHECK
 70
     0
  9
$BLIPMODE
 70
     0
  9
$CHAMFERA
 40
0.0
  9
$CHAMFERB
 40
0.0
  9
$SKPOLY
 70
     0
  9
$TDCREATE
 40
2458060.468368056230247
  9
$TDUPDATE
 40
2460462.5239699077792466
  9
$TDINDWG
 40
1.0248913194
  9
$TDUSRTIMER
 40
1.0248913194
  9
$USRTIMER
 70
     1
  9
$ANGBASE
 50
0.0
  9
$ANGDIR
 70
     0
  9
$PDMODE
 70
     0
  9
$PDSIZE
 40
0.3125
  9
$PLINEWID
 40
0.0
  9
$COORDS
 70
     1
  9
$SPLFRAME
 70
     0
  9
$SPLINETYPE
 70
     6
  9
$SPLINESEGS
 70
     8
  9
$ATTDIA
 70
     1
  9
$ATTREQ
 70
     1
  9
$HANDLING
 70
     1
  9
$HANDSEED
  5
3436F
  9
$SURFTAB1
 70
     6
  9
$SURFTAB2
 70
     6
  9
$SURFTYPE
 70
     6
  9
$SURFU
 70
     6
  9
$SURFV
 70
     6
  9
$UCSNAME
  2

  9
$UCSORG
 10
0.0
 20
0.0
 30
0.0
  9
$UCSXDIR
 10
1.0
 20
0.0
 30
0.0
  9
$UCSYDIR
 10
0.0
 20
1.0
 30
0.0
  9
$PUCSNAME
  2

  9
$PUCSORG
 10
0.0
 20
0.0
 30
0.0
  9
$PUCSXDIR
 10
1.0
 20
0.0
 30
0.0
  9
$PUCSYDIR
 10
0.0
 20
1.0
 30
0.0
  9
$USERI1
 70
     0
  9
$USERI2
 70
     0
  9
$USERI3
 70
     0
  9
$USERI4
 70
     0
  9
$USERI5
 70
     0
  9
$USERR1
 40
0.0
  9
$USERR2
 40
0.0
  9
$USERR3
 40
0.0
  9
$USERR4
 40
0.0
  9
$USERR5
 40
0.0
  9
$WORLDVIEW
 70
     1
  9
$SHADEDGE
 70
     3
  9
$SHADEDIF
 70
    70
  9
$TILEMODE
 70
     1
  9
$MAXACTVP
 70
    64
  9
$PLIMCHECK
 70
     0
  9
$PEXTMIN
 10
1.0000000000000000E+20
 20
1.0000000000000000E+20
 30
1.0000000000000000E+20
  9
$PEXTMAX
 10
-1.0000000000000000E+20
 20
-1.0000000000000000E+20
 30
-1.0000000000000000E+20
  9
$PLIMMIN
 10
0.0
 20
0.0
  9
$PLIMMAX
 10
12.0
 20
9.0
  9
$UNITMODE
 70
     0
  9
$VISRETAIN
 70
     1
  9
$PLINEGEN
 70
     0
  9
$PSLTSCALE
 70
     1
  0
ENDSEC
  0
SECTION
  2
TABLES
  0
TABLE
  2
VPORT
 70
     1
  0
VPORT
  2
*ACTIVE
 70
     0
 10
0.0
 20
0.0
 11
1.0
 21
1.0
 12
2597.8417068643771017
 22
197.844563082227495
 13
0.0
 23
0.0
 14
1.0
 24
1.0
 15
0.0
 25
0.0
 16
0.0
 26
0.0
 36
60.4960186965801583
 17
3911.3653564453120453
 27
132.5796051025390057
 37
0.0
 40
3.1319099006270221
 41
2.5251322751322749
 42
50.0
 43
0.0
 44
0.0
 50
0.0
 51
0.0
 71
     0
 72
   100
 73
     1
 74
     1
 75
     0
 76
     0
 77
     0
 78
     0
  0
ENDTAB
  0
TABLE
  2
LTYPE
 70
     2
  0
LTYPE
  2
CONTINUOUS
 70
     0
  3
Solid line
 72
    65
 73
     0
 40
0.0
  0
LTYPE
  2
PHANTOM2
 70
     0
  3
___ _ _ ___ _ _ ___ _ _ ___ _ _
 72
    65
 73
     6
 40
1.25
 49
0.625
 49
-0.125
 49
0.125
 49
-0.125
 49
0.125
 49
-0.125
  0
ENDTAB
  0
TABLE
  2
LAYER
 70
     2
  0
LAYER
  2
0
 70
     0
 62
   255
  6
CONTINUOUS
  0
LAYER
  2
DEFPOINTS
 70
     0
 62
     7
  6
CONTINUOUS
  0
ENDTAB
  0
TABLE
  2
STYLE
 70
     1
  0
STYLE
  2
STANDARD
 70
     0
 40
0.0
 41
0.8
 50
0.0
 71
     0
 42
0.2
  3
txt
  4

  0
ENDTAB
  0
TABLE
  2
VIEW
 70
     0
  0
ENDTAB
  0
TABLE
  2
UCS
 70
     0
  0
ENDTAB
  0
TABLE
  2
APPID
 70
    11
  0
APPID
  2
ACAD
 70
     0
  0
APPID
  2
ACAD_MLEADERVER
 70
     0
  0
APPID
  2
ACAD_EXEMPT_FROM_CAD_STANDARDS
 70
     0
  0
APPID
  2
ACAD_NAV_VCDISPLAY
 70
     0
  0
APPID
  2
ACAECLAYERSTANDARD
 70
     0
  0
APPID
  2
ACCMTRANSPARENCY
 70
     0
  0
APPID
  2
ACAD_DSTYLE_DIMJAG
 70
     0
  0
APPID
  2
ACAD_DSTYLE_DIMTALN
 70
     0
  0
APPID
  2
ACDBATTR
 70
     0
  0
APPID
  2
ACADANNOTATIVE
 70
     0
  0
APPID
  2
DCO15
 70
     0
  0
ENDTAB
  0
TABLE
  2
DIMSTYLE
 70
     1
  0
DIMSTYLE
  2
STANDARD
 70
     0
  3

  4

  5

  6

  7

 40
1.0
 41
0.1875
 42
0.0625
 43
0.38
 44
0.125
 45
0.0
 46
0.0
 47
0.01
 48
0.01
140
0.15625
141
0.09
142
0.0
143
25.3999999999999986
144
1.0
145
0.0
146
1.0
147
0.09
 71
     1
 72
     0
 73
     1
 74
     1
 75
     0
 76
     0
 77
     0
 78
     4
170
     0
171
     2
172
     0
173
     0
174
     0
175
     0
176
     0
177
     0
178
     0
  0
ENDTAB
  0
ENDSEC
  0
SECTION
  2
BLOCKS
  0
BLOCK
  8
0
  2
$MODEL_SPACE
 70
     0
 10
0.0
 20
0.0
 30
0.0
  3
$MODEL_SPACE
  1

  0
ENDBLK
  5
21
  8
0
  0
BLOCK
 67
     1
  8
0
  2
$PAPER_SPACE
 70
     0
 10
0.0
 20
0.0
 30
0.0
  3
$PAPER_SPACE
  1

  0
ENDBLK
  5
1D
 67
     1
  8
0
  0
BLOCK
  8
0
  2
_FILLED
 70
     0
 10
0.0
 20
0.0
 30
0.0
  3
_FILLED
  1

  0
SOLID
  5
2853B
  8
0
  6
BYBLOCK
 62
     0
 10
0.0
 20
0.0
 30
0.0
 11
-1.0
 21
0.1666666667
 31
0.0
 12
-1.0
 22
-0.1666666667
 32
0.0
 13
-1.0
 23
-0.1666666667
 33
0.0
  0
ENDBLK
  5
2853C
  8
0
  6
BYBLOCK
 62
     0
  0
ENDSEC
  0
SECTION
  2
ENTITIES
  0
ATTDEF
  5
2842F
  8
DEFPOINTS
 10
6509.2061085951027053
 20
331.9768089414997121
 30
0.0
 40
0.001
  1
K-20742IN-9FP
  3

  2
MODELNUMBER
 70
     0
1001
ACDBATTR
1070
     0
1070
     1
  0
ATTDEF
  5
28430
  8
DEFPOINTS
 10
6509.2059827854445757
 20
331.9751421011205252
 30
0.0
 40
0.001
  1
AUTOSENSE
  3

  2
TRADENAME
 70
     0
1001
ACDBATTR
1070
     0
1070
     1
  0
ATTDEF
  5
28431
  8
DEFPOINTS
 10
6509.2061085951027053
 20
331.9734756081663249
 30
0.0
 40
0.001
  1
VALVE TRIM
  3

  2
PRODUCT
 70
     0
1001
ACDBATTR
1070
     0
1070
     1
  0
LINE
  5
34283
  8
0
 10
6506.4715577452634534
 20
331.9728896327334837
 30
0.0
 11
6511.9425688741157501
 21
331.9728896327334837
 31
0.0
  0
ARC
  5
34284
  8
0
 10
6509.1465286598822786
 20
283.3708507571805058
 30
0.0
 40
48.0005886298088527
 50
89.9280456362435245
 51
90.9616559774499933
  0
ARC
  5
34285
  8
0
 10
6509.370761359473363
 20
538.9883996847529488
 30
0.0
 40
207.6262751882607063
 50
269.2103373567081803
 51
269.7158080548240946
  0
LINE
  5
34286
  8
0
 10
6506.4704693815083374
 20
331.4198646801997938
 30
0.0
 11
6506.451869745361364
 21
331.9525021301279253
 31
0.0
  0
ARC
  5
34287
  8
0
 10
6506.5098453813134256
 20
331.4212396854110239
 30
0.0
 40
0.0394
 50
181.9999491315510056
 51
269.2103373567603057
  0
ARC
  5
34288
  8
0
 10
6506.4715577452634534
 20
331.9531896327334834
 30
0.0
 40
0.0197
 50
90.0
 51
181.9999491315510056
  0
LINE
  5
34289
  8
0
 10
6506.5093023793060638
 20
331.3818434273549087
 30
0.0
 11
6511.9048242400713207
 21
331.3818434273549087
 31
0.0
  0
LINE
  5
3428A
  8
0
 10
6508.3606215776899262
 20
330.6106849083333827
 30
0.0
 11
6510.0535050416892773
 21
330.6106849083333827
 31
0.0
  0
LINE
  5
3428B
  8
0
 10
6508.2621814201902453
 20
330.5634408138334948
 30
0.0
 11
6510.1519451991889582
 21
330.5634408138334948
 31
0.0
  0
LINE
  5
3428C
  8
0
 10
6508.3409215776900965
 20
330.6303849083334967
 30
0.0
 11
6508.3409215776900965
 21
331.3646785482334849
 31
0.0
  0
ARC
  5
3428D
  8
0
 10
6508.3606215776899262
 20
330.630384908333383
 30
0.0
 40
0.0197
 50
179.9999999999934914
 51
270.0
  0
LINE
  5
3428E
  8
0
 10
6508.5377719713887927
 20
330.6303699476334828
 30
0.0
 11
6508.5377719713887927
 21
331.367579021743893
 31
0.0
  0
LINE
  5
3428F
  8
0
 10
6508.5377719713887927
 20
330.6303699476334828
 30
0.0
 11
6508.5574570106900865
 21
330.6106849083333827
 31
0.0
  0
LINE
  5
34290
  8
0
 10
6508.6263546484879043
 20
330.6106849083333827
 30
0.0
 11
6508.6263546484879043
 21
330.5634408138334948
 31
0.0
  0
LINE
  5
34291
  8
0
 10
6508.4295042547892081
 20
330.6106849083333827
 30
0.0
 11
6508.4295042547892081
 21
330.5634408138334948
 31
0.0
  0
LINE
  5
34292
  8
0
 10
6508.2964844650741725
 20
328.8705274280334834
 30
0.0
 11
6510.1176421543041215
 21
328.8705274280334834
 31
0.0
  0
LINE
  5
34293
  8
0
 10
6508.2767852152292107
 20
328.8900555107788932
 30
0.0
 11
6508.2621814201902453
 21
330.5634408138334948
 31
0.0
  0
ARC
  5
34294
  8
0
 10
6508.2964844650741725
 20
328.8902274280334836
 30
0.0
 40
0.0197
 50
180.5000131037031963
 51
270.0
  0
LINE
  5
34295
  8
0
 10
6508.4736352260806598
 20
328.8900555152849847
 30
0.0
 11
6508.4590318138889415
 21
330.5634408138334948
 31
0.0
  0
ARC
  5
34296
  8
0
 10
6508.4933344759629108
 20
328.8902274280334836
 30
0.0
 40
0.0197
 50
180.4999999974997138
 51
270.0
  0
ARC
  5
34297
  8
0
 10
6509.2675979594960154
 20
283.3708507571805058
 30
0.0
 40
48.0005886298088527
 50
89.0383440225500067
 51
90.0719543637564612
  0
ARC
  5
34298
  8
0
 10
6509.0433652599058405
 20
538.9883996847529488
 30
0.0
 40
207.6262751882607063
 50
270.2841919451759054
 51
270.7896626432918197
  0
LINE
  5
34299
  8
0
 10
6511.9436572378699566
 20
331.4198646801997938
 30
0.0
 11
6511.9622568740178394
 21
331.9525021301279253
 31
0.0
  0
ARC
  5
3429A
  8
0
 10
6511.9042812380657779
 20
331.4212396854110239
 30
0.0
 40
0.0394
 50
270.7896626432396943
 51
358.0000508684487954
  0
ARC
  5
3429B
  8
0
 10
6511.9425688741157501
 20
331.9531896327334834
 30
0.0
 40
0.0197
 50
358.0000508684454985
 51
90.0
  0
LINE
  5
3429C
  8
0
 10
6510.073205041689107
 20
330.6303849083334967
 30
0.0
 11
6510.073205041689107
 21
331.3646785482334849
 31
0.0
  0
ARC
  5
3429D
  8
0
 10
6510.0535050416892773
 20
330.630384908333383
 30
0.0
 40
0.0197
 50
270.0
 51
0.0000000000065138
  0
LINE
  5
3429E
  8
0
 10
6509.8763546479904107
 20
330.6303699476334828
 30
0.0
 11
6509.8763546479904107
 21
331.367579021743893
 31
0.0
  0
LINE
  5
3429F
  8
0
 10
6509.8763546479904107
 20
330.6303699476334828
 30
0.0
 11
6509.856669608689117
 21
330.6106849083333827
 31
0.0
  0
LINE
  5
342A0
  8
0
 10
6509.7877719708885706
 20
330.6106849083333827
 30
0.0
 11
6509.7877719708885706
 21
330.5634408138334948
 31
0.0
  0
LINE
  5
342A1
  8
0
 10
6509.9846223645899954
 20
330.6106849083333827
 30
0.0
 11
6509.9846223645899954
 21
330.5634408138334948
 31
0.0
  0
LINE
  5
342A2
  8
0
 10
6510.1373414041499927
 20
328.8900555107788932
 30
0.0
 11
6510.1519451991889582
 21
330.5634408138334948
 31
0.0
  0
ARC
  5
342A3
  8
0
 10
6510.1176421543041215
 20
328.8902274280334836
 30
0.0
 40
0.0197
 50
270.0
 51
359.4999868962967753
  0
LINE
  5
342A4
  8
0
 10
6509.9404913932976342
 20
328.8900555152849847
 30
0.0
 11
6509.9550948054902619
 21
330.5634408138334948
 31
0.0
  0
ARC
  5
342A5
  8
0
 10
6509.9207921434153832
 20
328.8902274280334836
 30
0.0
 40
0.0197
 50
270.0
 51
359.5000000025003146
  0
ENDSEC
  0
EOF
