  0
SECTION
  2
HEADER
  9
$ACADVER
  1
AC1009
  9
$INSBASE
 10
3425.4954356343878317
 20
215.6260843434509979
 30
0.0
  9
$EXTMIN
 10
3413.4707991842601587
 20
211.3586273303079111
 30
0.0
  9
$EXTMAX
 10
3437.5200229011629744
 20
219.8936937916828924
 30
0.0
  9
$LIMMIN
 10
0.0
 20
0.0
  9
$LIMMAX
 10
11.6929133858000007
 20
8.2677165353999982
  9
$ORTHOMODE
 70
     0
  9
$REGENMODE
 70
     1
  9
$FILLMODE
 70
     1
  9
$QTEXTMODE
 70
     0
  9
$MIRRTEXT
 70
     0
  9
$DRAGMODE
 70
     2
  9
$LTSCALE
 40
0.6431102362
  9
$OSMODE
 70
  3839
  9
$ATTMODE
 70
     1
  9
$TEXTSIZE
 40
0.2
  9
$TRACEWID
 40
0.05
  9
$TEXTSTYLE
  7
STANDARD
  9
$CLAYER
  8
0
  9
$CELTYPE
  6
BYLAYER
  9
$CECOLOR
 62
   256
  9
$DIMSCALE
 40
1.0
  9
$DIMASZ
 40
0.1875
  9
$DIMEXO
 40
0.0625
  9
$DIMDLI
 40
0.4443307087
  9
$DIMRND
 40
0.0
  9
$DIMDLE
 40
0.0
  9
$DIMEXE
 40
0.125
  9
$DIMTP
 40
0.01
  9
$DIMTM
 40
0.01
  9
$DIMTXT
 40
2.0
  9
$DIMCEN
 40
0.1052362205
  9
$DIMTSZ
 40
0.0
  9
$DIMTOL
 70
     1
  9
$DIMLIM
 70
     0
  9
$DIMTIH
 70
     1
  9
$DIMTOH
 70
     1
  9
$DIMSE1
 70
     0
  9
$DIMSE2
 70
     0
  9
$DIMTAD
 70
     0
  9
$DIMZIN
 70
     0
  9
$DIMBLK
  1

  9
$DIMASO
 70
     1
  9
$DIMSHO
 70
     1
  9
$DIMPOST
  1
\X
  9
$DIMAPOST
  1

  9
$DIMALT
 70
     1
  9
$DIMALTD
 70
     2
  9
$DIMALTF
 40
25.3999999999999986
  9
$DIMLFAC
 40
1.0
  9
$DIMTOFL
 70
     0
  9
$DIMTVP
 40
0.0
  9
$DIMTIX
 70
     0
  9
$DIMSOXD
 70
     0
  9
$DIMSAH
 70
     0
  9
$DIMBLK1
  1

  9
$DIMBLK2
  1

  9
$DIMSTYLE
  2
STANDARD
  9
$DIMCLRD
 70
     0
  9
$DIMCLRE
 70
     0
  9
$DIMCLRT
 70
     0
  9
$DIMTFAC
 40
1.0
  9
$DIMGAP
 40
0.09
  9
$LUNITS
 70
     2
  9
$LUPREC
 70
     4
  9
$SKETCHINC
 40
0.1
  9
$FILLETRAD
 40
0.0
  9
$AUNITS
 70
     0
  9
$AUPREC
 70
     0
  9
$MENU
  1
.
  9
$ELEVATION
 40
0.0
  9
$PELEVATION
 40
0.0
  9
$THICKNESS
 40
0.0
  9
$LIMCHECK
 70
     0
  9
$BLIPMODE
 70
     0
  9
$CHAMFERA
 40
0.0
  9
$CHAMFERB
 40
0.0
  9
$SKPOLY
 70
     0
  9
$TDCREATE
 40
2458060.468368056230247
  9
$TDUPDATE
 40
2459016.712210648227483
  9
$TDINDWG
 40
0.5202501157
  9
$TDUSRTIMER
 40
0.5202501157
  9
$USRTIMER
 70
     1
  9
$ANGBASE
 50
0.0
  9
$ANGDIR
 70
     0
  9
$PDMODE
 70
     0
  9
$PDSIZE
 40
0.3125
  9
$PLINEWID
 40
0.0
  9
$COORDS
 70
     1
  9
$SPLFRAME
 70
     0
  9
$SPLINETYPE
 70
     6
  9
$SPLINESEGS
 70
     8
  9
$ATTDIA
 70
     1
  9
$ATTREQ
 70
     1
  9
$HANDLING
 70
     1
  9
$HANDSEED
  5
926D
  9
$SURFTAB1
 70
     6
  9
$SURFTAB2
 70
     6
  9
$SURFTYPE
 70
     6
  9
$SURFU
 70
     6
  9
$SURFV
 70
     6
  9
$UCSNAME
  2

  9
$UCSORG
 10
0.0
 20
0.0
 30
0.0
  9
$UCSXDIR
 10
1.0
 20
0.0
 30
0.0
  9
$UCSYDIR
 10
0.0
 20
1.0
 30
0.0
  9
$PUCSNAME
  2

  9
$PUCSORG
 10
0.0
 20
0.0
 30
0.0
  9
$PUCSXDIR
 10
1.0
 20
0.0
 30
0.0
  9
$PUCSYDIR
 10
0.0
 20
1.0
 30
0.0
  9
$USERI1
 70
     0
  9
$USERI2
 70
     0
  9
$USERI3
 70
     0
  9
$USERI4
 70
     0
  9
$USERI5
 70
     0
  9
$USERR1
 40
0.0
  9
$USERR2
 40
0.0
  9
$USERR3
 40
0.0
  9
$USERR4
 40
0.0
  9
$USERR5
 40
0.0
  9
$WORLDVIEW
 70
     1
  9
$SHADEDGE
 70
     3
  9
$SHADEDIF
 70
    70
  9
$TILEMODE
 70
     1
  9
$MAXACTVP
 70
    64
  9
$PLIMCHECK
 70
     0
  9
$PEXTMIN
 10
1.0000000000000000E+20
 20
1.0000000000000000E+20
 30
1.0000000000000000E+20
  9
$PEXTMAX
 10
-1.0000000000000000E+20
 20
-1.0000000000000000E+20
 30
-1.0000000000000000E+20
  9
$PLIMMIN
 10
0.0
 20
0.0
  9
$PLIMMAX
 10
12.0
 20
9.0
  9
$UNITMODE
 70
     0
  9
$VISRETAIN
 70
     1
  9
$PLINEGEN
 70
     0
  9
$PSLTSCALE
 70
     1
  0
ENDSEC
  0
SECTION
  2
TABLES
  0
TABLE
  2
VPORT
 70
     1
  0
VPORT
  2
*ACTIVE
 70
     0
 10
0.0
 20
0.0
 11
1.0
 21
1.0
 12
0.0
 22
0.0
 13
0.0
 23
0.0
 14
1.0
 24
1.0
 15
0.0
 25
0.0
 16
0.0
 26
0.0
 36
78.7081788964239024
 17
3425.495361328125
 27
215.6260833740234091
 37
0.0
 40
25.5189017068266786
 41
2.3528591352859132
 42
50.0
 43
0.0
 44
0.0
 50
0.0
 51
0.0
 71
     0
 72
   100
 73
     1
 74
     1
 75
     0
 76
     0
 77
     0
 78
     0
  0
ENDTAB
  0
TABLE
  2
LTYPE
 70
     2
  0
LTYPE
  2
CONTINUOUS
 70
     0
  3
Solid line
 72
    65
 73
     0
 40
0.0
  0
LTYPE
  2
PHANTOM2
 70
     0
  3
___ _ _ ___ _ _ ___ _ _ ___ _ _
 72
    65
 73
     6
 40
1.25
 49
0.625
 49
-0.125
 49
0.125
 49
-0.125
 49
0.125
 49
-0.125
  0
ENDTAB
  0
TABLE
  2
LAYER
 70
     3
  0
LAYER
  2
0
 70
     0
 62
   255
  6
CONTINUOUS
  0
LAYER
  2
DEFPOINTS
 70
     0
 62
     7
  6
CONTINUOUS
  0
LAYER
  2
F2018-8_1_1
 70
     0
 62
     7
  6
CONTINUOUS
  0
ENDTAB
  0
TABLE
  2
STYLE
 70
     1
  0
STYLE
  2
STANDARD
 70
     0
 40
0.0
 41
0.8
 50
0.0
 71
     0
 42
0.2
  3
txt
  4

  0
ENDTAB
  0
TABLE
  2
VIEW
 70
     0
  0
ENDTAB
  0
TABLE
  2
UCS
 70
     0
  0
ENDTAB
  0
TABLE
  2
APPID
 70
     9
  0
APPID
  2
ACAD
 70
     0
  0
APPID
  2
ACAD_MLEADERVER
 70
     0
  0
APPID
  2
ACAD_EXEMPT_FROM_CAD_STANDARDS
 70
     0
  0
APPID
  2
ACAD_NAV_VCDISPLAY
 70
     0
  0
APPID
  2
ACAECLAYERSTANDARD
 70
     0
  0
APPID
  2
ACCMTRANSPARENCY
 70
     0
  0
APPID
  2
ACAD_DSTYLE_DIMJAG
 70
     0
  0
APPID
  2
ACAD_DSTYLE_DIMTALN
 70
     0
  0
APPID
  2
ACDBATTR
 70
     0
  0
ENDTAB
  0
TABLE
  2
DIMSTYLE
 70
     1
  0
DIMSTYLE
  2
STANDARD
 70
     0
  3

  4

  5

  6

  7

 40
1.0
 41
0.1875
 42
0.0625
 43
0.38
 44
0.125
 45
0.0
 46
0.0
 47
0.01
 48
0.01
140
0.15625
141
0.09
142
0.0
143
25.3999999999999986
144
1.0
145
0.0
146
1.0
147
0.09
 71
     1
 72
     0
 73
     1
 74
     1
 75
     0
 76
     0
 77
     0
 78
     4
170
     0
171
     2
172
     0
173
     0
174
     0
175
     0
176
     0
177
     0
178
     0
  0
ENDTAB
  0
ENDSEC
  0
SECTION
  2
BLOCKS
  0
BLOCK
  8
0
  2
$MODEL_SPACE
 70
     0
 10
0.0
 20
0.0
 30
0.0
  3
$MODEL_SPACE
  1

  0
ENDBLK
  5
21
  8
0
  0
BLOCK
 67
     1
  8
0
  2
$PAPER_SPACE
 70
     0
 10
0.0
 20
0.0
 30
0.0
  3
$PAPER_SPACE
  1

  0
ENDBLK
  5
1D
 67
     1
  8
0
  0
BLOCK
  8
0
  2
_FILLED
 70
     0
 10
0.0
 20
0.0
 30
0.0
  3
_FILLED
  1

  0
SOLID
  5
8EED
  8
0
  6
BYBLOCK
 62
     0
 10
0.0
 20
0.0
 30
0.0
 11
-1.0
 21
0.1666666667
 31
0.0
 12
-1.0
 22
-0.1666666667
 32
0.0
 13
-1.0
 23
-0.1666666667
 33
0.0
  0
ENDBLK
  5
8EEE
  8
0
  6
BYBLOCK
 62
     0
  0
ENDSEC
  0
SECTION
  2
ENTITIES
  0
ATTDEF
  5
3930
  8
DEFPOINTS
 10
3425.4844742183668131
 20
215.6246898851763945
 30
0.0
 40
0.001
  1
K-2018IN-1WH
  3

  2
MODELNUMBER
 70
     0
1001
ACDBATTR
1070
     0
1070
     1
  0
ATTDEF
  5
3931
  8
DEFPOINTS
 10
3425.4844742183668131
 20
215.6230232185097009
 30
0.0
 40
0.001
  1
FOLIO
  3

  2
TRADENAME
 70
     0
1001
ACDBATTR
1070
     0
1070
     1
  0
ATTDEF
  5
3932
  8
DEFPOINTS
 10
3425.4844742183668131
 20
215.6213565518430073
 30
0.0
 40
0.001
  1
BATHROOM SINK
  3

  2
PRODUCT
 70
     0
1001
ACDBATTR
1070
     0
1070
     1
  0
ARC
  5
8F97
  8
0
 10
3424.2305127507638645
 20
211.4373674878079044
 30
0.0
 40
0.0787401575000022
 50
183.8598359285007859
 51
270.0
  0
LINE
  5
8F98
  8
0
 10
3424.1519511986098223
 20
211.4320670230796111
 30
0.0
 11
3424.0627570597071099
 21
212.7540699708384864
 31
0.0
  0
ARC
  5
8F99
  8
0
 10
3423.8271325070500097
 20
212.7381726317937023
 30
0.0
 40
0.236160232053261
 50
3.859835928500869
 51
62.2312612223856974
  0
ARC
  5
8F9A
  8
0
 10
3422.8075953023039801
 20
261.8678030951883784
 30
0.0
 40
48.9337064934268113
 50
265.8366865963052987
 51
271.3227092628579271
  0
ARC
  5
8F9B
  8
0
 10
3419.298153618348806
 20
219.0639132304339967
 30
0.0
 40
6.0008436766794349
 50
217.3746141345515923
 51
269.5882249902364265
  0
ARC
  5
8F9C
  8
0
 10
3419.0299720338039151
 20
218.6740589748727075
 30
0.0
 40
5.5530198648689089
 50
183.3943273892973025
 51
215.8575104949314039
  0
ARC
  5
8F9D
  8
0
 10
3462.9418108143800055
 20
219.9108012566385923
 30
0.0
 40
49.4798893989328903
 50
181.0853796621603067
 51
181.8131170143643942
  0
ARC
  5
8F9E
  8
0
 10
3426.0372561261278861
 20
218.8794561057214025
 30
0.0
 40
12.5668091174038903
 50
178.132993911158195
 51
179.5710509335214908
  0
ARC
  5
8F9F
  8
0
 10
3413.7134412202099156
 20
219.2807517133323074
 30
0.0
 40
0.2364627231696568
 50
92.1671746164982153
 51
178.0304166830028123
  0
ARC
  5
8FA0
  8
0
 10
3425.2607217495929035
 20
39.1918776015691606
 30
0.0
 40
180.7018161901137034
 50
89.9255783973080298
 51
93.6491633673276738
  0
ARC
  5
8FA1
  8
0
 10
3413.7766779990761279
 20
219.2827691753672923
 30
0.0
 40
0.2451429553200271
 50
93.9906697516145044
 51
107.1236667043540933
  0
ARC
  5
8FA3
  8
0
 10
3425.2002646251748956
 20
125.4919825778237055
 30
0.0
 40
94.4009899604083245
 50
89.8208484823430666
 51
94.1648029607955266
  0
ARC
  5
8FA4
  8
0
 10
3420.2030305816251712
 20
15933.1820379842101829
 30
0.0
 40
15713.6681262415695528
 50
269.9935815105624783
 51
270.0192973706896282
  0
ARC
  5
8FA5
  8
0
 10
3417.258677263689151
 20
2057.0218828616971223
 30
0.0
 40
1837.5082540083510594
 50
269.8891694847915232
 51
270.0369201119502804
  0
LINE
  5
8FA6
  8
0
 10
3424.2305087823851864
 20
211.3586273304078986
 30
0.0
 11
3425.4954356343700965
 21
211.3586273304078986
 31
0.0
  0
ARC
  5
8FA7
  8
0
 10
3426.7603585179749643
 20
211.4373674878079044
 30
0.0
 40
0.0787401575000022
 50
270.0
 51
356.1401640714992141
  0
LINE
  5
8FA8
  8
0
 10
3426.8389200701290065
 20
211.4320670230796111
 30
0.0
 11
3426.9281142090321737
 21
212.7540699708384864
 31
0.0
  0
ARC
  5
8FA9
  8
0
 10
3427.1637387616888191
 20
212.7381726317937023
 30
0.0
 40
0.236160232053261
 50
117.7687387776143026
 51
176.1401640714991004
  0
ARC
  5
8FAA
  8
0
 10
3428.1832759664348487
 20
261.8678030951883784
 30
0.0
 40
48.9337064934268113
 50
268.6772907371420729
 51
274.1633134036947013
  0
ARC
  5
8FAB
  8
0
 10
3431.6927176503900228
 20
219.0639132304339967
 30
0.0
 40
6.0008436766794349
 50
270.4117750097635735
 51
322.6253858654483793
  0
ARC
  5
8FAC
  8
0
 10
3431.9608992349349137
 20
218.6740589748727075
 30
0.0
 40
5.5530198648689089
 50
324.1424895050685109
 51
356.6056726107026975
  0
ARC
  5
8FAD
  8
0
 10
3389.2385305656148375
 20
219.8769284753743136
 30
0.0
 40
48.2899432312803185
 50
358.1823997991054966
 51
358.9280686113352772
  0
ARC
  5
8FAE
  8
0
 10
3425.2582392390868335
 20
218.8874728276504129
 30
0.0
 40
12.2620857000344703
 50
0.4021491091343076
 51
1.8759404501768451
  0
ARC
  5
8FAF
  8
0
 10
3437.2774300485298227
 20
219.2807517133323074
 30
0.0
 40
0.2364627231696568
 50
1.9695833169971899
 51
87.8328253835017989
  0
ARC
  5
8FB0
  8
0
 10
3425.7301495191468348
 20
39.1918776015691606
 30
0.0
 40
180.7018161901137034
 50
86.350836632672312
 51
90.0744216026919844
  0
ARC
  5
8FB1
  8
0
 10
3437.2141932696631557
 20
219.2827691753672923
 30
0.0
 40
0.2451429553200271
 50
72.8763332956458925
 51
86.009330248385524
  0
ARC
  5
8FB2
  8
0
 10
3425.7906066435639332
 20
125.4919825778237055
 30
0.0
 40
94.4009899604083245
 50
85.8351970392044876
 51
90.179151517656976
  0
ARC
  5
8FB3
  8
0
 10
3777.7059874487990783
 20
12780.3960640723307733
 30
0.0
 40
12565.4910901083403587
 50
268.4370088298966266
 51
268.447573798725216
  0
ARC
  5
8FB4
  8
0
 10
3430.7878406871132029
 20
15933.1820379842101829
 30
0.0
 40
15713.6681262415695528
 50
269.9807026293103718
 51
270.0064184894375217
  0
ARC
  5
8FB5
  8
0
 10
3433.7321940050492231
 20
2057.0218828616971223
 30
0.0
 40
1837.5082540083510594
 50
269.9630798880497196
 51
270.1108305152084768
  0
LINE
  5
8FB6
  8
0
 10
3426.7603624863540972
 20
211.3586273304078986
 30
0.0
 11
3425.4954356343700965
 21
211.3586273304078986
 31
0.0
  0
ARC
  5
8FF1
  8
0
 10
3418.3425060740742083
 20
219.5779313914140971
 30
0.0
 40
0.0657801725291141
 50
88.3999645531726941
 51
256.609229085171421
  0
ARC
  5
8FF2
  8
0
 10
3432.6486773484639343
 20
219.5779311116235988
 30
0.0
 40
0.065780172529114
 50
283.5186615669742878
 51
91.7279260990057281
  0
LINE
  5
8FF3
  8
0
 10
3423.9371604881248459
 20
212.9471355437758859
 30
0.0
 11
3427.0537107806139829
 21
212.9471355437758859
 31
0.0
  0
ENDSEC
  0
EOF
