  0
SECTION
  2
HEADER
  9
$ACADVER
  1
AC1009
  9
$INSBASE
 10
3579.4940942945740971
 20
156.7361960686619966
 30
0.0
  9
$EXTMIN
 10
3571.8144873259980159
 20
151.1460837614619948
 30
0.0
  9
$EXTMAX
 10
3579.5402227712011154
 20
188.7322590607620043
 30
0.0
  9
$LIMMIN
 10
0.0
 20
0.0
  9
$LIMMAX
 10
11.6929133858000007
 20
8.2677165353999982
  9
$ORTHOMODE
 70
     0
  9
$REGENMODE
 70
     1
  9
$FILLMODE
 70
     1
  9
$QTEXTMODE
 70
     0
  9
$MIRRTEXT
 70
     0
  9
$DRAGMODE
 70
     2
  9
$LTSCALE
 40
0.6431102362
  9
$OSMODE
 70
  3839
  9
$ATTMODE
 70
     1
  9
$TEXTSIZE
 40
0.2
  9
$TRACEWID
 40
0.05
  9
$TEXTSTYLE
  7
STANDARD
  9
$CLAYER
  8
0
  9
$CELTYPE
  6
BYLAYER
  9
$CECOLOR
 62
   256
  9
$DIMSCALE
 40
1.0
  9
$DIMASZ
 40
0.1875
  9
$DIMEXO
 40
0.0625
  9
$DIMDLI
 40
0.4443307087
  9
$DIMRND
 40
0.0
  9
$DIMDLE
 40
0.0
  9
$DIMEXE
 40
0.125
  9
$DIMTP
 40
0.01
  9
$DIMTM
 40
0.01
  9
$DIMTXT
 40
2.0
  9
$DIMCEN
 40
0.1052362205
  9
$DIMTSZ
 40
0.0
  9
$DIMTOL
 70
     1
  9
$DIMLIM
 70
     0
  9
$DIMTIH
 70
     1
  9
$DIMTOH
 70
     1
  9
$DIMSE1
 70
     0
  9
$DIMSE2
 70
     0
  9
$DIMTAD
 70
     0
  9
$DIMZIN
 70
     0
  9
$DIMBLK
  1

  9
$DIMASO
 70
     1
  9
$DIMSHO
 70
     1
  9
$DIMPOST
  1
\X
  9
$DIMAPOST
  1

  9
$DIMALT
 70
     1
  9
$DIMALTD
 70
     2
  9
$DIMALTF
 40
25.3999999999999986
  9
$DIMLFAC
 40
1.0
  9
$DIMTOFL
 70
     0
  9
$DIMTVP
 40
0.0
  9
$DIMTIX
 70
     0
  9
$DIMSOXD
 70
     0
  9
$DIMSAH
 70
     0
  9
$DIMBLK1
  1

  9
$DIMBLK2
  1

  9
$DIMSTYLE
  2
STANDARD
  9
$DIMCLRD
 70
     0
  9
$DIMCLRE
 70
     0
  9
$DIMCLRT
 70
     0
  9
$DIMTFAC
 40
1.0
  9
$DIMGAP
 40
0.09
  9
$LUNITS
 70
     2
  9
$LUPREC
 70
     4
  9
$SKETCHINC
 40
0.1
  9
$FILLETRAD
 40
0.0
  9
$AUNITS
 70
     0
  9
$AUPREC
 70
     0
  9
$MENU
  1
.
  9
$ELEVATION
 40
0.0
  9
$PELEVATION
 40
0.0
  9
$THICKNESS
 40
0.0
  9
$LIMCHECK
 70
     0
  9
$BLIPMODE
 70
     0
  9
$CHAMFERA
 40
0.0
  9
$CHAMFERB
 40
0.0
  9
$SKPOLY
 70
     0
  9
$TDCREATE
 40
2458060.468368056230247
  9
$TDUPDATE
 40
2459083.7891666670329869
  9
$TDINDWG
 40
0.7740348379999999
  9
$TDUSRTIMER
 40
0.7740348379999999
  9
$USRTIMER
 70
     1
  9
$ANGBASE
 50
0.0
  9
$ANGDIR
 70
     0
  9
$PDMODE
 70
     0
  9
$PDSIZE
 40
0.3125
  9
$PLINEWID
 40
0.0
  9
$COORDS
 70
     1
  9
$SPLFRAME
 70
     0
  9
$SPLINETYPE
 70
     6
  9
$SPLINESEGS
 70
     8
  9
$ATTDIA
 70
     1
  9
$ATTREQ
 70
     1
  9
$HANDLING
 70
     1
  9
$HANDSEED
  5
116E2
  9
$SURFTAB1
 70
     6
  9
$SURFTAB2
 70
     6
  9
$SURFTYPE
 70
     6
  9
$SURFU
 70
     6
  9
$SURFV
 70
     6
  9
$UCSNAME
  2

  9
$UCSORG
 10
0.0
 20
0.0
 30
0.0
  9
$UCSXDIR
 10
1.0
 20
0.0
 30
0.0
  9
$UCSYDIR
 10
0.0
 20
1.0
 30
0.0
  9
$PUCSNAME
  2

  9
$PUCSORG
 10
0.0
 20
0.0
 30
0.0
  9
$PUCSXDIR
 10
1.0
 20
0.0
 30
0.0
  9
$PUCSYDIR
 10
0.0
 20
1.0
 30
0.0
  9
$USERI1
 70
     0
  9
$USERI2
 70
     0
  9
$USERI3
 70
     0
  9
$USERI4
 70
     0
  9
$USERI5
 70
     0
  9
$USERR1
 40
0.0
  9
$USERR2
 40
0.0
  9
$USERR3
 40
0.0
  9
$USERR4
 40
0.0
  9
$USERR5
 40
0.0
  9
$WORLDVIEW
 70
     1
  9
$SHADEDGE
 70
     3
  9
$SHADEDIF
 70
    70
  9
$TILEMODE
 70
     1
  9
$MAXACTVP
 70
    64
  9
$PLIMCHECK
 70
     0
  9
$PEXTMIN
 10
1.0000000000000000E+20
 20
1.0000000000000000E+20
 30
1.0000000000000000E+20
  9
$PEXTMAX
 10
-1.0000000000000000E+20
 20
-1.0000000000000000E+20
 30
-1.0000000000000000E+20
  9
$PLIMMIN
 10
0.0
 20
0.0
  9
$PLIMMAX
 10
12.0
 20
9.0
  9
$UNITMODE
 70
     0
  9
$VISRETAIN
 70
     1
  9
$PLINEGEN
 70
     0
  9
$PSLTSCALE
 70
     1
  0
ENDSEC
  0
SECTION
  2
TABLES
  0
TABLE
  2
VPORT
 70
     1
  0
VPORT
  2
*ACTIVE
 70
     0
 10
0.0
 20
0.0
 11
1.0
 21
1.0
 12
0.0
 22
0.0
 13
0.0
 23
0.0
 14
1.0
 24
1.0
 15
0.0
 25
0.0
 16
0.0
 26
0.0
 36
159.3030792514663858
 17
3575.6773681640629547
 27
169.9391708374022869
 37
0.0
 40
38.3719735442303573
 41
3.314341846758349
 42
50.0
 43
0.0
 44
0.0
 50
0.0
 51
0.0
 71
     0
 72
   100
 73
     1
 74
     1
 75
     0
 76
     0
 77
     0
 78
     0
  0
ENDTAB
  0
TABLE
  2
LTYPE
 70
     2
  0
LTYPE
  2
CONTINUOUS
 70
     0
  3
Solid line
 72
    65
 73
     0
 40
0.0
  0
LTYPE
  2
PHANTOM2
 70
     0
  3
___ _ _ ___ _ _ ___ _ _ ___ _ _
 72
    65
 73
     6
 40
1.25
 49
0.625
 49
-0.125
 49
0.125
 49
-0.125
 49
0.125
 49
-0.125
  0
ENDTAB
  0
TABLE
  2
LAYER
 70
     2
  0
LAYER
  2
0
 70
     0
 62
   255
  6
CONTINUOUS
  0
LAYER
  2
DEFPOINTS
 70
     0
 62
     7
  6
CONTINUOUS
  0
ENDTAB
  0
TABLE
  2
STYLE
 70
     1
  0
STYLE
  2
STANDARD
 70
     0
 40
0.0
 41
0.8
 50
0.0
 71
     0
 42
0.2
  3
txt
  4

  0
ENDTAB
  0
TABLE
  2
VIEW
 70
     0
  0
ENDTAB
  0
TABLE
  2
UCS
 70
     0
  0
ENDTAB
  0
TABLE
  2
APPID
 70
    10
  0
APPID
  2
ACAD
 70
     0
  0
APPID
  2
ACAD_MLEADERVER
 70
     0
  0
APPID
  2
ACAD_EXEMPT_FROM_CAD_STANDARDS
 70
     0
  0
APPID
  2
ACAD_NAV_VCDISPLAY
 70
     0
  0
APPID
  2
ACAECLAYERSTANDARD
 70
     0
  0
APPID
  2
ACCMTRANSPARENCY
 70
     0
  0
APPID
  2
ACAD_DSTYLE_DIMJAG
 70
     0
  0
APPID
  2
ACAD_DSTYLE_DIMTALN
 70
     0
  0
APPID
  2
ACDBATTR
 70
     0
  0
APPID
  2
ACAD_PSEXT
 70
     0
  0
ENDTAB
  0
TABLE
  2
DIMSTYLE
 70
     1
  0
DIMSTYLE
  2
STANDARD
 70
     0
  3

  4

  5

  6

  7

 40
1.0
 41
0.1875
 42
0.0625
 43
0.38
 44
0.125
 45
0.0
 46
0.0
 47
0.01
 48
0.01
140
0.15625
141
0.09
142
0.0
143
25.3999999999999986
144
1.0
145
0.0
146
1.0
147
0.09
 71
     1
 72
     0
 73
     1
 74
     1
 75
     0
 76
     0
 77
     0
 78
     4
170
     0
171
     2
172
     0
173
     0
174
     0
175
     0
176
     0
177
     0
178
     0
  0
ENDTAB
  0
ENDSEC
  0
SECTION
  2
BLOCKS
  0
BLOCK
  8
0
  2
$MODEL_SPACE
 70
     0
 10
0.0
 20
0.0
 30
0.0
  3
$MODEL_SPACE
  1

  0
ENDBLK
  5
21
  8
0
  0
BLOCK
 67
     1
  8
0
  2
$PAPER_SPACE
 70
     0
 10
0.0
 20
0.0
 30
0.0
  3
$PAPER_SPACE
  1

  0
ENDBLK
  5
1D
 67
     1
  8
0
  0
BLOCK
  8
0
  2
_FILLED
 70
     0
 10
0.0
 20
0.0
 30
0.0
  3
_FILLED
  1

  0
SOLID
  5
B630
  8
0
  6
BYBLOCK
 62
     0
 10
0.0
 20
0.0
 30
0.0
 11
-1.0
 21
0.1666666667
 31
0.0
 12
-1.0
 22
-0.1666666667
 32
0.0
 13
-1.0
 23
-0.1666666667
 33
0.0
  0
ENDBLK
  5
B631
  8
0
  6
BYBLOCK
 62
     0
  0
BLOCK
  8
0
  2
_CLOSED
 70
     0
 10
0.0
 20
0.0
 30
0.0
  3
_CLOSED
  1

  0
LINE
  5
ECF3
  8
0
  6
BYBLOCK
 62
     0
 10
0.0
 20
0.0
 30
0.0
 11
-1.0
 21
0.1666666667
 31
0.0
  0
LINE
  5
ECF4
  8
0
  6
BYBLOCK
 62
     0
 10
-1.0
 20
0.1666666667
 30
0.0
 11
-1.0
 21
-0.1666666667
 31
0.0
  0
LINE
  5
ECF5
  8
0
  6
BYBLOCK
 62
     0
 10
-1.0
 20
-0.1666666667
 30
0.0
 11
0.0
 21
0.0
 31
0.0
  0
LINE
  5
ECF6
  8
0
  6
BYBLOCK
 62
     0
 10
-1.0
 20
0.0
 30
0.0
 11
0.0
 21
0.0
 31
0.0
  0
ENDBLK
  5
ECF7
  8
0
  6
BYBLOCK
 62
     0
  0
ENDSEC
  0
SECTION
  2
ENTITIES
  0
ATTDEF
  5
AA11
  8
DEFPOINTS
 10
3579.4809589657670585
 20
156.7340574595621945
 30
0.0
 40
0.001
  1
K-20085IN-M
  3

  2
MODELNUMBER
 70
     0
1001
ACDBATTR
1070
     0
1070
     1
  0
ATTDEF
  5
AA12
  8
DEFPOINTS
 10
3579.4809589657670585
 20
156.7323907928955862
 30
0.0
 40
0.001
  1
INSTAFIT
  3

  2
TRADENAME
 70
     0
1001
ACDBATTR
1070
     0
1070
     1
  0
ATTDEF
  5
AA13
  8
DEFPOINTS
 10
3579.4809589657670585
 20
156.7307241262288926
 30
0.0
 40
0.001
  1
IN-WALL TANK AND CARRIER SYSTEM
  3

  2
PRODUCT
 70
     0
1001
ACDBATTR
1070
     0
1070
     1
  0
LINE
  5
11204
  8
0
 10
3575.7066927197738551
 20
159.885802367762011
 30
0.0
 11
3575.7652432323739049
 21
159.885802367762011
 31
0.0
  0
LINE
  5
11205
  8
0
 10
3575.6870076803738812
 20
159.8661173284619963
 30
0.0
 11
3575.6870076803738812
 21
157.936983470162005
 31
0.0
  0
LINE
  5
11206
  8
0
 10
3575.7066927197738551
 20
159.885802367762011
 30
0.0
 11
3575.7066927197738551
 21
157.9172984308619903
 31
0.0
  0
LINE
  5
11207
  8
0
 10
3575.7652432323739049
 20
159.885802367762011
 30
0.0
 11
3575.7652432323739049
 21
157.9172984308619903
 31
0.0
  0
LINE
  5
11208
  8
0
 10
3575.6870076803738812
 20
159.8661173284619963
 30
0.0
 11
3575.7066927197738551
 21
159.885802367762011
 31
0.0
  0
LINE
  5
11209
  8
0
 10
3575.7652432323739049
 20
159.885802367762011
 30
0.0
 11
3575.8574992979738454
 21
159.994603915862001
 31
0.0
  0
ARC
  5
1120A
  8
0
 10
3575.9625982318821116
 20
159.9054874068563095
 30
0.0
 40
0.1377952759928121
 50
131.0823331631546012
 51
139.7043980456431029
  0
LINE
  5
1120B
  8
0
 10
3575.7066927197738551
 20
157.9172984308619903
 30
0.0
 11
3575.7652432323739049
 21
157.9172984308619903
 31
0.0
  0
LINE
  5
1120C
  8
0
 10
3575.6870076803738812
 20
157.936983470162005
 30
0.0
 11
3575.7066927197738551
 21
157.9172984308619903
 31
0.0
  0
LINE
  5
1120D
  8
0
 10
3575.7652432323739049
 20
157.9172984308619903
 30
0.0
 11
3575.8326769716741182
 21
157.8377709203151937
 31
0.0
  0
LINE
  5
1120E
  8
0
 10
3579.4468502000740955
 20
181.1456448875620993
 30
0.0
 11
3579.4468502000740955
 21
187.9566685095620073
 31
0.0
  0
LINE
  5
1120F
  8
0
 10
3571.9862202788740433
 20
180.9350110291620979
 30
0.0
 11
3571.9862202788740433
 21
186.5531212654620106
 31
0.0
  0
LINE
  5
11210
  8
0
 10
3571.9074801213751016
 20
180.9881606354620089
 30
0.0
 11
3571.9074801213751016
 21
186.4999716591619858
 31
0.0
  0
LINE
  5
11211
  8
0
 10
3575.8248029559740644
 20
179.6877862357586082
 30
0.0
 11
3575.8248029559740644
 21
187.8003460588655003
 31
0.0
  0
LINE
  5
11212
  8
0
 10
3575.1555116173740316
 20
180.9350110291620979
 30
0.0
 11
3575.1555116173740316
 21
186.5531212654620106
 31
0.0
  0
LINE
  5
11213
  8
0
 10
3574.9586612236739711
 20
180.9350110291620979
 30
0.0
 11
3574.9586612236739711
 21
186.5531212654620106
 31
0.0
  0
LINE
  5
11214
  8
0
 10
3574.978346263073945
 20
180.9350110291620979
 30
0.0
 11
3574.978346263073945
 21
186.5531212654620106
 31
0.0
  0
LINE
  5
11215
  8
0
 10
3574.7618108299739106
 20
180.9350110291620979
 30
0.0
 11
3574.7618108299739106
 21
186.5531212654620106
 31
0.0
  0
LINE
  5
11216
  8
0
 10
3574.7814958693738845
 20
180.9350110291620979
 30
0.0
 11
3574.7814958693738845
 21
186.5531212654620106
 31
0.0
  0
LINE
  5
11217
  8
0
 10
3574.5649604362738501
 20
180.9350110291620979
 30
0.0
 11
3574.5649604362738501
 21
186.5531212654620106
 31
0.0
  0
LINE
  5
11218
  8
0
 10
3574.584645475673824
 20
180.9350110291620979
 30
0.0
 11
3574.584645475673824
 21
186.5531212654620106
 31
0.0
  0
LINE
  5
11219
  8
0
 10
3574.3681100425737895
 20
180.9350110291620979
 30
0.0
 11
3574.3681100425737895
 21
186.5531212654620106
 31
0.0
  0
LINE
  5
1121A
  8
0
 10
3574.3877950819751277
 20
180.9350110291620979
 30
0.0
 11
3574.3877950819751277
 21
186.5531212654620106
 31
0.0
  0
LINE
  5
1121B
  8
0
 10
3574.1712596488750933
 20
180.9350110291620979
 30
0.0
 11
3574.1712596488750933
 21
186.5531212654620106
 31
0.0
  0
LINE
  5
1121C
  8
0
 10
3574.1909446882741577
 20
180.9350110291620979
 30
0.0
 11
3574.1909446882741577
 21
186.5531212654620106
 31
0.0
  0
LINE
  5
1121D
  8
0
 10
3573.9744092551741232
 20
180.9350110291620979
 30
0.0
 11
3573.9744092551741232
 21
186.5531212654620106
 31
0.0
  0
LINE
  5
1121E
  8
0
 10
3573.9940942945750066
 20
180.9350110291620979
 30
0.0
 11
3573.9940942945750066
 21
186.5531212654620106
 31
0.0
  0
LINE
  5
1121F
  8
0
 10
3573.7775588614740627
 20
180.9350110291620979
 30
0.0
 11
3573.7775588614740627
 21
186.5531212654620106
 31
0.0
  0
LINE
  5
11220
  8
0
 10
3573.7972439008740366
 20
180.9350110291620979
 30
0.0
 11
3573.7972439008740366
 21
186.5531212654620106
 31
0.0
  0
LINE
  5
11221
  8
0
 10
3573.5807084677740022
 20
180.9350110291620979
 30
0.0
 11
3573.5807084677740022
 21
186.5531212654620106
 31
0.0
  0
LINE
  5
11222
  8
0
 10
3573.6003935071739761
 20
180.9350110291620979
 30
0.0
 11
3573.6003935071739761
 21
186.5531212654620106
 31
0.0
  0
LINE
  5
11223
  8
0
 10
3573.3838580740739417
 20
180.9350110291620979
 30
0.0
 11
3573.3838580740739417
 21
186.5531212654620106
 31
0.0
  0
LINE
  5
11224
  8
0
 10
3573.4035431134739156
 20
180.9350110291620979
 30
0.0
 11
3573.4035431134739156
 21
186.5531212654620106
 31
0.0
  0
LINE
  5
11225
  8
0
 10
3573.1870076803738812
 20
180.9350110291620979
 30
0.0
 11
3573.1870076803738812
 21
186.5531212654620106
 31
0.0
  0
LINE
  5
11226
  8
0
 10
3573.2066927197738551
 20
180.9350110291620979
 30
0.0
 11
3573.2066927197738551
 21
186.5531212654620106
 31
0.0
  0
LINE
  5
11227
  8
0
 10
3572.9901572866738206
 20
180.9350110291620979
 30
0.0
 11
3572.9901572866738206
 21
186.5531212654620106
 31
0.0
  0
LINE
  5
11228
  8
0
 10
3573.0098423260737945
 20
180.9350110291620979
 30
0.0
 11
3573.0098423260737945
 21
186.5531212654620106
 31
0.0
  0
LINE
  5
11229
  8
0
 10
3572.7933068929742149
 20
180.9350110291620979
 30
0.0
 11
3572.7933068929742149
 21
186.5531212654620106
 31
0.0
  0
LINE
  5
1122A
  8
0
 10
3572.8129919323741888
 20
180.9350110291620979
 30
0.0
 11
3572.8129919323741888
 21
186.5531212654620106
 31
0.0
  0
LINE
  5
1122B
  8
0
 10
3572.5964564992750638
 20
180.9350110291620979
 30
0.0
 11
3572.5964564992750638
 21
186.5531212654620106
 31
0.0
  0
LINE
  5
1122C
  8
0
 10
3572.6161415386741282
 20
180.9350110291620979
 30
0.0
 11
3572.6161415386741282
 21
186.5531212654620106
 31
0.0
  0
LINE
  5
1122D
  8
0
 10
3572.4192911449740677
 20
180.9350110291620979
 30
0.0
 11
3572.4192911449740677
 21
186.5531212654620106
 31
0.0
  0
CIRCLE
  5
1122E
  8
0
 10
3577.6555116173740316
 20
182.2358260076312888
 30
0.0
 40
0.4724409448999998
  0
LINE
  5
1122F
  8
0
 10
3577.7342322675722244
 20
187.9566685095620073
 30
0.0
 11
3579.4468502000740955
 21
187.9566685095620073
 31
0.0
  0
LINE
  5
11230
  8
0
 10
3575.1555116173740316
 20
186.5531212654620106
 30
0.0
 11
3575.8248029559740644
 21
186.5531212654620106
 31
0.0
  0
LINE
  5
11231
  8
0
 10
3574.978346263073945
 20
186.5531212654620106
 30
0.0
 11
3574.9586612236739711
 21
186.5531212654620106
 31
0.0
  0
LINE
  5
11232
  8
0
 10
3572.4192911449740677
 20
186.5531212654620106
 30
0.0
 11
3571.9862202788740433
 21
186.5531212654620106
 31
0.0
  0
LINE
  5
11233
  8
0
 10
3571.9074801213751016
 20
186.4999716591619858
 30
0.0
 11
3571.9862202788740433
 21
186.4999716591619858
 31
0.0
  0
LINE
  5
11234
  8
0
 10
3576.0216533496750344
 20
187.8790862163654936
 30
0.0
 11
3575.9035431134739156
 21
187.8790862163654936
 31
0.0
  0
ARC
  5
11235
  8
0
 10
3575.9035431134739156
 20
187.8003460588655003
 30
0.0
 40
0.0787401574999969
 50
90.0
 51
180.0000000000015916
  0
ARC
  5
11236
  8
0
 10
3575.7853924325131629
 20
187.5753549401304952
 30
0.0
 40
0.0394105270215726
 50
270.0587993788788026
 51
359.9756445033610248
  0
LINE
  5
11237
  8
0
 10
3575.7854328772750705
 20
187.5359444338619994
 30
0.0
 11
3575.7459820267408759
 21
187.5359444338619994
 31
0.0
  0
ARC
  5
11238
  8
0
 10
3575.7460224126580215
 20
187.4966147582564986
 30
0.0
 40
0.0393296963407648
 50
90.0588344993275598
 51
180.0243700440352939
  0
LINE
  5
11239
  8
0
 10
3575.7066927197738551
 20
186.5531212654620106
 30
0.0
 11
3575.7066927197738551
 21
187.5162593952620114
 31
0.0
  0
LINE
  5
1123A
  8
0
 10
3575.7066927197738551
 20
187.5162593952620114
 30
0.0
 11
3575.6987270965819334
 21
187.5162593952620114
 31
0.0
  0
ARC
  5
1123B
  8
0
 10
3575.6988623777779139
 20
187.5047506006183937
 30
0.0
 40
0.0115095897038892
 50
90.6734575482327756
 51
129.3208495120312875
  0
ARC
  5
1123C
  8
0
 10
3575.8350557348298935
 20
187.3373997006758884
 30
0.0
 40
0.227275505825544
 50
129.1485454888870095
 51
157.0780278581221978
  0
ARC
  5
1123D
  8
0
 10
3575.6365021997739859
 20
187.4213617412567032
 30
0.0
 40
0.0116992303636617
 50
157.0780278581192135
 51
191.3675363046851032
  0
ARC
  5
1123E
  8
0
 10
3575.8412741809079307
 20
187.3419963291821091
 30
0.0
 40
0.2295618399710006
 50
160.3860657089090012
 51
172.4214662801933002
  0
ARC
  5
1123F
  8
0
 10
3575.6264922263981134
 20
187.3716006384701132
 30
0.0
 40
0.0127923020009826
 50
176.9912090679983976
 51
265.3412245018039926
  0
LINE
  5
11240
  8
0
 10
3575.1555116173740316
 20
184.9244214415328997
 30
0.0
 11
3575.0950140338750316
 21
184.9474103440329031
 31
0.0
  0
LINE
  5
11241
  8
0
 10
3575.0950140338750316
 20
184.9474103440329031
 30
0.0
 11
3575.0950140338750316
 21
185.1016939563328947
 31
0.0
  0
LINE
  5
11242
  8
0
 10
3575.0950140338750316
 20
185.1016939563328947
 30
0.0
 11
3575.1555116173740316
 21
185.1246828588328981
 31
0.0
  0
LINE
  5
11243
  8
0
 10
3574.978346263073945
 20
186.5531212654620106
 30
0.0
 11
3575.1555116173740316
 21
186.4520181620050039
 31
0.0
  0
LINE
  5
11244
  8
0
 10
3575.0948738328638683
 20
186.4866223780776977
 30
0.0
 11
3575.1555116173740316
 21
186.4860932001620029
 31
0.0
  0
LINE
  5
11245
  8
0
 10
3574.9586612236739711
 20
186.4743811079621025
 30
0.0
 11
3574.978346263073945
 21
186.4743811079621025
 31
0.0
  0
LINE
  5
11246
  8
0
 10
3574.978346263073945
 20
186.4743811079621025
 30
0.0
 11
3575.0473762241031181
 21
186.5137278788762956
 31
0.0
  0
LINE
  5
11247
  8
0
 10
3574.7814958693738845
 20
186.5531212654620106
 30
0.0
 11
3574.7618108299739106
 21
186.5531212654620106
 31
0.0
  0
LINE
  5
11248
  8
0
 10
3574.9586612236739711
 20
184.9244214415328997
 30
0.0
 11
3574.8981636401740616
 21
184.9474103440329031
 31
0.0
  0
LINE
  5
11249
  8
0
 10
3574.8981636401740616
 20
184.9474103440329031
 30
0.0
 11
3574.8981636401740616
 21
185.1016939563328947
 31
0.0
  0
LINE
  5
1124A
  8
0
 10
3574.8981636401740616
 20
185.1016939563328947
 30
0.0
 11
3574.9586612236739711
 21
185.1246828588328981
 31
0.0
  0
LINE
  5
1124B
  8
0
 10
3574.7814958693738845
 20
186.5531212654620106
 30
0.0
 11
3574.9586612236739711
 21
186.4520181620050039
 31
0.0
  0
LINE
  5
1124C
  8
0
 10
3574.8980234391628983
 20
186.4866223780776977
 30
0.0
 11
3574.9586612236739711
 21
186.4860932001620029
 31
0.0
  0
LINE
  5
1124D
  8
0
 10
3574.7618108299739106
 20
186.4743811079621025
 30
0.0
 11
3574.7814958693738845
 21
186.4743811079621025
 31
0.0
  0
LINE
  5
1124E
  8
0
 10
3574.7814958693738845
 20
186.4743811079621025
 30
0.0
 11
3574.8505258304030576
 21
186.5137278788762956
 31
0.0
  0
LINE
  5
1124F
  8
0
 10
3574.584645475673824
 20
186.5531212654620106
 30
0.0
 11
3574.5649604362738501
 21
186.5531212654620106
 31
0.0
  0
LINE
  5
11250
  8
0
 10
3574.7618108299739106
 20
184.9244214415328997
 30
0.0
 11
3574.7013132464749106
 21
184.9474103440329031
 31
0.0
  0
LINE
  5
11251
  8
0
 10
3574.7013132464749106
 20
184.9474103440329031
 30
0.0
 11
3574.7013132464749106
 21
185.1016939563328947
 31
0.0
  0
LINE
  5
11252
  8
0
 10
3574.7013132464749106
 20
185.1016939563328947
 30
0.0
 11
3574.7618108299739106
 21
185.1246828588328981
 31
0.0
  0
LINE
  5
11253
  8
0
 10
3574.584645475673824
 20
186.5531212654620106
 30
0.0
 11
3574.7618108299739106
 21
186.4520181620050039
 31
0.0
  0
LINE
  5
11254
  8
0
 10
3574.7011730454628378
 20
186.4866223780776977
 30
0.0
 11
3574.7618108299739106
 21
186.4860932001620029
 31
0.0
  0
LINE
  5
11255
  8
0
 10
3574.5649604362738501
 20
186.4743811079621025
 30
0.0
 11
3574.584645475673824
 21
186.4743811079621025
 31
0.0
  0
LINE
  5
11256
  8
0
 10
3574.584645475673824
 20
186.4743811079621025
 30
0.0
 11
3574.6536754367029971
 21
186.5137278788762956
 31
0.0
  0
LINE
  5
11257
  8
0
 10
3574.3877950819751277
 20
186.5531212654620106
 30
0.0
 11
3574.3681100425737895
 21
186.5531212654620106
 31
0.0
  0
LINE
  5
11258
  8
0
 10
3574.5649604362738501
 20
184.9244214415328997
 30
0.0
 11
3574.5044628527739405
 21
184.9474103440329031
 31
0.0
  0
LINE
  5
11259
  8
0
 10
3574.5044628527739405
 20
184.9474103440329031
 30
0.0
 11
3574.5044628527739405
 21
185.1016939563328947
 31
0.0
  0
LINE
  5
1125A
  8
0
 10
3574.5044628527739405
 20
185.1016939563328947
 30
0.0
 11
3574.5649604362738501
 21
185.1246828588328981
 31
0.0
  0
LINE
  5
1125B
  8
0
 10
3574.3877950819751277
 20
186.5531212654620106
 30
0.0
 11
3574.5649604362738501
 21
186.4520181620050039
 31
0.0
  0
LINE
  5
1125C
  8
0
 10
3574.5043226517627772
 20
186.4866223780776977
 30
0.0
 11
3574.5649604362738501
 21
186.4860932001620029
 31
0.0
  0
LINE
  5
1125D
  8
0
 10
3574.3681100425737895
 20
186.4743811079621025
 30
0.0
 11
3574.3877950819751277
 21
186.4743811079621025
 31
0.0
  0
LINE
  5
1125E
  8
0
 10
3574.3877950819751277
 20
186.4743811079621025
 30
0.0
 11
3574.4568250430029366
 21
186.5137278788762956
 31
0.0
  0
LINE
  5
1125F
  8
0
 10
3574.1909446882741577
 20
186.5531212654620106
 30
0.0
 11
3574.1712596488750933
 21
186.5531212654620106
 31
0.0
  0
LINE
  5
11260
  8
0
 10
3574.3681100425737895
 20
184.9244214415328997
 30
0.0
 11
3574.30761245907388
 21
184.9474103440329031
 31
0.0
  0
LINE
  5
11261
  8
0
 10
3574.30761245907388
 20
184.9474103440329031
 30
0.0
 11
3574.30761245907388
 21
185.1016939563328947
 31
0.0
  0
LINE
  5
11262
  8
0
 10
3574.30761245907388
 20
185.1016939563328947
 30
0.0
 11
3574.3681100425737895
 21
185.1246828588328981
 31
0.0
  0
LINE
  5
11263
  8
0
 10
3574.1909446882741577
 20
186.5531212654620106
 30
0.0
 11
3574.3681100425737895
 21
186.4520181620050039
 31
0.0
  0
LINE
  5
11264
  8
0
 10
3574.3074722580631715
 20
186.4866223780776977
 30
0.0
 11
3574.3681100425737895
 21
186.4860932001620029
 31
0.0
  0
LINE
  5
11265
  8
0
 10
3574.1712596488750933
 20
186.4743811079621025
 30
0.0
 11
3574.1909446882741577
 21
186.4743811079621025
 31
0.0
  0
LINE
  5
11266
  8
0
 10
3574.1909446882741577
 20
186.4743811079621025
 30
0.0
 11
3574.2599746493028761
 21
186.5137278788762956
 31
0.0
  0
LINE
  5
11267
  8
0
 10
3573.9940942945750066
 20
186.5531212654620106
 30
0.0
 11
3573.9744092551741232
 21
186.5531212654620106
 31
0.0
  0
LINE
  5
11268
  8
0
 10
3574.1712596488750933
 20
184.9244214415328997
 30
0.0
 11
3574.1107620653738195
 21
184.9474103440329031
 31
0.0
  0
LINE
  5
11269
  8
0
 10
3574.1107620653738195
 20
184.9474103440329031
 30
0.0
 11
3574.1107620653738195
 21
185.1016939563328947
 31
0.0
  0
LINE
  5
1126A
  8
0
 10
3574.1107620653738195
 20
185.1016939563328947
 30
0.0
 11
3574.1712596488750933
 21
185.1246828588328981
 31
0.0
  0
LINE
  5
1126B
  8
0
 10
3573.9940942945750066
 20
186.5531212654620106
 30
0.0
 11
3574.1712596488750933
 21
186.4520181620050039
 31
0.0
  0
LINE
  5
1126C
  8
0
 10
3574.1106218643631109
 20
186.4866223780776977
 30
0.0
 11
3574.1712596488750933
 21
186.4860932001620029
 31
0.0
  0
LINE
  5
1126D
  8
0
 10
3573.9744092551741232
 20
186.4743811079621025
 30
0.0
 11
3573.9940942945750066
 21
186.4743811079621025
 31
0.0
  0
LINE
  5
1126E
  8
0
 10
3573.9940942945750066
 20
186.4743811079621025
 30
0.0
 11
3574.0631242556028155
 21
186.5137278788762956
 31
0.0
  0
LINE
  5
1126F
  8
0
 10
3573.7972439008740366
 20
186.5531212654620106
 30
0.0
 11
3573.7775588614740627
 21
186.5531212654620106
 31
0.0
  0
LINE
  5
11270
  8
0
 10
3573.9744092551741232
 20
184.9244214415328997
 30
0.0
 11
3573.9139116716742137
 21
184.9474103440329031
 31
0.0
  0
LINE
  5
11271
  8
0
 10
3573.9139116716742137
 20
184.9474103440329031
 30
0.0
 11
3573.9139116716742137
 21
185.1016939563328947
 31
0.0
  0
LINE
  5
11272
  8
0
 10
3573.9139116716742137
 20
185.1016939563328947
 30
0.0
 11
3573.9744092551741232
 21
185.1246828588328981
 31
0.0
  0
LINE
  5
11273
  8
0
 10
3573.7972439008740366
 20
186.5531212654620106
 30
0.0
 11
3573.9744092551741232
 21
186.4520181620050039
 31
0.0
  0
LINE
  5
11274
  8
0
 10
3573.9137714706639599
 20
186.4866223780776977
 30
0.0
 11
3573.9744092551741232
 21
186.4860932001620029
 31
0.0
  0
LINE
  5
11275
  8
0
 10
3573.7775588614740627
 20
186.4743811079621025
 30
0.0
 11
3573.7972439008740366
 21
186.4743811079621025
 31
0.0
  0
LINE
  5
11276
  8
0
 10
3573.7972439008740366
 20
186.4743811079621025
 30
0.0
 11
3573.8662738619032098
 21
186.5137278788762956
 31
0.0
  0
LINE
  5
11277
  8
0
 10
3573.6003935071739761
 20
186.5531212654620106
 30
0.0
 11
3573.5807084677740022
 21
186.5531212654620106
 31
0.0
  0
LINE
  5
11278
  8
0
 10
3573.7775588614740627
 20
184.9244214415328997
 30
0.0
 11
3573.7170612779741532
 21
184.9474103440329031
 31
0.0
  0
LINE
  5
11279
  8
0
 10
3573.7170612779741532
 20
184.9474103440329031
 30
0.0
 11
3573.7170612779741532
 21
185.1016939563328947
 31
0.0
  0
LINE
  5
1127A
  8
0
 10
3573.7170612779741532
 20
185.1016939563328947
 30
0.0
 11
3573.7775588614740627
 21
185.1246828588328981
 31
0.0
  0
LINE
  5
1127B
  8
0
 10
3573.6003935071739761
 20
186.5531212654620106
 30
0.0
 11
3573.7775588614740627
 21
186.4520181620050039
 31
0.0
  0
LINE
  5
1127C
  8
0
 10
3573.7169210769638994
 20
186.4866223780776977
 30
0.0
 11
3573.7775588614740627
 21
186.4860932001620029
 31
0.0
  0
LINE
  5
1127D
  8
0
 10
3573.5807084677740022
 20
186.4743811079621025
 30
0.0
 11
3573.6003935071739761
 21
186.4743811079621025
 31
0.0
  0
LINE
  5
1127E
  8
0
 10
3573.6003935071739761
 20
186.4743811079621025
 30
0.0
 11
3573.6694234682031492
 21
186.5137278788762956
 31
0.0
  0
LINE
  5
1127F
  8
0
 10
3573.4035431134739156
 20
186.5531212654620106
 30
0.0
 11
3573.3838580740739417
 21
186.5531212654620106
 31
0.0
  0
LINE
  5
11280
  8
0
 10
3573.5807084677740022
 20
184.9244214415328997
 30
0.0
 11
3573.5202108842740927
 21
184.9474103440329031
 31
0.0
  0
LINE
  5
11281
  8
0
 10
3573.5202108842740927
 20
184.9474103440329031
 30
0.0
 11
3573.5202108842740927
 21
185.1016939563328947
 31
0.0
  0
LINE
  5
11282
  8
0
 10
3573.5202108842740927
 20
185.1016939563328947
 30
0.0
 11
3573.5807084677740022
 21
185.1246828588328981
 31
0.0
  0
LINE
  5
11283
  8
0
 10
3573.4035431134739156
 20
186.5531212654620106
 30
0.0
 11
3573.5807084677740022
 21
186.4520181620050039
 31
0.0
  0
LINE
  5
11284
  8
0
 10
3573.5200706832638389
 20
186.4866223780776977
 30
0.0
 11
3573.5807084677740022
 21
186.4860932001620029
 31
0.0
  0
LINE
  5
11285
  8
0
 10
3573.3838580740739417
 20
186.4743811079621025
 30
0.0
 11
3573.4035431134739156
 21
186.4743811079621025
 31
0.0
  0
LINE
  5
11286
  8
0
 10
3573.4035431134739156
 20
186.4743811079621025
 30
0.0
 11
3573.4725730745039982
 21
186.5137278788762956
 31
0.0
  0
LINE
  5
11287
  8
0
 10
3573.2066927197738551
 20
186.5531212654620106
 30
0.0
 11
3573.1870076803738812
 21
186.5531212654620106
 31
0.0
  0
LINE
  5
11288
  8
0
 10
3573.3838580740739417
 20
184.9244214415328997
 30
0.0
 11
3573.3233604905740322
 21
184.9474103440329031
 31
0.0
  0
LINE
  5
11289
  8
0
 10
3573.3233604905740322
 20
184.9474103440329031
 30
0.0
 11
3573.3233604905740322
 21
185.1016939563328947
 31
0.0
  0
LINE
  5
1128A
  8
0
 10
3573.3233604905740322
 20
185.1016939563328947
 30
0.0
 11
3573.3838580740739417
 21
185.1246828588328981
 31
0.0
  0
LINE
  5
1128B
  8
0
 10
3573.2066927197738551
 20
186.5531212654620106
 30
0.0
 11
3573.3838580740739417
 21
186.4520181620050039
 31
0.0
  0
LINE
  5
1128C
  8
0
 10
3573.3232202895637784
 20
186.4866223780776977
 30
0.0
 11
3573.3838580740739417
 21
186.4860932001620029
 31
0.0
  0
LINE
  5
1128D
  8
0
 10
3573.1870076803738812
 20
186.4743811079621025
 30
0.0
 11
3573.2066927197738551
 21
186.4743811079621025
 31
0.0
  0
LINE
  5
1128E
  8
0
 10
3573.2066927197738551
 20
186.4743811079621025
 30
0.0
 11
3573.2757226808030282
 21
186.5137278788762956
 31
0.0
  0
LINE
  5
1128F
  8
0
 10
3573.0098423260737945
 20
186.5531212654620106
 30
0.0
 11
3572.9901572866738206
 21
186.5531212654620106
 31
0.0
  0
LINE
  5
11290
  8
0
 10
3573.1870076803738812
 20
184.9244214415328997
 30
0.0
 11
3573.1265100968739716
 21
184.9474103440329031
 31
0.0
  0
LINE
  5
11291
  8
0
 10
3573.1265100968739716
 20
184.9474103440329031
 30
0.0
 11
3573.1265100968739716
 21
185.1016939563328947
 31
0.0
  0
LINE
  5
11292
  8
0
 10
3573.1265100968739716
 20
185.1016939563328947
 30
0.0
 11
3573.1870076803738812
 21
185.1246828588328981
 31
0.0
  0
LINE
  5
11293
  8
0
 10
3573.0098423260737945
 20
186.5531212654620106
 30
0.0
 11
3573.1870076803738812
 21
186.4520181620050039
 31
0.0
  0
LINE
  5
11294
  8
0
 10
3573.1263698958628083
 20
186.4866223780776977
 30
0.0
 11
3573.1870076803738812
 21
186.4860932001620029
 31
0.0
  0
LINE
  5
11295
  8
0
 10
3572.9901572866738206
 20
186.4743811079621025
 30
0.0
 11
3573.0098423260737945
 21
186.4743811079621025
 31
0.0
  0
LINE
  5
11296
  8
0
 10
3573.0098423260737945
 20
186.4743811079621025
 30
0.0
 11
3573.0788722871038772
 21
186.5137278788762956
 31
0.0
  0
LINE
  5
11297
  8
0
 10
3572.8129919323741888
 20
186.5531212654620106
 30
0.0
 11
3572.7933068929742149
 21
186.5531212654620106
 31
0.0
  0
LINE
  5
11298
  8
0
 10
3572.9901572866738206
 20
184.9244214415328997
 30
0.0
 11
3572.9296597031739111
 21
184.9474103440329031
 31
0.0
  0
LINE
  5
11299
  8
0
 10
3572.9296597031739111
 20
184.9474103440329031
 30
0.0
 11
3572.9296597031739111
 21
185.1016939563328947
 31
0.0
  0
LINE
  5
1129A
  8
0
 10
3572.9296597031739111
 20
185.1016939563328947
 30
0.0
 11
3572.9901572866738206
 21
185.1246828588328981
 31
0.0
  0
LINE
  5
1129B
  8
0
 10
3572.8129919323741888
 20
186.5531212654620106
 30
0.0
 11
3572.9901572866738206
 21
186.4520181620050039
 31
0.0
  0
LINE
  5
1129C
  8
0
 10
3572.9295195021641121
 20
186.4866223780776977
 30
0.0
 11
3572.9901572866738206
 21
186.4860932001620029
 31
0.0
  0
LINE
  5
1129D
  8
0
 10
3572.7933068929742149
 20
186.4743811079621025
 30
0.0
 11
3572.8129919323741888
 21
186.4743811079621025
 31
0.0
  0
LINE
  5
1129E
  8
0
 10
3572.8129919323741888
 20
186.4743811079621025
 30
0.0
 11
3572.8820218934029072
 21
186.5137278788762956
 31
0.0
  0
LINE
  5
1129F
  8
0
 10
3572.6161415386741282
 20
186.5531212654620106
 30
0.0
 11
3572.5964564992750638
 21
186.5531212654620106
 31
0.0
  0
LINE
  5
112A0
  8
0
 10
3572.7933068929742149
 20
184.9244214415328997
 30
0.0
 11
3572.7328093094738506
 21
184.9474103440329031
 31
0.0
  0
LINE
  5
112A1
  8
0
 10
3572.7328093094738506
 20
184.9474103440329031
 30
0.0
 11
3572.7328093094738506
 21
185.1016939563328947
 31
0.0
  0
LINE
  5
112A2
  8
0
 10
3572.7328093094738506
 20
185.1016939563328947
 30
0.0
 11
3572.7933068929742149
 21
185.1246828588328981
 31
0.0
  0
LINE
  5
112A3
  8
0
 10
3572.6161415386741282
 20
186.5531212654620106
 30
0.0
 11
3572.7933068929742149
 21
186.4520181620050039
 31
0.0
  0
LINE
  5
112A4
  8
0
 10
3572.732669108463142
 20
186.4866223780776977
 30
0.0
 11
3572.7933068929742149
 21
186.4860932001620029
 31
0.0
  0
LINE
  5
112A5
  8
0
 10
3572.5964564992750638
 20
186.4743811079621025
 30
0.0
 11
3572.6161415386741282
 21
186.4743811079621025
 31
0.0
  0
LINE
  5
112A6
  8
0
 10
3572.6161415386741282
 20
186.4743811079621025
 30
0.0
 11
3572.6851714997028466
 21
186.5137278788762956
 31
0.0
  0
LINE
  5
112A7
  8
0
 10
3572.5964564992750638
 20
184.9244214415328997
 30
0.0
 11
3572.5359589157737901
 21
184.9474103440329031
 31
0.0
  0
LINE
  5
112A8
  8
0
 10
3572.5359589157737901
 20
184.9474103440329031
 30
0.0
 11
3572.5359589157737901
 21
185.1016939563328947
 31
0.0
  0
LINE
  5
112A9
  8
0
 10
3572.5359589157737901
 20
185.1016939563328947
 30
0.0
 11
3572.5964564992750638
 21
185.1246828588328981
 31
0.0
  0
LINE
  5
112AA
  8
0
 10
3572.4192911449740677
 20
186.5531212654620106
 30
0.0
 11
3572.5964564992750638
 21
186.4520181620050039
 31
0.0
  0
LINE
  5
112AB
  8
0
 10
3572.535818714763991
 20
186.4866223780776977
 30
0.0
 11
3572.5964564992750638
 21
186.4860932001620029
 31
0.0
  0
LINE
  5
112AC
  8
0
 10
3572.4192911449740677
 20
186.4743811079621025
 30
0.0
 11
3572.4883211060027861
 21
186.5137278788762956
 31
0.0
  0
LINE
  5
112AD
  8
0
 10
3571.9074801213751016
 20
183.4958739646851882
 30
0.0
 11
3571.899785060575141
 21
183.495897638685193
 31
0.0
  0
ARC
  5
112AE
  8
0
 10
3571.8997490369429215
 20
183.4841884205108045
 30
0.0
 40
0.0117092735879217
 50
89.823729007481532
 51
129.1485454888870095
  0
ARC
  5
112AF
  8
0
 10
3572.0358431364297758
 20
183.3170142700990937
 30
0.0
 40
0.227275505825544
 50
129.1485454888870095
 51
157.0780278581221978
  0
ARC
  5
112B0
  8
0
 10
3571.8372896013729587
 20
183.4009763106797948
 30
0.0
 40
0.0116992303636617
 50
157.0780278581192135
 51
191.3675363046851032
  0
ARC
  5
112B1
  8
0
 10
3572.0420615825091772
 20
183.3216108986052006
 30
0.0
 40
0.2295618399710006
 50
160.3860657089090012
 51
172.4214662801933002
  0
ARC
  5
112B2
  8
0
 10
3571.8272796279979957
 20
183.3512152078932047
 30
0.0
 40
0.0127923020009826
 50
176.9912090679983976
 51
265.3412245018039926
  0
LINE
  5
112B3
  8
0
 10
3571.9074801213751016
 20
183.1415954085852036
 30
0.0
 11
3571.899785060575141
 21
183.1415717345851988
 31
0.0
  0
ARC
  5
112B4
  8
0
 10
3571.8997490369429215
 20
183.153280952759502
 30
0.0
 40
0.0117092735879217
 50
230.8514545111131042
 51
270.1762709925184254
  0
ARC
  5
112B5
  8
0
 10
3572.0358431364297758
 20
183.3204551031712128
 30
0.0
 40
0.227275505825544
 50
202.9219721418778022
 51
230.8514545111131042
  0
ARC
  5
112B6
  8
0
 10
3571.8372896013729587
 20
183.236493062590597
 30
0.0
 40
0.0116992303636617
 50
168.6324636953131915
 51
202.9219721418807865
  0
ARC
  5
112B7
  8
0
 10
3572.0420615825091772
 20
183.3158584746651059
 30
0.0
 40
0.2295618399710006
 50
187.5785337198066998
 51
199.6139342910909988
  0
ARC
  5
112B8
  8
0
 10
3571.8272796279979957
 20
183.2862541653771018
 30
0.0
 40
0.0127923020009826
 50
94.658775498195979
 51
183.0087909320014887
  0
LINE
  5
112B9
  8
0
 10
3571.8262406192739036
 20
183.2990042026852109
 30
0.0
 11
3571.8262406192739036
 21
183.3384651705852093
 31
0.0
  0
LINE
  5
112BA
  8
0
 10
3579.2303147670741055
 20
187.9566685095620073
 30
0.0
 11
3579.2303147670741055
 21
186.748999382959596
 31
0.0
  0
ARC
  5
112BB
  8
0
 10
3579.0302541378200658
 20
186.752090284672704
 30
0.0
 40
0.4172441476427397
 50
279.2893404113863767
 51
356.8061475523574018
  0
LINE
  5
112BC
  8
0
 10
3579.0976057794318876
 20
186.3403179748773084
 30
0.0
 11
3576.4076428964740444
 21
185.9633516421621096
 31
0.0
  0
ARC
  5
112BD
  8
0
 10
3579.0326493753441355
 20
186.7501774932088949
 30
0.0
 40
0.1976689025401861
 50
274.5122764526084893
 51
359.6585140912694101
  0
LINE
  5
112BE
  8
0
 10
3579.0482005212061267
 20
186.5531212654620106
 30
0.0
 11
3576.336256629314903
 21
186.1698268111626078
 31
0.0
  0
LINE
  5
112BF
  8
0
 10
3577.33840549817387
 20
181.3975413306619942
 30
0.0
 11
3579.2702947549742021
 21
181.2818944671311954
 31
0.0
  0
ARC
  5
112C0
  8
0
 10
3579.2104904094298945
 20
181.0530057954169081
 30
0.0
 40
0.2365725761475927
 50
23.0533745483526111
 51
75.3570369777671942
  0
LINE
  5
112C1
  8
0
 10
3577.0107419665018824
 20
183.0379703391784858
 30
0.0
 11
3579.3689556829740468
 21
183.1829147166619975
 31
0.0
  0
ARC
  5
112C2
  8
0
 10
3579.1607830134548749
 20
183.3838925732146095
 30
0.0
 40
0.2893578392914253
 50
316.007428582733894
 51
351.3508493244790998
  0
LINE
  5
112C3
  8
0
 10
3574.978346263073945
 20
180.9350110291620979
 30
0.0
 11
3574.9586612236739711
 21
180.9350110291620979
 31
0.0
  0
LINE
  5
112C4
  8
0
 10
3572.4192911449740677
 20
180.9350110291620979
 30
0.0
 11
3571.9862202788740433
 21
180.9350110291620979
 31
0.0
  0
LINE
  5
112C5
  8
0
 10
3571.9074801213751016
 20
180.9881606354620089
 30
0.0
 11
3571.9862202788740433
 21
180.9881606354620089
 31
0.0
  0
LINE
  5
112C6
  8
0
 10
3574.978346263073945
 20
180.9350110291620979
 30
0.0
 11
3575.1555116173740316
 21
181.0361141326191046
 31
0.0
  0
LINE
  5
112C7
  8
0
 10
3575.0948738328638683
 20
181.0015099165464108
 30
0.0
 11
3575.1555116173740316
 21
181.0020390944619919
 31
0.0
  0
LINE
  5
112C8
  8
0
 10
3574.9586612236739711
 20
181.0137511866620059
 30
0.0
 11
3574.978346263073945
 21
181.0137511866620059
 31
0.0
  0
LINE
  5
112C9
  8
0
 10
3574.978346263073945
 20
181.0137511866620059
 30
0.0
 11
3575.0473762241031181
 21
180.9744044157478129
 31
0.0
  0
LINE
  5
112CA
  8
0
 10
3574.7814958693738845
 20
180.9350110291620979
 30
0.0
 11
3574.7618108299739106
 21
180.9350110291620979
 31
0.0
  0
LINE
  5
112CB
  8
0
 10
3574.7814958693738845
 20
180.9350110291620979
 30
0.0
 11
3574.9586612236739711
 21
181.0361141326191046
 31
0.0
  0
LINE
  5
112CC
  8
0
 10
3574.8980234391628983
 20
181.0015099165464108
 30
0.0
 11
3574.9586612236739711
 21
181.0020390944619919
 31
0.0
  0
LINE
  5
112CD
  8
0
 10
3574.7618108299739106
 20
181.0137511866620059
 30
0.0
 11
3574.7814958693738845
 21
181.0137511866620059
 31
0.0
  0
LINE
  5
112CE
  8
0
 10
3574.7814958693738845
 20
181.0137511866620059
 30
0.0
 11
3574.8505258304030576
 21
180.9744044157478129
 31
0.0
  0
LINE
  5
112CF
  8
0
 10
3574.584645475673824
 20
180.9350110291620979
 30
0.0
 11
3574.5649604362738501
 21
180.9350110291620979
 31
0.0
  0
LINE
  5
112D0
  8
0
 10
3574.584645475673824
 20
180.9350110291620979
 30
0.0
 11
3574.7618108299739106
 21
181.0361141326191046
 31
0.0
  0
LINE
  5
112D1
  8
0
 10
3574.7011730454628378
 20
181.0015099165464108
 30
0.0
 11
3574.7618108299739106
 21
181.0020390944619919
 31
0.0
  0
LINE
  5
112D2
  8
0
 10
3574.5649604362738501
 20
181.0137511866620059
 30
0.0
 11
3574.584645475673824
 21
181.0137511866620059
 31
0.0
  0
LINE
  5
112D3
  8
0
 10
3574.584645475673824
 20
181.0137511866620059
 30
0.0
 11
3574.6536754367029971
 21
180.9744044157478129
 31
0.0
  0
LINE
  5
112D4
  8
0
 10
3574.3877950819751277
 20
180.9350110291620979
 30
0.0
 11
3574.3681100425737895
 21
180.9350110291620979
 31
0.0
  0
LINE
  5
112D5
  8
0
 10
3574.3877950819751277
 20
180.9350110291620979
 30
0.0
 11
3574.5649604362738501
 21
181.0361141326191046
 31
0.0
  0
LINE
  5
112D6
  8
0
 10
3574.5043226517627772
 20
181.0015099165464108
 30
0.0
 11
3574.5649604362738501
 21
181.0020390944619919
 31
0.0
  0
LINE
  5
112D7
  8
0
 10
3574.3681100425737895
 20
181.0137511866620059
 30
0.0
 11
3574.3877950819751277
 21
181.0137511866620059
 31
0.0
  0
LINE
  5
112D8
  8
0
 10
3574.3877950819751277
 20
181.0137511866620059
 30
0.0
 11
3574.4568250430029366
 21
180.9744044157478129
 31
0.0
  0
LINE
  5
112D9
  8
0
 10
3574.1909446882741577
 20
180.9350110291620979
 30
0.0
 11
3574.1712596488750933
 21
180.9350110291620979
 31
0.0
  0
LINE
  5
112DA
  8
0
 10
3574.1909446882741577
 20
180.9350110291620979
 30
0.0
 11
3574.3681100425737895
 21
181.0361141326191046
 31
0.0
  0
LINE
  5
112DB
  8
0
 10
3574.3074722580631715
 20
181.0015099165464108
 30
0.0
 11
3574.3681100425737895
 21
181.0020390944619919
 31
0.0
  0
LINE
  5
112DC
  8
0
 10
3574.1712596488750933
 20
181.0137511866620059
 30
0.0
 11
3574.1909446882741577
 21
181.0137511866620059
 31
0.0
  0
LINE
  5
112DD
  8
0
 10
3574.1909446882741577
 20
181.0137511866620059
 30
0.0
 11
3574.2599746493028761
 21
180.9744044157478129
 31
0.0
  0
LINE
  5
112DE
  8
0
 10
3573.9940942945750066
 20
180.9350110291620979
 30
0.0
 11
3573.9744092551741232
 21
180.9350110291620979
 31
0.0
  0
LINE
  5
112DF
  8
0
 10
3573.9940942945750066
 20
180.9350110291620979
 30
0.0
 11
3574.1712596488750933
 21
181.0361141326191046
 31
0.0
  0
LINE
  5
112E0
  8
0
 10
3574.1106218643631109
 20
181.0015099165464108
 30
0.0
 11
3574.1712596488750933
 21
181.0020390944619919
 31
0.0
  0
LINE
  5
112E1
  8
0
 10
3573.9744092551741232
 20
181.0137511866620059
 30
0.0
 11
3573.9940942945750066
 21
181.0137511866620059
 31
0.0
  0
LINE
  5
112E2
  8
0
 10
3573.9940942945750066
 20
181.0137511866620059
 30
0.0
 11
3574.0631242556028155
 21
180.9744044157478129
 31
0.0
  0
LINE
  5
112E3
  8
0
 10
3573.7972439008740366
 20
180.9350110291620979
 30
0.0
 11
3573.7775588614740627
 21
180.9350110291620979
 31
0.0
  0
LINE
  5
112E4
  8
0
 10
3573.7972439008740366
 20
180.9350110291620979
 30
0.0
 11
3573.9744092551741232
 21
181.0361141326191046
 31
0.0
  0
LINE
  5
112E5
  8
0
 10
3573.9137714706639599
 20
181.0015099165464108
 30
0.0
 11
3573.9744092551741232
 21
181.0020390944619919
 31
0.0
  0
LINE
  5
112E6
  8
0
 10
3573.7775588614740627
 20
181.0137511866620059
 30
0.0
 11
3573.7972439008740366
 21
181.0137511866620059
 31
0.0
  0
LINE
  5
112E7
  8
0
 10
3573.7972439008740366
 20
181.0137511866620059
 30
0.0
 11
3573.8662738619032098
 21
180.9744044157478129
 31
0.0
  0
LINE
  5
112E8
  8
0
 10
3573.6003935071739761
 20
180.9350110291620979
 30
0.0
 11
3573.5807084677740022
 21
180.9350110291620979
 31
0.0
  0
LINE
  5
112E9
  8
0
 10
3573.6003935071739761
 20
180.9350110291620979
 30
0.0
 11
3573.7775588614740627
 21
181.0361141326191046
 31
0.0
  0
LINE
  5
112EA
  8
0
 10
3573.7169210769638994
 20
181.0015099165464108
 30
0.0
 11
3573.7775588614740627
 21
181.0020390944619919
 31
0.0
  0
LINE
  5
112EB
  8
0
 10
3573.5807084677740022
 20
181.0137511866620059
 30
0.0
 11
3573.6003935071739761
 21
181.0137511866620059
 31
0.0
  0
LINE
  5
112EC
  8
0
 10
3573.6003935071739761
 20
181.0137511866620059
 30
0.0
 11
3573.6694234682031492
 21
180.9744044157478129
 31
0.0
  0
LINE
  5
112ED
  8
0
 10
3573.4035431134739156
 20
180.9350110291620979
 30
0.0
 11
3573.3838580740739417
 21
180.9350110291620979
 31
0.0
  0
LINE
  5
112EE
  8
0
 10
3573.4035431134739156
 20
180.9350110291620979
 30
0.0
 11
3573.5807084677740022
 21
181.0361141326191046
 31
0.0
  0
LINE
  5
112EF
  8
0
 10
3573.5200706832638389
 20
181.0015099165464108
 30
0.0
 11
3573.5807084677740022
 21
181.0020390944619919
 31
0.0
  0
LINE
  5
112F0
  8
0
 10
3573.3838580740739417
 20
181.0137511866620059
 30
0.0
 11
3573.4035431134739156
 21
181.0137511866620059
 31
0.0
  0
LINE
  5
112F1
  8
0
 10
3573.4035431134739156
 20
181.0137511866620059
 30
0.0
 11
3573.4725730745039982
 21
180.9744044157478129
 31
0.0
  0
LINE
  5
112F2
  8
0
 10
3573.2066927197738551
 20
180.9350110291620979
 30
0.0
 11
3573.1870076803738812
 21
180.9350110291620979
 31
0.0
  0
LINE
  5
112F3
  8
0
 10
3573.2066927197738551
 20
180.9350110291620979
 30
0.0
 11
3573.3838580740739417
 21
181.0361141326191046
 31
0.0
  0
LINE
  5
112F4
  8
0
 10
3573.3232202895637784
 20
181.0015099165464108
 30
0.0
 11
3573.3838580740739417
 21
181.0020390944619919
 31
0.0
  0
LINE
  5
112F5
  8
0
 10
3573.1870076803738812
 20
181.0137511866620059
 30
0.0
 11
3573.2066927197738551
 21
181.0137511866620059
 31
0.0
  0
LINE
  5
112F6
  8
0
 10
3573.2066927197738551
 20
181.0137511866620059
 30
0.0
 11
3573.2757226808030282
 21
180.9744044157478129
 31
0.0
  0
LINE
  5
112F7
  8
0
 10
3573.0098423260737945
 20
180.9350110291620979
 30
0.0
 11
3572.9901572866738206
 21
180.9350110291620979
 31
0.0
  0
LINE
  5
112F8
  8
0
 10
3573.0098423260737945
 20
180.9350110291620979
 30
0.0
 11
3573.1870076803738812
 21
181.0361141326191046
 31
0.0
  0
LINE
  5
112F9
  8
0
 10
3573.1263698958628083
 20
181.0015099165464108
 30
0.0
 11
3573.1870076803738812
 21
181.0020390944619919
 31
0.0
  0
LINE
  5
112FA
  8
0
 10
3572.9901572866738206
 20
181.0137511866620059
 30
0.0
 11
3573.0098423260737945
 21
181.0137511866620059
 31
0.0
  0
LINE
  5
112FB
  8
0
 10
3573.0098423260737945
 20
181.0137511866620059
 30
0.0
 11
3573.0788722871038772
 21
180.9744044157478129
 31
0.0
  0
LINE
  5
112FC
  8
0
 10
3572.8129919323741888
 20
180.9350110291620979
 30
0.0
 11
3572.7933068929742149
 21
180.9350110291620979
 31
0.0
  0
LINE
  5
112FD
  8
0
 10
3572.8129919323741888
 20
180.9350110291620979
 30
0.0
 11
3572.9901572866738206
 21
181.0361141326191046
 31
0.0
  0
LINE
  5
112FE
  8
0
 10
3572.9295195021641121
 20
181.0015099165464108
 30
0.0
 11
3572.9901572866738206
 21
181.0020390944619919
 31
0.0
  0
LINE
  5
112FF
  8
0
 10
3572.7933068929742149
 20
181.0137511866620059
 30
0.0
 11
3572.8129919323741888
 21
181.0137511866620059
 31
0.0
  0
LINE
  5
11300
  8
0
 10
3572.8129919323741888
 20
181.0137511866620059
 30
0.0
 11
3572.8820218934029072
 21
180.9744044157478129
 31
0.0
  0
LINE
  5
11301
  8
0
 10
3572.6161415386741282
 20
180.9350110291620979
 30
0.0
 11
3572.5964564992750638
 21
180.9350110291620979
 31
0.0
  0
LINE
  5
11302
  8
0
 10
3572.6161415386741282
 20
180.9350110291620979
 30
0.0
 11
3572.7933068929742149
 21
181.0361141326191046
 31
0.0
  0
LINE
  5
11303
  8
0
 10
3572.732669108463142
 20
181.0015099165464108
 30
0.0
 11
3572.7933068929742149
 21
181.0020390944619919
 31
0.0
  0
LINE
  5
11304
  8
0
 10
3572.5964564992750638
 20
181.0137511866620059
 30
0.0
 11
3572.6161415386741282
 21
181.0137511866620059
 31
0.0
  0
LINE
  5
11305
  8
0
 10
3572.6161415386741282
 20
181.0137511866620059
 30
0.0
 11
3572.6851714997028466
 21
180.9744044157478129
 31
0.0
  0
LINE
  5
11306
  8
0
 10
3572.4192911449740677
 20
180.9350110291620979
 30
0.0
 11
3572.5964564992750638
 21
181.0361141326191046
 31
0.0
  0
LINE
  5
11307
  8
0
 10
3572.535818714763991
 20
181.0015099165464108
 30
0.0
 11
3572.5964564992750638
 21
181.0020390944619919
 31
0.0
  0
LINE
  5
11308
  8
0
 10
3572.4192911449740677
 20
181.0137511866620059
 30
0.0
 11
3572.4883211060027861
 21
180.9744044157478129
 31
0.0
  0
LINE
  5
11309
  8
0
 10
3575.1555116173740316
 20
183.4054632376619907
 30
0.0
 11
3574.9980313024739189
 21
183.4952263172619951
 31
0.0
  0
LINE
  5
1130A
  8
0
 10
3574.9980313024739189
 20
183.4952263172619951
 30
0.0
 11
3574.9980313024739189
 21
183.1661343238619963
 31
0.0
  0
LINE
  5
1130B
  8
0
 10
3574.9980313024739189
 20
183.1661343238619963
 30
0.0
 11
3575.1555116173740316
 21
183.2558974034620007
 31
0.0
  0
LINE
  5
1130C
  8
0
 10
3575.8248029559740644
 20
183.1549139388619949
 30
0.0
 11
3575.1948816961739794
 21
183.1549139388619949
 31
0.0
  0
LINE
  5
1130D
  8
0
 10
3575.1948816961739794
 20
183.1549139388619949
 30
0.0
 11
3575.1948816961739794
 21
183.5064467021620089
 31
0.0
  0
LINE
  5
1130E
  8
0
 10
3575.1948816961739794
 20
183.5064467021620089
 30
0.0
 11
3575.8248029559740644
 21
183.5064467021620089
 31
0.0
  0
LINE
  5
1130F
  8
0
 10
3574.9980313024739189
 20
183.3700503992619986
 30
0.0
 11
3575.1555116173740316
 21
183.3700503992619986
 31
0.0
  0
LINE
  5
11310
  8
0
 10
3574.9980313024739189
 20
183.2913102417620053
 30
0.0
 11
3575.1555116173740316
 21
183.2913102417620053
 31
0.0
  0
LINE
  5
11311
  8
0
 10
3575.1948816961739794
 20
183.2913102417620053
 30
0.0
 11
3575.8248029559740644
 21
183.2913102417620053
 31
0.0
  0
LINE
  5
11312
  8
0
 10
3575.1948816961739794
 20
183.3700503992619986
 30
0.0
 11
3575.8248029559740644
 21
183.3700503992619986
 31
0.0
  0
LINE
  5
11313
  8
0
 10
3574.9586612236739711
 20
183.4054632376619907
 30
0.0
 11
3574.8011809087738584
 21
183.4952263172619951
 31
0.0
  0
LINE
  5
11314
  8
0
 10
3574.8011809087738584
 20
183.4952263172619951
 30
0.0
 11
3574.8011809087738584
 21
183.1661343238619963
 31
0.0
  0
LINE
  5
11315
  8
0
 10
3574.8011809087738584
 20
183.1661343238619963
 30
0.0
 11
3574.9586612236739711
 21
183.2558974034620007
 31
0.0
  0
LINE
  5
11316
  8
0
 10
3574.8011809087738584
 20
183.3700503992619986
 30
0.0
 11
3574.9586612236739711
 21
183.3700503992619986
 31
0.0
  0
LINE
  5
11317
  8
0
 10
3574.8011809087738584
 20
183.2913102417620053
 30
0.0
 11
3574.9586612236739711
 21
183.2913102417620053
 31
0.0
  0
LINE
  5
11318
  8
0
 10
3574.7618108299739106
 20
183.4054632376619907
 30
0.0
 11
3574.6043305150737979
 21
183.4952263172619951
 31
0.0
  0
LINE
  5
11319
  8
0
 10
3574.6043305150737979
 20
183.4952263172619951
 30
0.0
 11
3574.6043305150737979
 21
183.1661343238619963
 31
0.0
  0
LINE
  5
1131A
  8
0
 10
3574.6043305150737979
 20
183.1661343238619963
 30
0.0
 11
3574.7618108299739106
 21
183.2558974034620007
 31
0.0
  0
LINE
  5
1131B
  8
0
 10
3574.6043305150737979
 20
183.3700503992619986
 30
0.0
 11
3574.7618108299739106
 21
183.3700503992619986
 31
0.0
  0
LINE
  5
1131C
  8
0
 10
3574.6043305150737979
 20
183.2913102417620053
 30
0.0
 11
3574.7618108299739106
 21
183.2913102417620053
 31
0.0
  0
LINE
  5
1131D
  8
0
 10
3574.5649604362738501
 20
183.4054632376619907
 30
0.0
 11
3574.4074801213741921
 21
183.4952263172619951
 31
0.0
  0
LINE
  5
1131E
  8
0
 10
3574.4074801213741921
 20
183.4952263172619951
 30
0.0
 11
3574.4074801213741921
 21
183.1661343238619963
 31
0.0
  0
LINE
  5
1131F
  8
0
 10
3574.4074801213741921
 20
183.1661343238619963
 30
0.0
 11
3574.5649604362738501
 21
183.2558974034620007
 31
0.0
  0
LINE
  5
11320
  8
0
 10
3574.4074801213741921
 20
183.3700503992619986
 30
0.0
 11
3574.5649604362738501
 21
183.3700503992619986
 31
0.0
  0
LINE
  5
11321
  8
0
 10
3574.4074801213741921
 20
183.2913102417620053
 30
0.0
 11
3574.5649604362738501
 21
183.2913102417620053
 31
0.0
  0
LINE
  5
11322
  8
0
 10
3574.3681100425737895
 20
183.4054632376619907
 30
0.0
 11
3574.2106297276741316
 21
183.4952263172619951
 31
0.0
  0
LINE
  5
11323
  8
0
 10
3574.2106297276741316
 20
183.4952263172619951
 30
0.0
 11
3574.2106297276741316
 21
183.1661343238619963
 31
0.0
  0
LINE
  5
11324
  8
0
 10
3574.2106297276741316
 20
183.1661343238619963
 30
0.0
 11
3574.3681100425737895
 21
183.2558974034620007
 31
0.0
  0
LINE
  5
11325
  8
0
 10
3574.2106297276741316
 20
183.3700503992619986
 30
0.0
 11
3574.3681100425737895
 21
183.3700503992619986
 31
0.0
  0
LINE
  5
11326
  8
0
 10
3574.2106297276741316
 20
183.2913102417620053
 30
0.0
 11
3574.3681100425737895
 21
183.2913102417620053
 31
0.0
  0
LINE
  5
11327
  8
0
 10
3574.1712596488750933
 20
183.4054632376619907
 30
0.0
 11
3574.0137793339740711
 21
183.4952263172619951
 31
0.0
  0
LINE
  5
11328
  8
0
 10
3574.0137793339740711
 20
183.4952263172619951
 30
0.0
 11
3574.0137793339740711
 21
183.1661343238619963
 31
0.0
  0
LINE
  5
11329
  8
0
 10
3574.0137793339740711
 20
183.1661343238619963
 30
0.0
 11
3574.1712596488750933
 21
183.2558974034620007
 31
0.0
  0
LINE
  5
1132A
  8
0
 10
3574.0137793339740711
 20
183.3700503992619986
 30
0.0
 11
3574.1712596488750933
 21
183.3700503992619986
 31
0.0
  0
LINE
  5
1132B
  8
0
 10
3574.0137793339740711
 20
183.2913102417620053
 30
0.0
 11
3574.1712596488750933
 21
183.2913102417620053
 31
0.0
  0
LINE
  5
1132C
  8
0
 10
3573.9744092551741232
 20
183.4054632376619907
 30
0.0
 11
3573.8169289402740105
 21
183.4952263172619951
 31
0.0
  0
LINE
  5
1132D
  8
0
 10
3573.8169289402740105
 20
183.4952263172619951
 30
0.0
 11
3573.8169289402740105
 21
183.1661343238619963
 31
0.0
  0
LINE
  5
1132E
  8
0
 10
3573.8169289402740105
 20
183.1661343238619963
 30
0.0
 11
3573.9744092551741232
 21
183.2558974034620007
 31
0.0
  0
LINE
  5
1132F
  8
0
 10
3573.8169289402740105
 20
183.3700503992619986
 30
0.0
 11
3573.9744092551741232
 21
183.3700503992619986
 31
0.0
  0
LINE
  5
11330
  8
0
 10
3573.8169289402740105
 20
183.2913102417620053
 30
0.0
 11
3573.9744092551741232
 21
183.2913102417620053
 31
0.0
  0
LINE
  5
11331
  8
0
 10
3573.7775588614740627
 20
183.4054632376619907
 30
0.0
 11
3573.62007854657395
 21
183.4952263172619951
 31
0.0
  0
LINE
  5
11332
  8
0
 10
3573.62007854657395
 20
183.4952263172619951
 30
0.0
 11
3573.62007854657395
 21
183.1661343238619963
 31
0.0
  0
LINE
  5
11333
  8
0
 10
3573.62007854657395
 20
183.1661343238619963
 30
0.0
 11
3573.7775588614740627
 21
183.2558974034620007
 31
0.0
  0
LINE
  5
11334
  8
0
 10
3573.62007854657395
 20
183.3700503992619986
 30
0.0
 11
3573.7775588614740627
 21
183.3700503992619986
 31
0.0
  0
LINE
  5
11335
  8
0
 10
3573.62007854657395
 20
183.2913102417620053
 30
0.0
 11
3573.7775588614740627
 21
183.2913102417620053
 31
0.0
  0
LINE
  5
11336
  8
0
 10
3573.5807084677740022
 20
183.4054632376619907
 30
0.0
 11
3573.4232281528738895
 21
183.4952263172619951
 31
0.0
  0
LINE
  5
11337
  8
0
 10
3573.4232281528738895
 20
183.4952263172619951
 30
0.0
 11
3573.4232281528738895
 21
183.1661343238619963
 31
0.0
  0
LINE
  5
11338
  8
0
 10
3573.4232281528738895
 20
183.1661343238619963
 30
0.0
 11
3573.5807084677740022
 21
183.2558974034620007
 31
0.0
  0
LINE
  5
11339
  8
0
 10
3573.4232281528738895
 20
183.3700503992619986
 30
0.0
 11
3573.5807084677740022
 21
183.3700503992619986
 31
0.0
  0
LINE
  5
1133A
  8
0
 10
3573.4232281528738895
 20
183.2913102417620053
 30
0.0
 11
3573.5807084677740022
 21
183.2913102417620053
 31
0.0
  0
LINE
  5
1133B
  8
0
 10
3573.3838580740739417
 20
183.4054632376619907
 30
0.0
 11
3573.226377759173829
 21
183.4952263172619951
 31
0.0
  0
LINE
  5
1133C
  8
0
 10
3573.226377759173829
 20
183.4952263172619951
 30
0.0
 11
3573.226377759173829
 21
183.1661343238619963
 31
0.0
  0
LINE
  5
1133D
  8
0
 10
3573.226377759173829
 20
183.1661343238619963
 30
0.0
 11
3573.3838580740739417
 21
183.2558974034620007
 31
0.0
  0
LINE
  5
1133E
  8
0
 10
3573.226377759173829
 20
183.3700503992619986
 30
0.0
 11
3573.3838580740739417
 21
183.3700503992619986
 31
0.0
  0
LINE
  5
1133F
  8
0
 10
3573.226377759173829
 20
183.2913102417620053
 30
0.0
 11
3573.3838580740739417
 21
183.2913102417620053
 31
0.0
  0
LINE
  5
11340
  8
0
 10
3573.1870076803738812
 20
183.4054632376619907
 30
0.0
 11
3573.0295273654742232
 21
183.4952263172619951
 31
0.0
  0
LINE
  5
11341
  8
0
 10
3573.0295273654742232
 20
183.4952263172619951
 30
0.0
 11
3573.0295273654742232
 21
183.1661343238619963
 31
0.0
  0
LINE
  5
11342
  8
0
 10
3573.0295273654742232
 20
183.1661343238619963
 30
0.0
 11
3573.1870076803738812
 21
183.2558974034620007
 31
0.0
  0
LINE
  5
11343
  8
0
 10
3573.0295273654742232
 20
183.3700503992619986
 30
0.0
 11
3573.1870076803738812
 21
183.3700503992619986
 31
0.0
  0
LINE
  5
11344
  8
0
 10
3573.0295273654742232
 20
183.2913102417620053
 30
0.0
 11
3573.1870076803738812
 21
183.2913102417620053
 31
0.0
  0
LINE
  5
11345
  8
0
 10
3572.9901572866738206
 20
183.4054632376619907
 30
0.0
 11
3572.8326769717741627
 21
183.4952263172619951
 31
0.0
  0
LINE
  5
11346
  8
0
 10
3572.8326769717741627
 20
183.4952263172619951
 30
0.0
 11
3572.8326769717741627
 21
183.1661343238619963
 31
0.0
  0
LINE
  5
11347
  8
0
 10
3572.8326769717741627
 20
183.1661343238619963
 30
0.0
 11
3572.9901572866738206
 21
183.2558974034620007
 31
0.0
  0
LINE
  5
11348
  8
0
 10
3572.8326769717741627
 20
183.3700503992619986
 30
0.0
 11
3572.9901572866738206
 21
183.3700503992619986
 31
0.0
  0
LINE
  5
11349
  8
0
 10
3572.8326769717741627
 20
183.2913102417620053
 30
0.0
 11
3572.9901572866738206
 21
183.2913102417620053
 31
0.0
  0
LINE
  5
1134A
  8
0
 10
3572.7933068929742149
 20
183.4054632376619907
 30
0.0
 11
3572.6358265780741021
 21
183.4952263172619951
 31
0.0
  0
LINE
  5
1134B
  8
0
 10
3572.6358265780741021
 20
183.4952263172619951
 30
0.0
 11
3572.6358265780741021
 21
183.16613432386211
 31
0.0
  0
LINE
  5
1134C
  8
0
 10
3572.6358265780741021
 20
183.16613432386211
 30
0.0
 11
3572.7933068929742149
 21
183.2558974034620007
 31
0.0
  0
LINE
  5
1134D
  8
0
 10
3572.6358265780741021
 20
183.3700503992619986
 30
0.0
 11
3572.7933068929742149
 21
183.3700503992621123
 31
0.0
  0
LINE
  5
1134E
  8
0
 10
3572.6358265780741021
 20
183.2913102417620053
 30
0.0
 11
3572.7933068929742149
 21
183.2913102417620053
 31
0.0
  0
LINE
  5
1134F
  8
0
 10
3572.5964564992750638
 20
183.4054632376619907
 30
0.0
 11
3572.4192911449740677
 21
183.5064467022334043
 31
0.0
  0
LINE
  5
11350
  8
0
 10
3572.4192911449740677
 20
183.1549139388905871
 30
0.0
 11
3572.5964564992750638
 21
183.2558974034620007
 31
0.0
  0
LINE
  5
11351
  8
0
 10
3572.4192911449740677
 20
183.3700503992619986
 30
0.0
 11
3572.5964564992750638
 21
183.3700503992621123
 31
0.0
  0
LINE
  5
11352
  8
0
 10
3572.4192911449740677
 20
183.2913102417620053
 30
0.0
 11
3572.5964564992750638
 21
183.2913102417620053
 31
0.0
  0
LINE
  5
11353
  8
0
 10
3572.4192911449740677
 20
183.5064467021620089
 30
0.0
 11
3571.9862202788740433
 21
183.5064467021620089
 31
0.0
  0
LINE
  5
11354
  8
0
 10
3571.9862202788740433
 20
183.1549139388619949
 30
0.0
 11
3572.4192911449740677
 21
183.1549139388619949
 31
0.0
  0
LINE
  5
11355
  8
0
 10
3571.9862202788740433
 20
183.3700503992619986
 30
0.0
 11
3572.4192911449740677
 21
183.3700503992619986
 31
0.0
  0
LINE
  5
11356
  8
0
 10
3571.9862202788740433
 20
183.2913102417620053
 30
0.0
 11
3572.4192911449740677
 21
183.2913102417620053
 31
0.0
  0
ARC
  5
11357
  8
0
 10
3575.9035431134739156
 20
179.6877862357586082
 30
0.0
 40
0.0787401574999969
 50
179.9999999999984084
 51
246.4218215217941008
  0
LINE
  5
11358
  8
0
 10
3575.1555116173740316
 20
182.5637108530912087
 30
0.0
 11
3575.0950140338750316
 21
182.5407219505912053
 31
0.0
  0
LINE
  5
11359
  8
0
 10
3575.0950140338750316
 20
182.5407219505912053
 30
0.0
 11
3575.0950140338750316
 21
182.3864383382912138
 31
0.0
  0
LINE
  5
1135A
  8
0
 10
3575.0950140338750316
 20
182.3864383382912138
 30
0.0
 11
3575.1555116173740316
 21
182.3634494357912104
 31
0.0
  0
LINE
  5
1135B
  8
0
 10
3574.9586612236739711
 20
182.5637108530912087
 30
0.0
 11
3574.8981636401740616
 21
182.5407219505912053
 31
0.0
  0
LINE
  5
1135C
  8
0
 10
3574.8981636401740616
 20
182.5407219505912053
 30
0.0
 11
3574.8981636401740616
 21
182.3864383382912138
 31
0.0
  0
LINE
  5
1135D
  8
0
 10
3574.8981636401740616
 20
182.3864383382912138
 30
0.0
 11
3574.9586612236739711
 21
182.3634494357912104
 31
0.0
  0
LINE
  5
1135E
  8
0
 10
3574.7618108299739106
 20
182.5637108530912087
 30
0.0
 11
3574.7013132464749106
 21
182.5407219505912053
 31
0.0
  0
LINE
  5
1135F
  8
0
 10
3574.7013132464749106
 20
182.5407219505912053
 30
0.0
 11
3574.7013132464749106
 21
182.3864383382912138
 31
0.0
  0
LINE
  5
11360
  8
0
 10
3574.7013132464749106
 20
182.3864383382912138
 30
0.0
 11
3574.7618108299739106
 21
182.3634494357912104
 31
0.0
  0
LINE
  5
11361
  8
0
 10
3574.5649604362738501
 20
182.5637108530912087
 30
0.0
 11
3574.5044628527739405
 21
182.5407219505912053
 31
0.0
  0
LINE
  5
11362
  8
0
 10
3574.5044628527739405
 20
182.5407219505912053
 30
0.0
 11
3574.5044628527739405
 21
182.3864383382912138
 31
0.0
  0
LINE
  5
11363
  8
0
 10
3574.5044628527739405
 20
182.3864383382912138
 30
0.0
 11
3574.5649604362738501
 21
182.3634494357912104
 31
0.0
  0
LINE
  5
11364
  8
0
 10
3574.3681100425737895
 20
182.5637108530912087
 30
0.0
 11
3574.30761245907388
 21
182.5407219505912053
 31
0.0
  0
LINE
  5
11365
  8
0
 10
3574.30761245907388
 20
182.5407219505912053
 30
0.0
 11
3574.30761245907388
 21
182.3864383382912138
 31
0.0
  0
LINE
  5
11366
  8
0
 10
3574.30761245907388
 20
182.3864383382912138
 30
0.0
 11
3574.3681100425737895
 21
182.3634494357912104
 31
0.0
  0
LINE
  5
11367
  8
0
 10
3574.1712596488750933
 20
182.5637108530912087
 30
0.0
 11
3574.1107620653738195
 21
182.5407219505912053
 31
0.0
  0
LINE
  5
11368
  8
0
 10
3574.1107620653738195
 20
182.5407219505912053
 30
0.0
 11
3574.1107620653738195
 21
182.3864383382912138
 31
0.0
  0
LINE
  5
11369
  8
0
 10
3574.1107620653738195
 20
182.3864383382912138
 30
0.0
 11
3574.1712596488750933
 21
182.3634494357912104
 31
0.0
  0
LINE
  5
1136A
  8
0
 10
3573.9744092551741232
 20
182.5637108530912087
 30
0.0
 11
3573.9139116716742137
 21
182.5407219505912053
 31
0.0
  0
LINE
  5
1136B
  8
0
 10
3573.9139116716742137
 20
182.5407219505912053
 30
0.0
 11
3573.9139116716742137
 21
182.3864383382912138
 31
0.0
  0
LINE
  5
1136C
  8
0
 10
3573.9139116716742137
 20
182.3864383382912138
 30
0.0
 11
3573.9744092551741232
 21
182.3634494357912104
 31
0.0
  0
LINE
  5
1136D
  8
0
 10
3573.7775588614740627
 20
182.5637108530912087
 30
0.0
 11
3573.7170612779741532
 21
182.5407219505912053
 31
0.0
  0
LINE
  5
1136E
  8
0
 10
3573.7170612779741532
 20
182.5407219505912053
 30
0.0
 11
3573.7170612779741532
 21
182.3864383382912138
 31
0.0
  0
LINE
  5
1136F
  8
0
 10
3573.7170612779741532
 20
182.3864383382912138
 30
0.0
 11
3573.7775588614740627
 21
182.3634494357912104
 31
0.0
  0
LINE
  5
11370
  8
0
 10
3573.5807084677740022
 20
182.5637108530912087
 30
0.0
 11
3573.5202108842740927
 21
182.5407219505912053
 31
0.0
  0
LINE
  5
11371
  8
0
 10
3573.5202108842740927
 20
182.5407219505912053
 30
0.0
 11
3573.5202108842740927
 21
182.3864383382912138
 31
0.0
  0
LINE
  5
11372
  8
0
 10
3573.5202108842740927
 20
182.3864383382912138
 30
0.0
 11
3573.5807084677740022
 21
182.3634494357912104
 31
0.0
  0
LINE
  5
11373
  8
0
 10
3573.3838580740739417
 20
182.5637108530912087
 30
0.0
 11
3573.3233604905740322
 21
182.5407219505912053
 31
0.0
  0
LINE
  5
11374
  8
0
 10
3573.3233604905740322
 20
182.5407219505912053
 30
0.0
 11
3573.3233604905740322
 21
182.3864383382912138
 31
0.0
  0
LINE
  5
11375
  8
0
 10
3573.3233604905740322
 20
182.3864383382912138
 30
0.0
 11
3573.3838580740739417
 21
182.3634494357912104
 31
0.0
  0
LINE
  5
11376
  8
0
 10
3573.1870076803738812
 20
182.5637108530912087
 30
0.0
 11
3573.1265100968739716
 21
182.5407219505912053
 31
0.0
  0
LINE
  5
11377
  8
0
 10
3573.1265100968739716
 20
182.5407219505912053
 30
0.0
 11
3573.1265100968739716
 21
182.3864383382912138
 31
0.0
  0
LINE
  5
11378
  8
0
 10
3573.1265100968739716
 20
182.3864383382912138
 30
0.0
 11
3573.1870076803738812
 21
182.3634494357912104
 31
0.0
  0
LINE
  5
11379
  8
0
 10
3572.9901572866738206
 20
182.5637108530912087
 30
0.0
 11
3572.9296597031739111
 21
182.5407219505912053
 31
0.0
  0
LINE
  5
1137A
  8
0
 10
3572.9296597031739111
 20
182.5407219505912053
 30
0.0
 11
3572.9296597031739111
 21
182.3864383382912138
 31
0.0
  0
LINE
  5
1137B
  8
0
 10
3572.9296597031739111
 20
182.3864383382912138
 30
0.0
 11
3572.9901572866738206
 21
182.3634494357912104
 31
0.0
  0
LINE
  5
1137C
  8
0
 10
3572.7933068929742149
 20
182.5637108530912087
 30
0.0
 11
3572.7328093094738506
 21
182.5407219505912053
 31
0.0
  0
LINE
  5
1137D
  8
0
 10
3572.7328093094738506
 20
182.5407219505912053
 30
0.0
 11
3572.7328093094738506
 21
182.3864383382912138
 31
0.0
  0
LINE
  5
1137E
  8
0
 10
3572.7328093094738506
 20
182.3864383382912138
 30
0.0
 11
3572.7933068929742149
 21
182.3634494357912104
 31
0.0
  0
LINE
  5
1137F
  8
0
 10
3572.5964564992750638
 20
182.5637108530912087
 30
0.0
 11
3572.5359589157737901
 21
182.5407219505912053
 31
0.0
  0
LINE
  5
11380
  8
0
 10
3572.5359589157737901
 20
182.5407219505912053
 30
0.0
 11
3572.5359589157737901
 21
182.3864383382912138
 31
0.0
  0
LINE
  5
11381
  8
0
 10
3572.5359589157737901
 20
182.3864383382912138
 30
0.0
 11
3572.5964564992750638
 21
182.3634494357912104
 31
0.0
  0
CIRCLE
  5
11382
  8
0
 10
3575.4901572866738206
 20
182.5629637850620099
 30
0.0
 40
0.275590551199997
  0
LINE
  5
11383
  8
0
 10
3575.1555116173740316
 20
180.9350110291620979
 30
0.0
 11
3575.8248029559740644
 21
180.9350110291620979
 31
0.0
  0
ARC
  5
11384
  8
0
 10
3577.3546420800507804
 20
181.5929138998652093
 30
0.0
 40
0.1960460848578288
 50
223.0376442425443031
 51
265.2493087767974203
  0
LINE
  5
11385
  8
0
 10
3577.2113509262198932
 20
181.4591166180468065
 30
0.0
 11
3576.8510717082740484
 21
181.8460338785621104
 31
0.0
  0
ARC
  5
11386
  8
0
 10
3576.9902992579091006
 20
181.9721978962546984
 30
0.0
 40
0.1878873863180283
 50
180.0017140463882868
 51
222.1819692200980114
  0
LINE
  5
11387
  8
0
 10
3576.8024118716739395
 20
181.9721922754619925
 30
0.0
 11
3576.8023326012921643
 21
182.8164084172123012
 31
0.0
  0
LINE
  5
11389
  8
0
 10
3575.7066927197738551
 20
187.1619286866620087
 30
0.0
 11
3575.6987270965819334
 21
187.1619286866620087
 31
0.0
  0
ARC
  5
1138A
  8
0
 10
3575.6988623777779139
 20
187.1734374813057116
 30
0.0
 40
0.0115095897038892
 50
230.6791504879685988
 51
269.3265424517671818
  0
ARC
  5
1138B
  8
0
 10
3575.8350557348298935
 20
187.3407883812481032
 30
0.0
 40
0.227275505825544
 50
202.9219721418778022
 51
230.8514545111131042
  0
ARC
  5
1138C
  8
0
 10
3575.6365021997739859
 20
187.2568263406674021
 30
0.0
 40
0.0116992303636617
 50
168.6324636953131915
 51
202.9219721418807865
  0
ARC
  5
1138D
  8
0
 10
3575.8412741809079307
 20
187.3361917527419109
 30
0.0
 40
0.2295618399710006
 50
187.5785337198066998
 51
199.6139342910909988
  0
ARC
  5
1138E
  8
0
 10
3575.6264922263981134
 20
187.3065874434539921
 30
0.0
 40
0.0127923020009826
 50
94.658775498195979
 51
183.0087909320014887
  0
LINE
  5
1138F
  8
0
 10
3575.6254532176740213
 20
187.3588506011620041
 30
0.0
 11
3575.6254532176740213
 21
187.3193374807619875
 31
0.0
  0
ARC
  5
11390
  8
0
 10
3575.7853924325131629
 20
179.9127773544934996
 30
0.0
 40
0.0394105270215726
 50
0.0243554966389995
 51
89.9412006211211548
  0
LINE
  5
11391
  8
0
 10
3575.7854328772750705
 20
179.9521878607619954
 30
0.0
 11
3575.7459820267408759
 21
179.9521878607619954
 31
0.0
  0
ARC
  5
11392
  8
0
 10
3575.7460224126580215
 20
179.9915175363674962
 30
0.0
 40
0.0393296963407648
 50
179.9756299559645925
 51
269.9411655006724118
  0
LINE
  5
11393
  8
0
 10
3575.7066927197738551
 20
180.9350110291620979
 30
0.0
 11
3575.7066927197738551
 21
179.9718728993620118
 31
0.0
  0
LINE
  5
11394
  8
0
 10
3575.7066927197738551
 20
179.9718728993620118
 30
0.0
 11
3575.6987270965819334
 21
179.9718728993620118
 31
0.0
  0
ARC
  5
11395
  8
0
 10
3575.6988623777779139
 20
179.9833816940056863
 30
0.0
 40
0.0115095897038892
 50
230.6791504879685988
 51
269.3265424517671818
  0
ARC
  5
11396
  8
0
 10
3575.8350557348298935
 20
180.1507325939481063
 30
0.0
 40
0.227275505825544
 50
202.9219721418778022
 51
230.8514545111131042
  0
ARC
  5
11397
  8
0
 10
3575.6365021997739859
 20
180.0667705533674052
 30
0.0
 40
0.0116992303636617
 50
168.6324636953131915
 51
202.9219721418807865
  0
ARC
  5
11398
  8
0
 10
3575.8412741809079307
 20
180.1461359654419994
 30
0.0
 40
0.2295618399710006
 50
187.5785337198066998
 51
199.6139342910909988
  0
ARC
  5
11399
  8
0
 10
3575.6264922263981134
 20
180.1165316561539953
 30
0.0
 40
0.0127923020009826
 50
94.658775498195979
 51
183.0087909320014887
  0
LINE
  5
1139A
  8
0
 10
3575.7066927197738551
 20
180.3262036079619861
 30
0.0
 11
3575.6987270965819334
 21
180.3262036079619861
 31
0.0
  0
ARC
  5
1139B
  8
0
 10
3575.6988623777779139
 20
180.3146948133183969
 30
0.0
 40
0.0115095897038892
 50
90.6734575482327756
 51
129.3208495120312875
  0
ARC
  5
1139C
  8
0
 10
3575.8350557348298935
 20
180.1473439133760053
 30
0.0
 40
0.227275505825544
 50
129.148545488885901
 51
157.0780278581221978
  0
ARC
  5
1139D
  8
0
 10
3575.6365021997739859
 20
180.2313059539567064
 30
0.0
 40
0.0116992303636617
 50
157.0780278581192135
 51
191.3675363046851032
  0
ARC
  5
1139E
  8
0
 10
3575.8412741809079307
 20
180.1519405418821123
 30
0.0
 40
0.2295618399710006
 50
160.3860657089090012
 51
172.4214662801933002
  0
ARC
  5
1139F
  8
0
 10
3575.6264922263981134
 20
180.1815448511700879
 30
0.0
 40
0.0127923020009826
 50
176.9912090679983976
 51
265.3412245018039926
  0
LINE
  5
113A0
  8
0
 10
3575.6254532176740213
 20
180.1292816934621044
 30
0.0
 11
3575.6254532176740213
 21
180.1687948138620925
 31
0.0
  0
LINE
  5
113A1
  8
0
 10
3575.8720470504740661
 20
181.1456448875620993
 30
0.0
 11
3579.4940942945740971
 21
181.1456448875620993
 31
0.0
  0
LINE
  5
113A2
  8
0
 10
3575.8720470504740661
 20
156.7361960686619966
 30
0.0
 11
3579.4940942945740971
 21
156.7361960686619966
 31
0.0
  0
LINE
  5
113A3
  8
0
 10
3577.501968310274151
 20
156.7361960686619966
 30
0.0
 11
3577.501968310274151
 21
156.7263535489620097
 31
0.0
  0
ARC
  5
113A4
  8
0
 10
3577.5314958693738845
 20
156.7263535489620097
 30
0.0
 40
0.0295275591000053
 50
180.0000000000098055
 51
270.0
  0
LINE
  5
113A5
  8
0
 10
3577.5314958693738845
 20
156.696825989861992
 30
0.0
 11
3577.834645475673824
 21
156.696825989861992
 31
0.0
  0
ARC
  5
113A6
  8
0
 10
3577.834645475673824
 20
156.7263535489620097
 30
0.0
 40
0.0295275590999946
 50
270.0
 51
0.000000000117248
  0
LINE
  5
113A7
  8
0
 10
3577.8641730347740122
 20
156.7263535489620097
 30
0.0
 11
3577.8641730347740122
 21
156.7361960686619966
 31
0.0
  0
LINE
  5
113A8
  8
0
 10
3578.8090531277739501
 20
156.7361960686619966
 30
0.0
 11
3578.8090531277739501
 21
156.7263535489620097
 31
0.0
  0
ARC
  5
113A9
  8
0
 10
3578.8385806868741383
 20
156.7263535489620097
 30
0.0
 40
0.0295275591000053
 50
180.0000000000098055
 51
270.0
  0
LINE
  5
113AA
  8
0
 10
3578.8385806868741383
 20
156.696825989861992
 30
0.0
 11
3579.1417302931740778
 21
156.696825989861992
 31
0.0
  0
ARC
  5
113AB
  8
0
 10
3579.1417302931740778
 20
156.7263535489620097
 30
0.0
 40
0.0295275590999946
 50
270.0
 51
0.000000000117248
  0
LINE
  5
113AC
  8
0
 10
3579.1712578522738113
 20
156.7263535489620097
 30
0.0
 11
3579.1712578522738113
 21
156.7361960686619966
 31
0.0
  0
LINE
  5
113AD
  8
0
 10
3577.0196848445998512
 20
188.0826527614619863
 30
0.0
 11
3578.2913383901668567
 21
188.0826527614619863
 31
0.0
  0
LINE
  5
113AF
  8
0
 10
3575.8720470504740661
 20
156.7361960686619966
 30
0.0
 11
3575.8720470504740661
 21
181.1456448875620993
 31
0.0
  0
LINE
  5
113B0
  8
0
 10
3579.4940942945740971
 20
181.1456448875620993
 30
0.0
 11
3579.4940942945740971
 21
156.7361960686619966
 31
0.0
  0
ARC
  5
113B1
  8
0
 10
3577.0326544626432224
 20
182.8085588800880998
 30
0.0
 40
0.2304555815100783
 50
95.4561189860522319
 51
178.0480735040559068
  0
LINE
  5
113BA
  8
0
 10
3575.9940942945740971
 20
151.1460837614619948
 30
0.0
 11
3576.584645475673824
 21
151.1460837614619948
 31
0.0
  0
LINE
  5
113BB
  8
0
 10
3575.9940942945740971
 20
156.7361960686619966
 30
0.0
 11
3575.9940942945740971
 21
151.1460837614619948
 31
0.0
  0
LINE
  5
113BC
  8
0
 10
3576.584645475673824
 20
151.1460837614619948
 30
0.0
 11
3576.584645475673824
 21
156.637770871762001
 31
0.0
  0
LINE
  5
113C9
  8
0
 10
3575.9940942945740971
 20
156.0279753304619987
 30
0.0
 11
3576.584645475673824
 21
156.0279753304619987
 31
0.0
  0
LINE
  5
113D1
  8
0
 10
3577.6240155544742265
 20
156.637770871762001
 30
0.0
 11
3576.1476376016739778
 21
156.637770871762001
 31
0.0
  0
LINE
  5
113D2
  8
0
 10
3576.1446908419138708
 20
156.6135573708590982
 30
0.0
 11
3576.4340489284340947
 21
156.6135573708590982
 31
0.0
  0
LINE
  5
113D3
  8
0
 10
3576.1446908419079591
 20
156.1123771708745096
 30
0.0
 11
3576.4340489284400064
 21
156.1123771708745096
 31
0.0
  0
LINE
  5
113D4
  8
0
 10
3576.1476376016739778
 20
156.637770871762001
 30
0.0
 11
3576.1476376016739778
 21
156.7361960686619966
 31
0.0
  0
LINE
  5
113D5
  8
0
 10
3577.6240155544742265
 20
156.637770871762001
 30
0.0
 11
3577.6240155544742265
 21
156.696825989861992
 31
0.0
  0
LINE
  5
113D6
  8
0
 10
3578.2145667355739533
 20
156.7361960686619966
 30
0.0
 11
3578.2145667355739533
 21
156.645644887562014
 31
0.0
  0
LINE
  5
113D7
  8
0
 10
3578.2145667355739533
 20
156.645644887562014
 30
0.0
 11
3577.978346263073945
 21
156.645644887562014
 31
0.0
  0
LINE
  5
113D8
  8
0
 10
3577.978346263073945
 20
156.645644887562014
 30
0.0
 11
3577.978346263073945
 21
156.7361960686619966
 31
0.0
  0
LINE
  5
113D9
  8
0
 10
3576.0000125802162074
 20
156.3629672708619864
 30
0.0
 11
3576.1446908419138708
 21
156.6135573708592119
 31
0.0
  0
CIRCLE
  5
113DA
  8
0
 10
3576.2893698851739828
 20
156.3629672708619864
 30
0.0
 40
0.240748031499578
  0
LINE
  5
113DB
  8
0
 10
3576.0000125802162074
 20
156.3629672708619864
 30
0.0
 11
3576.1446908419138708
 21
156.1123771708649031
 31
0.0
  0
LINE
  5
113DC
  8
0
 10
3576.5787271901331223
 20
156.3629672708619864
 30
0.0
 11
3576.4340489284340947
 21
156.6135573708592119
 31
0.0
  0
LINE
  5
113DD
  8
0
 10
3576.5787271901331223
 20
156.3629672708619864
 30
0.0
 11
3576.4340489284340947
 21
156.1123771708649031
 31
0.0
  0
LINE
  5
113DE
  8
0
 10
3576.0216533496750344
 20
187.8790862163654936
 30
0.0
 11
3576.0216533496750344
 21
181.1456448875620993
 31
0.0
  0
LINE
  5
113DF
  8
0
 10
3578.1673226413468001
 20
187.9566685095620073
 30
0.0
 11
3578.1673226420980427
 21
188.0432826827621113
 31
0.0
  0
ARC
  5
113E0
  8
0
 10
3578.1279525637401093
 20
188.0432826831033992
 30
0.0
 40
0.0393700783585835
 50
359.9999995031324147
 51
90.0000021330010753
  0
LINE
  5
113E1
  8
0
 10
3578.0885824835741005
 20
188.0826527615620023
 30
0.0
 11
3578.0885824835741005
 21
188.6928889820619872
 31
0.0
  0
LINE
  5
113E2
  8
0
 10
3578.1200776653740832
 20
188.6928889820619872
 30
0.0
 11
3578.1200776653740832
 21
188.7322590607620043
 31
0.0
  0
LINE
  5
113E3
  8
0
 10
3578.1279525637401093
 20
188.0826527614621
 30
0.0
 11
3577.1830706711089078
 21
188.0826527614621
 31
0.0
  0
LINE
  5
113E4
  8
0
 10
3578.1200776653740832
 20
188.7322590607620043
 30
0.0
 11
3577.1909455694740245
 21
188.7322590607620043
 31
0.0
  0
LINE
  5
113E5
  8
0
 10
3578.1200776653740832
 20
188.6928889820619872
 30
0.0
 11
3577.1909455694740245
 21
188.6928889820619872
 31
0.0
  0
LINE
  5
113E6
  8
0
 10
3577.143700593774156
 20
187.9251724465619873
 30
0.0
 11
3577.1437005927491555
 21
188.0432826827621113
 31
0.0
  0
ARC
  5
113E7
  8
0
 10
3577.1830706711089078
 20
188.0432826831033992
 30
0.0
 40
0.0393700783585835
 50
89.9999978669989105
 51
180.0000004968659084
  0
LINE
  5
113E8
  8
0
 10
3577.2224407512740072
 20
188.0826527615620023
 30
0.0
 11
3577.2224407512740072
 21
188.6928889820619872
 31
0.0
  0
LINE
  5
113E9
  8
0
 10
3577.1909455694740245
 20
188.6928889820619872
 30
0.0
 11
3577.1909455694740245
 21
188.7322590607620043
 31
0.0
  0
LINE
  5
113EA
  8
0
 10
3578.3307084677749117
 20
187.9566685095620073
 30
0.0
 11
3578.3307084685261543
 21
188.0432826827621113
 31
0.0
  0
ARC
  5
113EB
  8
0
 10
3578.2913383901668567
 20
188.0432826831033992
 30
0.0
 40
0.0393700783585835
 50
359.9999995031324147
 51
90.0000021330010753
  0
LINE
  5
113EC
  8
0
 10
3576.9803147673351305
 20
187.9171111280832065
 30
0.0
 11
3576.9803147662410083
 21
188.0432826827621113
 31
0.0
  0
ARC
  5
113ED
  8
0
 10
3577.0196848445998512
 20
188.0432826831033992
 30
0.0
 40
0.0393700783585835
 50
89.9999978669989105
 51
180.0000004968659084
  0
LINE
  5
113EE
  8
0
 10
3577.7378429458740356
 20
187.956669680062106
 30
0.0
 11
3576.7387839120738136
 21
187.9044982495620957
 31
0.0
  0
ARC
  5
113EF
  8
0
 10
3576.7695190628292039
 20
187.3159341691340956
 30
0.0
 40
0.589366037587789
 50
92.9893028758377511
 51
103.031057847308702
  0
LINE
  5
113F0
  8
0
 10
3576.6366292860848262
 20
187.8901228432638959
 30
0.0
 11
3576.5821443256891143
 21
187.8870755871604956
 31
0.0
  0
ARC
  5
113F1
  8
0
 10
3576.6131878602541292
 20
187.2958766879025916
 30
0.0
 40
0.5920133778235152
 50
93.0058098501682053
 51
177.695330182844998
  0
LINE
  5
113F2
  8
0
 10
3576.250188659064861
 20
187.7635426150966964
 30
0.0
 11
3576.1335800212827962
 21
187.7574134356295019
 31
0.0
  0
ARC
  5
113F3
  8
0
 10
3576.1397805850961049
 20
187.6394466990493015
 30
0.0
 40
0.1181295811004555
 50
93.0088100838793252
 51
179.6389283976251932
  0
ARC
  5
113F4
  8
0
 10
3576.4364756077288803
 20
185.7660648916956916
 30
0.0
 40
0.4160138594395212
 50
103.9398410828488011
 51
175.6623655618307112
  0
ARC
  5
113F5
  8
0
 10
3576.4331823590991917
 20
185.7700310897396037
 30
0.0
 40
0.1950002567692506
 50
97.5257311770792512
 51
180.474268161021314
  0
LINE
  5
113F6
  8
0
 10
3576.2381887827741593
 20
185.7684169855619984
 30
0.0
 11
3576.2381887682499837
 21
184.6679278624621077
 31
0.0
  0
ARC
  5
113F7
  8
0
 10
3579.3188669607679913
 20
180.0843388365481132
 30
0.0
 40
0.227275505825544
 50
320.4429492419047847
 51
337.0780278581221978
  0
ARC
  5
113F8
  8
0
 10
3579.5174204958238988
 20
180.0003767959674121
 30
0.0
 40
0.0116992303636617
 50
337.0780278581191851
 51
11.3675363046867393
  0
ARC
  5
113F9
  8
0
 10
3579.3126485146890445
 20
180.0797422080418926
 30
0.0
 40
0.2295618399710006
 50
340.3860657089089727
 51
352.4214662801916802
  0
ARC
  5
113FA
  8
0
 10
3579.5274304692002261
 20
180.0501378987540022
 30
0.0
 40
0.0127923020009826
 50
356.9912090679985113
 51
85.3412245018040352
  0
ARC
  5
113FB
  8
0
 10
3579.3188669607679913
 20
180.0809501559760122
 30
0.0
 40
0.227275505825544
 50
22.9219721418777596
 51
39.5570507580951514
  0
ARC
  5
113FC
  8
0
 10
3579.5174204958238988
 20
180.1649121965567133
 30
0.0
 40
0.0116992303636617
 50
348.6324636953132767
 51
22.9219721418807616
  0
ARC
  5
113FD
  8
0
 10
3579.3126485146890445
 20
180.0855467844820907
 30
0.0
 40
0.2295618399710006
 50
7.5785337198066847
 51
19.6139342910910308
  0
ARC
  5
113FE
  8
0
 10
3579.5274304692002261
 20
180.1151510937700948
 30
0.0
 40
0.0127923020009826
 50
274.6587754981958938
 51
3.0087909320015611
  0
LINE
  5
113FF
  8
0
 10
3579.5284694779238635
 20
180.0628879360619976
 30
0.0
 11
3579.5284694779238635
 21
180.1024010564620141
 31
0.0
  0
LINE
  5
11400
  8
0
 10
3579.4468502000740955
 20
183.4883158782820942
 30
0.0
 11
3579.4548158232660171
 21
183.4883158782820942
 31
0.0
  0
ARC
  5
11401
  8
0
 10
3579.4546805420700366
 20
183.4998246729257119
 30
0.0
 40
0.0115095897038892
 50
270.6734575482327045
 51
309.3208495120313728
  0
ARC
  5
11402
  8
0
 10
3579.3184871850180571
 20
183.6671755728681035
 30
0.0
 40
0.227275505825544
 50
309.1485454888870095
 51
337.0780278581221978
  0
ARC
  5
11403
  8
0
 10
3579.5170407200739646
 20
183.5832135322874024
 30
0.0
 40
0.0116992303636617
 50
337.0780278581191851
 51
11.3675363046867393
  0
ARC
  5
11404
  8
0
 10
3579.3122687389400198
 20
183.6625789443619965
 30
0.0
 40
0.2295618399710006
 50
340.3860657089089727
 51
352.4214662801916802
  0
ARC
  5
11405
  8
0
 10
3579.5270506934512014
 20
183.6329746350739924
 30
0.0
 40
0.0127923020009826
 50
356.9912090679985113
 51
85.3412245018040352
  0
LINE
  5
11406
  8
0
 10
3579.4468502000740955
 20
183.8426465868820969
 30
0.0
 11
3579.4548158232660171
 21
183.8426465868820969
 31
0.0
  0
ARC
  5
11407
  8
0
 10
3579.4546805420700366
 20
183.831137792238394
 30
0.0
 40
0.0115095897038892
 50
50.679150487968613
 51
89.3265424517672386
  0
ARC
  5
11408
  8
0
 10
3579.3184871850180571
 20
183.6637868922960024
 30
0.0
 40
0.227275505825544
 50
22.9219721418777596
 51
50.8514545111140421
  0
ARC
  5
11409
  8
0
 10
3579.5170407200739646
 20
183.7477489328767035
 30
0.0
 40
0.0116992303636617
 50
348.6324636953132767
 51
22.9219721418807616
  0
ARC
  5
1140A
  8
0
 10
3579.3122687389400198
 20
183.6683835208021094
 30
0.0
 40
0.2295618399710006
 50
7.5785337198066847
 51
19.6139342910910308
  0
ARC
  5
1140B
  8
0
 10
3579.5270506934512014
 20
183.6979878300901134
 30
0.0
 40
0.0127923020009826
 50
274.6587754981958938
 51
3.0087909320015611
  0
LINE
  5
1140C
  8
0
 10
3579.5280897021739293
 20
183.6457246723821015
 30
0.0
 11
3579.5280897021739293
 21
183.6852377927820896
 31
0.0
  0
ARC
  5
1140D
  8
0
 10
3577.0046948647800491
 20
184.6679278523457128
 30
0.0
 40
0.7665060965292342
 50
179.9999992438108052
 51
220.7900158884816051
  0
ARC
  5
1140E
  8
0
 10
3574.7426821972780999
 20
181.0862664997275999
 30
0.0
 40
3.5099968059979552
 50
39.6666454732985088
 51
61.3725323959502873
  0
ARC
  5
1140F
  8
0
 10
3576.6385416237690151
 20
183.0403433667059971
 30
0.0
 40
0.8554130051501736
 50
1.8288844910473541
 51
19.5626042386984089
  0
LINE
  5
11410
  8
0
 10
3579.4940942945740971
 20
157.7361960685620943
 30
0.0
 11
3579.5039368142738567
 21
157.7361960685620943
 31
0.0
  0
ARC
  5
11411
  8
0
 10
3579.5039368142738567
 20
157.7657236276619983
 30
0.0
 40
0.0295275591000053
 50
270.0
 51
359.9999999999885745
  0
LINE
  5
11412
  8
0
 10
3579.533464373374045
 20
157.7657236276619983
 30
0.0
 11
3579.533464373374045
 21
158.0688732339621083
 31
0.0
  0
ARC
  5
11413
  8
0
 10
3579.503936814275221
 20
158.0688732339621083
 30
0.0
 40
0.0295275590999946
 50
359.9999999999885745
 51
90.0000000001042082
  0
LINE
  5
11414
  8
0
 10
3579.5039368142738567
 20
158.0984007930620123
 30
0.0
 11
3579.4940942945740971
 21
158.0984007930620123
 31
0.0
  0
LINE
  5
11415
  8
0
 10
3579.4940942945740971
 20
156.9487944937619943
 30
0.0
 11
3579.5039368142738567
 21
156.9487944937619943
 31
0.0
  0
ARC
  5
11416
  8
0
 10
3579.5039368142738567
 20
156.978322052862012
 30
0.0
 40
0.0295275591000053
 50
270.0
 51
359.9999999999885745
  0
LINE
  5
11417
  8
0
 10
3579.533464373374045
 20
156.978322052862012
 30
0.0
 11
3579.533464373374045
 21
157.2814716591620083
 31
0.0
  0
ARC
  5
11418
  8
0
 10
3579.503936814275221
 20
157.2814716591620083
 30
0.0
 40
0.0295275590999946
 50
359.9999999999885745
 51
90.0000000001042082
  0
LINE
  5
11419
  8
0
 10
3579.5039368142738567
 20
157.3109992182619976
 30
0.0
 11
3579.4940942945740971
 21
157.3109992182619976
 31
0.0
  0
LINE
  5
1141A
  8
0
 10
3575.8720470504740661
 20
157.7361960685620943
 30
0.0
 11
3575.8622045307738517
 21
157.7361960685620943
 31
0.0
  0
ARC
  5
1141B
  8
0
 10
3575.8622045307738517
 20
157.7657236276619983
 30
0.0
 40
0.0295275591000053
 50
180.0000000000098055
 51
270.0
  0
LINE
  5
1141C
  8
0
 10
3575.8326769716741182
 20
157.7657236276619983
 30
0.0
 11
3575.8326769716741182
 21
158.0688732339621083
 31
0.0
  0
ARC
  5
1141D
  8
0
 10
3575.8622045307738517
 20
158.0688732339621083
 30
0.0
 40
0.0295275590999946
 50
89.9999999998697291
 51
180.0000000000098055
  0
LINE
  5
1141E
  8
0
 10
3575.8622045307738517
 20
158.0984007930620123
 30
0.0
 11
3575.8720470504740661
 21
158.0984007930620123
 31
0.0
  0
LINE
  5
1141F
  8
0
 10
3575.8720470504740661
 20
156.9487944937619943
 30
0.0
 11
3575.8622045307738517
 21
156.9487944937619943
 31
0.0
  0
ARC
  5
11420
  8
0
 10
3575.8622045307738517
 20
156.978322052862012
 30
0.0
 40
0.0295275591000053
 50
180.0000000000098055
 51
270.0
  0
LINE
  5
11421
  8
0
 10
3575.8326769716741182
 20
156.978322052862012
 30
0.0
 11
3575.8326769716741182
 21
157.2814716591620083
 31
0.0
  0
ARC
  5
11422
  8
0
 10
3575.8622045307738517
 20
157.2814716591620083
 30
0.0
 40
0.0295275590999946
 50
89.9999999998697291
 51
180.0000000000098055
  0
LINE
  5
11423
  8
0
 10
3575.8622045307738517
 20
157.3109992182619976
 30
0.0
 11
3575.8720470504740661
 21
157.3109992182619976
 31
0.0
  0
LINE
  5
11424
  8
0
 10
3575.8326769716741182
 20
157.2381592747130981
 30
0.0
 11
3575.8129919323741888
 21
157.238186088262097
 31
0.0
  0
LINE
  5
11425
  8
0
 10
3575.8129919323741888
 20
157.238186088262097
 30
0.0
 11
3575.8129919323741888
 21
157.8090091986620109
 31
0.0
  0
LINE
  5
11426
  8
0
 10
3575.8129919323741888
 20
157.8090091986620109
 30
0.0
 11
3575.8326769716741182
 21
157.8090356509082142
 31
0.0
  0
ARC
  5
11427
  8
0
 10
3578.3523620111750461
 20
177.9566685095620073
 30
0.0
 40
0.1181102362000033
 50
0.0000000000016284
 51
90.0000000036998244
  0
LINE
  5
11428
  8
0
 10
3578.4704722473738912
 20
177.9566685095620073
 30
0.0
 11
3578.4704722473738912
 21
174.2558811079620114
 31
0.0
  0
LINE
  5
11429
  8
0
 10
3578.4704722473738912
 20
174.2558811079620114
 30
0.0
 11
3578.58858248357501
 21
174.2558811079620114
 31
0.0
  0
LINE
  5
1142A
  8
0
 10
3578.58858248357501
 20
174.2558811079620114
 30
0.0
 11
3578.58858248357501
 21
177.9566685095620073
 31
0.0
  0
ARC
  5
1142B
  8
0
 10
3578.3523620111750461
 20
177.9566685095620073
 30
0.0
 40
0.2362204723999923
 50
0.0000000000016284
 51
90.0
  0
LINE
  5
1142C
  8
0
 10
3578.3523620111750461
 20
178.1928889819619997
 30
0.0
 11
3577.01377933397589
 21
178.1928889819619997
 31
0.0
  0
ARC
  5
1142D
  8
0
 10
3577.01377933397589
 20
177.956668509560302
 30
0.0
 40
0.236220472401655
 50
90.0
 51
179.9999999995895905
  0
LINE
  5
1142E
  8
0
 10
3576.7775588615741071
 20
177.9566685095620073
 30
0.0
 11
3576.7775588615468223
 21
174.2558811079620114
 31
0.0
  0
LINE
  5
1142F
  8
0
 10
3576.7775588615468223
 20
174.2558811079620114
 30
0.0
 11
3576.8956690977738617
 21
174.2558811079620114
 31
0.0
  0
LINE
  5
11430
  8
0
 10
3576.8956690977738617
 20
174.2558811079620114
 30
0.0
 11
3576.8956690977738617
 21
177.9566685095620073
 31
0.0
  0
ARC
  5
11431
  8
0
 10
3577.0137793339740711
 20
177.9566685095620073
 30
0.0
 40
0.1181102361999962
 50
89.9999999963001756
 51
179.9999999999984084
  0
LINE
  5
11432
  8
0
 10
3577.0137793339818018
 20
178.0747787457619893
 30
0.0
 11
3578.3523620111668606
 21
178.0747787456755873
 31
0.0
  0
LINE
  5
11433
  8
0
 10
3577.3877950819751277
 20
174.2558811079620114
 30
0.0
 11
3577.3877950819751277
 21
174.3739913442620093
 31
0.0
  0
LINE
  5
11434
  8
0
 10
3577.3877950819751277
 20
174.3739913442620093
 30
0.0
 11
3577.978346263073945
 21
174.3739913442620093
 31
0.0
  0
LINE
  5
11435
  8
0
 10
3577.978346263073945
 20
174.3739913442620093
 30
0.0
 11
3577.978346263073945
 21
174.2558811079620114
 31
0.0
  0
LINE
  5
11436
  8
0
 10
3577.978346263073945
 20
174.2558811079620114
 30
0.0
 11
3577.3877950819751277
 21
174.2558811079620114
 31
0.0
  0
LINE
  5
11437
  8
0
 10
3577.2893698851739828
 20
177.1692669347619926
 30
0.0
 11
3577.2893698851739828
 21
177.287377170962003
 31
0.0
  0
LINE
  5
11438
  8
0
 10
3577.2893698851739828
 20
177.287377170962003
 30
0.0
 11
3578.0767714599742249
 21
177.287377170962003
 31
0.0
  0
LINE
  5
11439
  8
0
 10
3578.0767714599742249
 20
177.287377170962003
 30
0.0
 11
3578.0767714599742249
 21
177.1692669347619926
 31
0.0
  0
LINE
  5
1143A
  8
0
 10
3578.0767714599742249
 20
177.1692669347619926
 30
0.0
 11
3577.2893698851739828
 21
177.1692669347619926
 31
0.0
  0
ARC
  5
1143B
  8
0
 10
3577.6830706725741038
 20
176.1062748087620093
 30
0.0
 40
0.3937007873999931
 50
0.0000000017000955
 51
180.0000000010992096
  0
LINE
  5
1143C
  8
0
 10
3578.0767714599742249
 20
176.1062748087736907
 30
0.0
 11
3578.076771459990141
 21
175.5550937064502932
 31
0.0
  0
ARC
  5
1143D
  8
0
 10
3577.6830706725831988
 20
175.5550937064386972
 30
0.0
 40
0.3937007874081786
 50
179.9999999948981042
 51
0.0000000017000955
  0
LINE
  5
1143E
  8
0
 10
3577.2893698851739828
 20
175.5550937064737127
 30
0.0
 11
3577.2893698852230955
 21
176.106274808754506
 31
0.0
  0
ARC
  5
1143F
  8
0
 10
3578.3523620111750461
 20
164.3739913442620093
 30
0.0
 40
0.1181102362000033
 50
0.0000000000016284
 51
90.0000000036998244
  0
LINE
  5
11440
  8
0
 10
3578.4704722473738912
 20
164.3739913442620093
 30
0.0
 11
3578.4704722473738912
 21
160.6732039426620133
 31
0.0
  0
LINE
  5
11441
  8
0
 10
3578.4704722473738912
 20
160.6732039426620133
 30
0.0
 11
3578.58858248357501
 21
160.6732039426620133
 31
0.0
  0
LINE
  5
11442
  8
0
 10
3578.58858248357501
 20
160.6732039426620133
 30
0.0
 11
3578.58858248357501
 21
164.3739913442620093
 31
0.0
  0
ARC
  5
11443
  8
0
 10
3578.3523620111750461
 20
164.3739913442620093
 30
0.0
 40
0.2362204723999923
 50
0.0000000000016284
 51
90.0
  0
LINE
  5
11444
  8
0
 10
3578.3523620111750461
 20
164.6102118166620016
 30
0.0
 11
3577.01377933397589
 21
164.6102118166620016
 31
0.0
  0
ARC
  5
11445
  8
0
 10
3577.01377933397589
 20
164.373991344260304
 30
0.0
 40
0.236220472401655
 50
90.0
 51
179.9999999995879989
  0
LINE
  5
11446
  8
0
 10
3576.7775588615741071
 20
164.3739913442620093
 30
0.0
 11
3576.7775588615468223
 21
160.6732039426620133
 31
0.0
  0
LINE
  5
11447
  8
0
 10
3576.7775588615468223
 20
160.6732039426620133
 30
0.0
 11
3576.8956690977738617
 21
160.6732039426620133
 31
0.0
  0
LINE
  5
11448
  8
0
 10
3576.8956690977738617
 20
160.6732039426620133
 30
0.0
 11
3576.8956690977738617
 21
164.3739913442620093
 31
0.0
  0
ARC
  5
11449
  8
0
 10
3577.0137793339740711
 20
164.3739913442620093
 30
0.0
 40
0.1181102361999962
 50
89.9999999963001756
 51
179.9999999999984084
  0
LINE
  5
1144A
  8
0
 10
3577.0137793339818018
 20
164.4921015804619913
 30
0.0
 11
3578.3523620111668606
 21
164.492101580375504
 31
0.0
  0
LINE
  5
1144B
  8
0
 10
3577.3877950819751277
 20
160.6732039426620133
 30
0.0
 11
3577.3877950819751277
 21
160.7913141789620113
 31
0.0
  0
LINE
  5
1144C
  8
0
 10
3577.3877950819751277
 20
160.7913141789620113
 30
0.0
 11
3577.978346263073945
 21
160.7913141789620113
 31
0.0
  0
LINE
  5
1144D
  8
0
 10
3577.978346263073945
 20
160.7913141789620113
 30
0.0
 11
3577.978346263073945
 21
160.6732039426620133
 31
0.0
  0
LINE
  5
1144E
  8
0
 10
3577.978346263073945
 20
160.6732039426620133
 30
0.0
 11
3577.3877950819751277
 21
160.6732039426620133
 31
0.0
  0
LINE
  5
1144F
  8
0
 10
3577.2893698851739828
 20
163.5865897694619946
 30
0.0
 11
3577.2893698851739828
 21
163.704700005662005
 31
0.0
  0
LINE
  5
11450
  8
0
 10
3577.2893698851739828
 20
163.704700005662005
 30
0.0
 11
3578.0767714599742249
 21
163.704700005662005
 31
0.0
  0
LINE
  5
11451
  8
0
 10
3578.0767714599742249
 20
163.704700005662005
 30
0.0
 11
3578.0767714599742249
 21
163.5865897694619946
 31
0.0
  0
LINE
  5
11452
  8
0
 10
3578.0767714599742249
 20
163.5865897694619946
 30
0.0
 11
3577.2893698851739828
 21
163.5865897694619946
 31
0.0
  0
ARC
  5
11453
  8
0
 10
3577.6830706725741038
 20
162.5235976434620113
 30
0.0
 40
0.3937007873999931
 50
0.0000000017000955
 51
180.0000000010992096
  0
LINE
  5
11454
  8
0
 10
3578.0767714599742249
 20
162.5235976434736926
 30
0.0
 11
3578.076771459990141
 21
161.9724165411502952
 31
0.0
  0
ARC
  5
11455
  8
0
 10
3577.6830706725831988
 20
161.9724165411386991
 30
0.0
 40
0.3937007874081786
 50
179.9999999948981042
 51
0.0000000017000955
  0
LINE
  5
11456
  8
0
 10
3577.2893698851739828
 20
161.9724165411736863
 30
0.0
 11
3577.2893698852230955
 21
162.523597643454508
 31
0.0
  0
LINE
  5
11457
  8
0
 10
3578.5727690114331381
 20
164.4589670220618984
 30
0.0
 11
3578.4343934812191037
 21
164.4589670220618984
 31
0.0
  0
LINE
  5
11458
  8
0
 10
3576.9317478639291039
 20
164.4589670220618984
 30
0.0
 11
3576.7933723337150695
 21
164.4589670220618984
 31
0.0
  0
LINE
  5
11459
  8
0
 10
3578.5768061334529193
 20
164.4476455875571901
 30
0.0
 11
3578.4446933728017939
 21
164.4476455875571901
 31
0.0
  0
LINE
  5
1145A
  8
0
 10
3576.921447972347778
 20
164.4476455875571901
 30
0.0
 11
3576.7893352116961978
 21
164.4476455875571901
 31
0.0
  0
LINE
  5
1145B
  8
0
 10
3578.58858248357501
 20
164.2621166283618948
 30
0.0
 11
3578.4704722473738912
 21
164.2621166283618948
 31
0.0
  0
LINE
  5
1145C
  8
0
 10
3576.8956690977738617
 20
164.2621166283618948
 30
0.0
 11
3576.7775588615741071
 21
164.2621166283618948
 31
0.0
  0
LINE
  5
1145D
  8
0
 10
3578.58858248357501
 20
164.2507951938571864
 30
0.0
 11
3578.4704722473738912
 21
164.2507951938571864
 31
0.0
  0
LINE
  5
1145E
  8
0
 10
3576.8956690977738617
 20
164.2507951938571864
 30
0.0
 11
3576.7775588615741071
 21
164.2507951938571864
 31
0.0
  0
LINE
  5
1145F
  8
0
 10
3578.58858248357501
 20
162.4904630851245031
 30
0.0
 11
3578.4704722473738912
 21
162.4904630851245031
 31
0.0
  0
LINE
  5
11460
  8
0
 10
3578.0767714599760438
 20
162.4904630851245031
 30
0.0
 11
3577.2893698852208217
 21
162.4904630851245031
 31
0.0
  0
LINE
  5
11461
  8
0
 10
3576.8956690977738617
 20
162.4904630851245031
 30
0.0
 11
3576.7775588615609195
 21
162.4904630851245031
 31
0.0
  0
LINE
  5
11462
  8
0
 10
3578.58858248357501
 20
162.4791416506197947
 30
0.0
 11
3578.4704722473738912
 21
162.4791416506197947
 31
0.0
  0
LINE
  5
11463
  8
0
 10
3578.0767714599760438
 20
162.4791416506197947
 30
0.0
 11
3577.2893698852199122
 21
162.4791416506197947
 31
0.0
  0
LINE
  5
11464
  8
0
 10
3576.8956690977738617
 20
162.4791416506197947
 30
0.0
 11
3576.7775588615609195
 21
162.4791416506197947
 31
0.0
  0
LINE
  5
11465
  8
0
 10
3578.58858248357501
 20
164.0652662364153116
 30
0.0
 11
3578.4704722473738912
 21
164.0652662364153116
 31
0.0
  0
LINE
  5
11466
  8
0
 10
3576.8956690977738617
 20
164.0652662364153116
 30
0.0
 11
3576.7775588615718334
 21
164.0652662364153116
 31
0.0
  0
LINE
  5
11467
  8
0
 10
3578.58858248357501
 20
164.0539448019106032
 30
0.0
 11
3578.4704722473738912
 21
164.0539448019106032
 31
0.0
  0
LINE
  5
11468
  8
0
 10
3576.8956690977738617
 20
164.0539448019106032
 30
0.0
 11
3576.7775588615718334
 21
164.0539448019106032
 31
0.0
  0
LINE
  5
11469
  8
0
 10
3578.58858248357501
 20
163.8684158444688137
 30
0.0
 11
3578.4704722473738912
 21
163.8684158444688137
 31
0.0
  0
LINE
  5
1146A
  8
0
 10
3576.8956690977738617
 20
163.8684158444688137
 30
0.0
 11
3576.7775588615709239
 21
163.8684158444688137
 31
0.0
  0
LINE
  5
1146B
  8
0
 10
3578.58858248357501
 20
163.8570944099641054
 30
0.0
 11
3578.4704722473738912
 21
163.8570944099641054
 31
0.0
  0
LINE
  5
1146C
  8
0
 10
3576.8956690977738617
 20
163.8570944099641054
 30
0.0
 11
3576.7775588615709239
 21
163.8570944099641054
 31
0.0
  0
LINE
  5
1146D
  8
0
 10
3578.58858248357501
 20
163.6715654525222021
 30
0.0
 11
3578.4704722473738912
 21
163.6715654525222021
 31
0.0
  0
LINE
  5
1146E
  8
0
 10
3578.0767714599742249
 20
163.6715654525222021
 30
0.0
 11
3577.2893698851739828
 21
163.6715654525222021
 31
0.0
  0
LINE
  5
1146F
  8
0
 10
3576.8956690977738617
 20
163.6715654525222021
 30
0.0
 11
3576.7775588615691049
 21
163.6715654525222021
 31
0.0
  0
LINE
  5
11470
  8
0
 10
3578.58858248357501
 20
163.6602440180174938
 30
0.0
 11
3578.4704722473738912
 21
163.6602440180174938
 31
0.0
  0
LINE
  5
11471
  8
0
 10
3578.0767714599742249
 20
163.6602440180174938
 30
0.0
 11
3577.2893698851739828
 21
163.6602440180174938
 31
0.0
  0
LINE
  5
11472
  8
0
 10
3576.8956690977738617
 20
163.6602440180174938
 30
0.0
 11
3576.7775588615691049
 21
163.6602440180174938
 31
0.0
  0
LINE
  5
11473
  8
0
 10
3578.58858248357501
 20
163.4747150605755905
 30
0.0
 11
3578.4704722473738912
 21
163.4747150605755905
 31
0.0
  0
LINE
  5
11474
  8
0
 10
3576.8956690977738617
 20
163.4747150605755905
 30
0.0
 11
3576.7775588615681954
 21
163.4747150605755905
 31
0.0
  0
LINE
  5
11475
  8
0
 10
3578.58858248357501
 20
163.4633936260709106
 30
0.0
 11
3578.4704722473738912
 21
163.4633936260709106
 31
0.0
  0
LINE
  5
11476
  8
0
 10
3576.8956690977738617
 20
163.4633936260709106
 30
0.0
 11
3576.7775588615668312
 21
163.4633936260709106
 31
0.0
  0
LINE
  5
11477
  8
0
 10
3578.58858248357501
 20
163.2778646686290926
 30
0.0
 11
3578.4704722473738912
 21
163.2778646686290926
 31
0.0
  0
LINE
  5
11478
  8
0
 10
3576.8956690977738617
 20
163.2778646686290926
 30
0.0
 11
3576.7775588615668312
 21
163.2778646686290926
 31
0.0
  0
LINE
  5
11479
  8
0
 10
3578.58858248357501
 20
163.2665432341244127
 30
0.0
 11
3578.4704722473738912
 21
163.2665432341244127
 31
0.0
  0
LINE
  5
1147A
  8
0
 10
3576.8956690977738617
 20
163.2665432341244127
 30
0.0
 11
3576.7775588615668312
 21
163.2665432341244127
 31
0.0
  0
LINE
  5
1147B
  8
0
 10
3578.58858248357501
 20
163.0810142766825095
 30
0.0
 11
3578.4704722473738912
 21
163.0810142766825095
 31
0.0
  0
LINE
  5
1147C
  8
0
 10
3576.8956690977738617
 20
163.0810142766825095
 30
0.0
 11
3576.7775588615650122
 21
163.0810142766825095
 31
0.0
  0
LINE
  5
1147D
  8
0
 10
3578.58858248357501
 20
163.0696928421778011
 30
0.0
 11
3578.4704722473738912
 21
163.0696928421778011
 31
0.0
  0
LINE
  5
1147E
  8
0
 10
3576.8956690977738617
 20
163.0696928421778011
 30
0.0
 11
3576.7775588615650122
 21
163.0696928421778011
 31
0.0
  0
LINE
  5
1147F
  8
0
 10
3578.58858248357501
 20
162.8841638847360116
 30
0.0
 11
3578.4704722473738912
 21
162.8841638847360116
 31
0.0
  0
LINE
  5
11480
  8
0
 10
3577.8411601904199415
 20
162.8841638847360116
 30
0.0
 11
3577.5249811547278114
 21
162.8841638847360116
 31
0.0
  0
LINE
  5
11481
  8
0
 10
3576.8956690977738617
 20
162.8841638847360116
 30
0.0
 11
3576.7775588615641027
 21
162.8841638847360116
 31
0.0
  0
LINE
  5
11482
  8
0
 10
3578.58858248357501
 20
162.8728424502313032
 30
0.0
 11
3578.4704722473738912
 21
162.8728424502313032
 31
0.0
  0
LINE
  5
11483
  8
0
 10
3577.864807776501948
 20
162.8728424502313032
 30
0.0
 11
3577.5013335686471692
 21
162.8728424502313032
 31
0.0
  0
LINE
  5
11484
  8
0
 10
3576.8956690977738617
 20
162.8728424502313032
 30
0.0
 11
3576.7775588615641027
 21
162.8728424502313032
 31
0.0
  0
LINE
  5
11485
  8
0
 10
3578.58858248357501
 20
162.6873134927894
 30
0.0
 11
3578.4704722473738912
 21
162.6873134927894
 31
0.0
  0
LINE
  5
11486
  8
0
 10
3578.0411173604220494
 20
162.6873134927894
 30
0.0
 11
3577.3250239847270677
 21
162.6873134927894
 31
0.0
  0
LINE
  5
11487
  8
0
 10
3576.8956690977738617
 20
162.6873134927894
 30
0.0
 11
3576.777558861561829
 21
162.6873134927894
 31
0.0
  0
LINE
  5
11488
  8
0
 10
3578.58858248357501
 20
162.6759920582846917
 30
0.0
 11
3578.4704722473738912
 21
162.6759920582846917
 31
0.0
  0
LINE
  5
11489
  8
0
 10
3578.0460806618721108
 20
162.6759920582846917
 30
0.0
 11
3577.3200606832760968
 21
162.6759920582846917
 31
0.0
  0
LINE
  5
1148A
  8
0
 10
3576.8956690977738617
 20
162.6759920582846917
 30
0.0
 11
3576.777558861561829
 21
162.6759920582846917
 31
0.0
  0
ENDSEC
  0
EOF
