  0
SECTION
  2
HEADER
  9
$ACADVER
  1
AC1009
  9
$INSBASE
 10
3581.7536633436598095
 20
156.5877183379643043
 30
0.0
  9
$EXTMIN
 10
3571.6453956271598145
 20
150.9976060307643024
 30
0.0
  9
$EXTMAX
 10
3591.8619310601598045
 20
188.583781330064312
 30
0.0
  9
$LIMMIN
 10
0.0
 20
0.0
  9
$LIMMAX
 10
11.6929133858000007
 20
8.2677165353999982
  9
$ORTHOMODE
 70
     0
  9
$REGENMODE
 70
     1
  9
$FILLMODE
 70
     1
  9
$QTEXTMODE
 70
     0
  9
$MIRRTEXT
 70
     0
  9
$DRAGMODE
 70
     2
  9
$LTSCALE
 40
0.6431102362
  9
$OSMODE
 70
  3839
  9
$ATTMODE
 70
     1
  9
$TEXTSIZE
 40
0.2
  9
$TRACEWID
 40
0.05
  9
$TEXTSTYLE
  7
STANDARD
  9
$CLAYER
  8
0
  9
$CELTYPE
  6
BYLAYER
  9
$CECOLOR
 62
   256
  9
$DIMSCALE
 40
1.0
  9
$DIMASZ
 40
0.1875
  9
$DIMEXO
 40
0.0625
  9
$DIMDLI
 40
0.4443307087
  9
$DIMRND
 40
0.0
  9
$DIMDLE
 40
0.0
  9
$DIMEXE
 40
0.125
  9
$DIMTP
 40
0.01
  9
$DIMTM
 40
0.01
  9
$DIMTXT
 40
2.0
  9
$DIMCEN
 40
0.1052362205
  9
$DIMTSZ
 40
0.0
  9
$DIMTOL
 70
     1
  9
$DIMLIM
 70
     0
  9
$DIMTIH
 70
     1
  9
$DIMTOH
 70
     1
  9
$DIMSE1
 70
     0
  9
$DIMSE2
 70
     0
  9
$DIMTAD
 70
     0
  9
$DIMZIN
 70
     0
  9
$DIMBLK
  1

  9
$DIMASO
 70
     1
  9
$DIMSHO
 70
     1
  9
$DIMPOST
  1
\X
  9
$DIMAPOST
  1

  9
$DIMALT
 70
     1
  9
$DIMALTD
 70
     2
  9
$DIMALTF
 40
25.3999999999999986
  9
$DIMLFAC
 40
1.0
  9
$DIMTOFL
 70
     0
  9
$DIMTVP
 40
0.0
  9
$DIMTIX
 70
     0
  9
$DIMSOXD
 70
     0
  9
$DIMSAH
 70
     0
  9
$DIMBLK1
  1

  9
$DIMBLK2
  1

  9
$DIMSTYLE
  2
STANDARD
  9
$DIMCLRD
 70
     0
  9
$DIMCLRE
 70
     0
  9
$DIMCLRT
 70
     0
  9
$DIMTFAC
 40
1.0
  9
$DIMGAP
 40
0.09
  9
$LUNITS
 70
     2
  9
$LUPREC
 70
     4
  9
$SKETCHINC
 40
0.1
  9
$FILLETRAD
 40
0.0
  9
$AUNITS
 70
     0
  9
$AUPREC
 70
     0
  9
$MENU
  1
.
  9
$ELEVATION
 40
0.0
  9
$PELEVATION
 40
0.0
  9
$THICKNESS
 40
0.0
  9
$LIMCHECK
 70
     0
  9
$BLIPMODE
 70
     0
  9
$CHAMFERA
 40
0.0
  9
$CHAMFERB
 40
0.0
  9
$SKPOLY
 70
     0
  9
$TDCREATE
 40
2458060.468368056230247
  9
$TDUPDATE
 40
2459083.7877546302042902
  9
$TDINDWG
 40
0.7787454861000001
  9
$TDUSRTIMER
 40
0.7787454861000001
  9
$USRTIMER
 70
     1
  9
$ANGBASE
 50
0.0
  9
$ANGDIR
 70
     0
  9
$PDMODE
 70
     0
  9
$PDSIZE
 40
0.3125
  9
$PLINEWID
 40
0.0
  9
$COORDS
 70
     1
  9
$SPLFRAME
 70
     0
  9
$SPLINETYPE
 70
     6
  9
$SPLINESEGS
 70
     8
  9
$ATTDIA
 70
     1
  9
$ATTREQ
 70
     1
  9
$HANDLING
 70
     1
  9
$HANDSEED
  5
11283
  9
$SURFTAB1
 70
     6
  9
$SURFTAB2
 70
     6
  9
$SURFTYPE
 70
     6
  9
$SURFU
 70
     6
  9
$SURFV
 70
     6
  9
$UCSNAME
  2

  9
$UCSORG
 10
0.0
 20
0.0
 30
0.0
  9
$UCSXDIR
 10
1.0
 20
0.0
 30
0.0
  9
$UCSYDIR
 10
0.0
 20
1.0
 30
0.0
  9
$PUCSNAME
  2

  9
$PUCSORG
 10
0.0
 20
0.0
 30
0.0
  9
$PUCSXDIR
 10
1.0
 20
0.0
 30
0.0
  9
$PUCSYDIR
 10
0.0
 20
1.0
 30
0.0
  9
$USERI1
 70
     0
  9
$USERI2
 70
     0
  9
$USERI3
 70
     0
  9
$USERI4
 70
     0
  9
$USERI5
 70
     0
  9
$USERR1
 40
0.0
  9
$USERR2
 40
0.0
  9
$USERR3
 40
0.0
  9
$USERR4
 40
0.0
  9
$USERR5
 40
0.0
  9
$WORLDVIEW
 70
     1
  9
$SHADEDGE
 70
     3
  9
$SHADEDIF
 70
    70
  9
$TILEMODE
 70
     1
  9
$MAXACTVP
 70
    64
  9
$PLIMCHECK
 70
     0
  9
$PEXTMIN
 10
1.0000000000000000E+20
 20
1.0000000000000000E+20
 30
1.0000000000000000E+20
  9
$PEXTMAX
 10
-1.0000000000000000E+20
 20
-1.0000000000000000E+20
 30
-1.0000000000000000E+20
  9
$PLIMMIN
 10
0.0
 20
0.0
  9
$PLIMMAX
 10
12.0
 20
9.0
  9
$UNITMODE
 70
     0
  9
$VISRETAIN
 70
     1
  9
$PLINEGEN
 70
     0
  9
$PSLTSCALE
 70
     1
  0
ENDSEC
  0
SECTION
  2
TABLES
  0
TABLE
  2
VPORT
 70
     1
  0
VPORT
  2
*ACTIVE
 70
     0
 10
0.0
 20
0.0
 11
1.0
 21
1.0
 12
0.0
 22
0.0
 13
0.0
 23
0.0
 14
1.0
 24
1.0
 15
0.0
 25
0.0
 16
0.0
 26
0.0
 36
177.1775448549724956
 17
3581.753662109375
 27
169.7910537719725994
 37
0.0
 40
42.6774679796034775
 41
3.314341846758349
 42
50.0
 43
0.0
 44
0.0
 50
0.0
 51
0.0
 71
     0
 72
   100
 73
     1
 74
     1
 75
     0
 76
     0
 77
     0
 78
     0
  0
ENDTAB
  0
TABLE
  2
LTYPE
 70
     2
  0
LTYPE
  2
CONTINUOUS
 70
     0
  3
Solid line
 72
    65
 73
     0
 40
0.0
  0
LTYPE
  2
PHANTOM2
 70
     0
  3
___ _ _ ___ _ _ ___ _ _ ___ _ _
 72
    65
 73
     6
 40
1.25
 49
0.625
 49
-0.125
 49
0.125
 49
-0.125
 49
0.125
 49
-0.125
  0
ENDTAB
  0
TABLE
  2
LAYER
 70
     2
  0
LAYER
  2
0
 70
     0
 62
   255
  6
CONTINUOUS
  0
LAYER
  2
DEFPOINTS
 70
     0
 62
     7
  6
CONTINUOUS
  0
ENDTAB
  0
TABLE
  2
STYLE
 70
     1
  0
STYLE
  2
STANDARD
 70
     0
 40
0.0
 41
0.8
 50
0.0
 71
     0
 42
0.2
  3
txt
  4

  0
ENDTAB
  0
TABLE
  2
VIEW
 70
     0
  0
ENDTAB
  0
TABLE
  2
UCS
 70
     0
  0
ENDTAB
  0
TABLE
  2
APPID
 70
    10
  0
APPID
  2
ACAD
 70
     0
  0
APPID
  2
ACAD_MLEADERVER
 70
     0
  0
APPID
  2
ACAD_EXEMPT_FROM_CAD_STANDARDS
 70
     0
  0
APPID
  2
ACAD_NAV_VCDISPLAY
 70
     0
  0
APPID
  2
ACAECLAYERSTANDARD
 70
     0
  0
APPID
  2
ACCMTRANSPARENCY
 70
     0
  0
APPID
  2
ACAD_DSTYLE_DIMJAG
 70
     0
  0
APPID
  2
ACAD_DSTYLE_DIMTALN
 70
     0
  0
APPID
  2
ACDBATTR
 70
     0
  0
APPID
  2
ACAD_PSEXT
 70
     0
  0
ENDTAB
  0
TABLE
  2
DIMSTYLE
 70
     1
  0
DIMSTYLE
  2
STANDARD
 70
     0
  3

  4

  5

  6

  7

 40
1.0
 41
0.1875
 42
0.0625
 43
0.38
 44
0.125
 45
0.0
 46
0.0
 47
0.01
 48
0.01
140
0.15625
141
0.09
142
0.0
143
25.3999999999999986
144
1.0
145
0.0
146
1.0
147
0.09
 71
     1
 72
     0
 73
     1
 74
     1
 75
     0
 76
     0
 77
     0
 78
     4
170
     0
171
     2
172
     0
173
     0
174
     0
175
     0
176
     0
177
     0
178
     0
  0
ENDTAB
  0
ENDSEC
  0
SECTION
  2
BLOCKS
  0
BLOCK
  8
0
  2
$MODEL_SPACE
 70
     0
 10
0.0
 20
0.0
 30
0.0
  3
$MODEL_SPACE
  1

  0
ENDBLK
  5
21
  8
0
  0
BLOCK
 67
     1
  8
0
  2
$PAPER_SPACE
 70
     0
 10
0.0
 20
0.0
 30
0.0
  3
$PAPER_SPACE
  1

  0
ENDBLK
  5
1D
 67
     1
  8
0
  0
BLOCK
  8
0
  2
_FILLED
 70
     0
 10
0.0
 20
0.0
 30
0.0
  3
_FILLED
  1

  0
SOLID
  5
B630
  8
0
  6
BYBLOCK
 62
     0
 10
0.0
 20
0.0
 30
0.0
 11
-1.0
 21
0.1666666667
 31
0.0
 12
-1.0
 22
-0.1666666667
 32
0.0
 13
-1.0
 23
-0.1666666667
 33
0.0
  0
ENDBLK
  5
B631
  8
0
  6
BYBLOCK
 62
     0
  0
BLOCK
  8
0
  2
_CLOSED
 70
     0
 10
0.0
 20
0.0
 30
0.0
  3
_CLOSED
  1

  0
LINE
  5
ECF3
  8
0
  6
BYBLOCK
 62
     0
 10
0.0
 20
0.0
 30
0.0
 11
-1.0
 21
0.1666666667
 31
0.0
  0
LINE
  5
ECF4
  8
0
  6
BYBLOCK
 62
     0
 10
-1.0
 20
0.1666666667
 30
0.0
 11
-1.0
 21
-0.1666666667
 31
0.0
  0
LINE
  5
ECF5
  8
0
  6
BYBLOCK
 62
     0
 10
-1.0
 20
-0.1666666667
 30
0.0
 11
0.0
 21
0.0
 31
0.0
  0
LINE
  5
ECF6
  8
0
  6
BYBLOCK
 62
     0
 10
-1.0
 20
0.0
 30
0.0
 11
0.0
 21
0.0
 31
0.0
  0
ENDBLK
  5
ECF7
  8
0
  6
BYBLOCK
 62
     0
  0
ENDSEC
  0
SECTION
  2
ENTITIES
  0
ATTDEF
  5
AA11
  8
DEFPOINTS
 10
3581.7562563435621996
 20
156.5862080270009926
 30
0.0
 40
0.001
  1
K-20085IN-M
  3

  2
MODELNUMBER
 70
     0
1001
ACDBATTR
1070
     0
1070
     1
  0
ATTDEF
  5
AA12
  8
DEFPOINTS
 10
3581.7562563435621996
 20
156.5845413603344127
 30
0.0
 40
0.001
  1
INSTAFIT
  3

  2
TRADENAME
 70
     0
1001
ACDBATTR
1070
     0
1070
     1
  0
ATTDEF
  5
AA13
  8
DEFPOINTS
 10
3581.7562563435621996
 20
156.5828746936676907
 30
0.0
 40
0.001
  1
IN-WALL TANK AND CARRIER SYSTEM
  3

  2
PRODUCT
 70
     0
1001
ACDBATTR
1070
     0
1070
     1
  0
LINE
  5
10CE0
  8
0
 10
3585.842246020859875
 20
180.8652734559643136
 30
0.0
 11
3585.842246020859875
 21
186.3259033772642965
 31
0.0
  0
LINE
  5
10CE1
  8
0
 10
3590.808781453859865
 20
187.3357498339642859
 30
0.0
 11
3590.808781453859865
 21
186.8239388103642966
 31
0.0
  0
ARC
  5
10CE2
  8
0
 10
3590.6709861783101587
 20
186.8239388103642966
 30
0.0
 40
0.1377952755499976
 50
180.0
 51
0.0
  0
LINE
  5
10CE3
  8
0
 10
3590.5331909027599977
 20
186.8239388103642966
 30
0.0
 11
3590.5331909027599977
 21
187.3357498339642859
 31
0.0
  0
ARC
  5
10CE4
  8
0
 10
3590.6709861783101587
 20
187.3357498339642859
 30
0.0
 40
0.1377952755500011
 50
0.0
 51
180.0
  0
ARC
  5
10CE5
  8
0
 10
3586.589303870697222
 20
187.6091902275487939
 30
0.0
 40
0.2135728172145131
 50
111.2877140400364055
 51
182.2516424173894052
  0
ARC
  5
10CE6
  8
0
 10
3595.973107593829809
 20
187.2269780453723911
 30
0.0
 40
9.6044892439166851
 50
177.7693982527509036
 51
180.4709364667318994
  0
LINE
  5
10CE7
  8
0
 10
3586.3689427800682097
 20
187.1480358730352123
 30
0.0
 11
3586.3689427803601575
 21
179.8160608575551862
 31
0.0
  0
ARC
  5
10CE8
  8
0
 10
3586.5961830286601071
 20
179.8160608575643096
 30
0.0
 40
0.2272402482999993
 50
179.9999999999984084
 51
269.999999999687418
  0
LINE
  5
10CE9
  8
0
 10
3586.5961830286591976
 20
179.5888206092643031
 30
0.0
 11
3590.287127910559775
 21
179.5888206092448911
 31
0.0
  0
ARC
  5
10CEA
  8
0
 10
3585.3953956272312098
 20
187.2373207002349886
 30
0.0
 40
0.492125984129288
 50
359.9999999801248123
 51
90.000000008233414
  0
LINE
  5
10CEB
  8
0
 10
3585.8875216113601709
 20
187.2373207000642878
 30
0.0
 11
3585.8875216088331399
 21
179.9538561333642974
 31
0.0
  0
ARC
  5
10CEC
  8
0
 10
3585.3976440674700825
 20
179.951611473318394
 30
0.0
 40
0.4898826839469432
 50
270.1349833321290248
 51
0.2625322374442109
  0
CIRCLE
  5
10CED
  8
0
 10
3585.3486912373600717
 20
187.1906163102642893
 30
0.0
 40
0.1771653542999996
  0
LINE
  5
10CEE
  8
0
 10
3585.842246020859875
 20
186.3259033772642965
 30
0.0
 11
3585.7635058633600238
 21
186.4046435347642898
 31
0.0
  0
LINE
  5
10CEF
  8
0
 10
3585.5455416310601322
 20
186.4046435347642898
 30
0.0
 11
3585.5455416310601322
 21
187.1906163094643034
 31
0.0
  0
ARC
  5
10CF0
  8
0
 10
3585.3486912373600717
 20
187.1906163094643034
 30
0.0
 40
0.1968503937000001
 50
0.0
 51
179.9999995343025034
  0
LINE
  5
10CF1
  8
0
 10
3585.1518408436609207
 20
187.1906163110643035
 30
0.0
 11
3585.1518408372721751
 21
186.4046435347642898
 31
0.0
  0
LINE
  5
10CF2
  8
0
 10
3591.7930283021019022
 20
186.0293020365085113
 30
0.0
 11
3590.2381323956578854
 21
186.029302036873105
 31
0.0
  0
ARC
  5
10CF3
  8
0
 10
3590.2381323957120003
 20
186.2628102624543942
 30
0.0
 40
0.2335082255812928
 50
211.4176295271086019
 51
269.9999999865556219
  0
LINE
  5
10CF4
  8
0
 10
3590.0388587070078756
 20
186.1410889068739039
 30
0.0
 11
3589.005396604859925
 21
187.3924637954642947
 31
0.0
  0
ARC
  5
10CF5
  8
0
 10
3588.0513845578539076
 20
186.5153484422149859
 30
0.0
 40
1.2959437984491919
 50
42.5953236122605574
 51
86.035262709150075
  0
LINE
  5
10CF6
  8
0
 10
3591.7930283021019022
 20
186.4064228002723951
 30
0.0
 11
3590.0245595320598113
 21
186.4064227995642966
 31
0.0
  0
ARC
  5
10CF7
  8
0
 10
3590.0245595319279346
 20
186.7372195652251889
 30
0.0
 40
0.3307967656608746
 50
231.6530974554196121
 51
270.0000000229284751
  0
LINE
  5
10CF8
  8
0
 10
3589.8193261907322267
 20
186.4777859979413961
 30
0.0
 11
3589.005396604859925
 21
187.3924637954642947
 31
0.0
  0
CIRCLE
  5
10CF9
  8
0
 10
3591.3993326349600466
 20
185.367245896964306
 30
0.0
 40
0.2755905512000005
  0
LINE
  5
10CFA
  8
0
 10
3591.4977578318598717
 20
185.4240717108642968
 30
0.0
 11
3591.4977578318598717
 21
185.3104200830642867
 31
0.0
  0
LINE
  5
10CFB
  8
0
 10
3591.4977578318598717
 20
185.3104200830642867
 30
0.0
 11
3591.3993326349600466
 21
185.2535942691642958
 31
0.0
  0
LINE
  5
10CFC
  8
0
 10
3591.3993326349600466
 20
185.2535942691642958
 30
0.0
 11
3591.3009074381598111
 21
185.3104200830642867
 31
0.0
  0
LINE
  5
10CFD
  8
0
 10
3591.3009074381598111
 20
185.3104200830642867
 30
0.0
 11
3591.3009074381598111
 21
185.4240717108642968
 31
0.0
  0
LINE
  5
10CFE
  8
0
 10
3591.3009074381598111
 20
185.4240717108642968
 30
0.0
 11
3591.3993326349600466
 21
185.4808975247642877
 31
0.0
  0
LINE
  5
10CFF
  8
0
 10
3591.3993326349600466
 20
185.4808975247642877
 30
0.0
 11
3591.4977578318598717
 21
185.4240717108642968
 31
0.0
  0
ARC
  5
10D00
  8
0
 10
3591.1820572168071521
 20
187.1972091760962087
 30
0.0
 40
0.6113606107887966
 50
2.0454078003699232
 51
87.9823978014195944
  0
ARC
  5
10D01
  8
0
 10
3585.4179609008419902
 20
187.1940733849106948
 30
0.0
 40
0.0163063116984621
 50
73.9807719347345909
 51
95.6188163105165359
  0
LINE
  5
10D02
  8
0
 10
3585.4163643542060527
 20
187.2103013496642916
 30
0.0
 11
3585.3880777386561931
 21
187.2103017058535954
 31
0.0
  0
ARC
  5
10D03
  8
0
 10
3585.3880607201449493
 20
187.2299861419828915
 30
0.0
 40
0.019684443486141
 50
179.9993221488506947
 51
270.0495360218599785
  0
LINE
  5
10D04
  8
0
 10
3585.3683762766600012
 20
187.2299863748642963
 30
0.0
 11
3585.3683762766600012
 21
187.2582894239642997
 31
0.0
  0
ARC
  5
10D05
  8
0
 10
3585.3521478637298969
 20
187.2598859453962064
 30
0.0
 40
0.0163067552541497
 50
354.3814260029121215
 51
16.0188830401423985
  0
LINE
  5
10D06
  8
0
 10
3585.3741418911399705
 20
187.2160669640441029
 30
0.0
 11
3585.3683762766600012
 21
187.2103013496642916
 31
0.0
  0
LINE
  5
10D07
  8
0
 10
3585.3683762766600012
 20
187.2103013496642916
 30
0.0
 11
3585.3683762766600012
 21
187.1709312708642869
 31
0.0
  0
ARC
  5
10D08
  8
0
 10
3585.4179609008419902
 20
187.1871592356179121
 30
0.0
 40
0.0163063116984621
 50
264.381183689483521
 51
286.0192280652653949
  0
LINE
  5
10D09
  8
0
 10
3585.4163643542060527
 20
187.1709312708642869
 30
0.0
 11
3585.3880777386561931
 21
187.1709309146750115
 31
0.0
  0
ARC
  5
10D0A
  8
0
 10
3585.3880607201449493
 20
187.1512464785458008
 30
0.0
 40
0.019684443486141
 50
89.9504639781399646
 51
180.0006778511493053
  0
LINE
  5
10D0B
  8
0
 10
3585.3683762766600012
 20
187.1512462456643107
 30
0.0
 11
3585.3683762766600012
 21
187.1229431965643073
 31
0.0
  0
ARC
  5
10D0C
  8
0
 10
3585.3521478637298969
 20
187.1213466751324006
 30
0.0
 40
0.0163067552541497
 50
343.9811169598576157
 51
5.6185739970879061
  0
LINE
  5
10D0D
  8
0
 10
3585.3741418911399705
 20
187.1651656564845041
 30
0.0
 11
3585.3683762766600012
 21
187.1709312708642869
 31
0.0
  0
ARC
  5
10D0E
  8
0
 10
3585.1712951804911427
 20
187.1906163102642893
 30
0.0
 40
0.2518930877316217
 50
355.6444377794721277
 51
4.355562220539297
  0
ARC
  5
10D0F
  8
0
 10
3585.2794215737781087
 20
187.1940733849106948
 30
0.0
 40
0.0163063116984621
 50
84.3811836894834641
 51
106.0192280652653949
  0
LINE
  5
10D10
  8
0
 10
3585.2810181204140463
 20
187.2103013496642916
 30
0.0
 11
3585.3093047359639058
 21
187.2103017058535954
 31
0.0
  0
ARC
  5
10D11
  8
0
 10
3585.3093217544760591
 20
187.2299861419828915
 30
0.0
 40
0.019684443486141
 50
269.9504639781399078
 51
0.000677851149328
  0
LINE
  5
10D12
  8
0
 10
3585.3290061979600978
 20
187.2299863748642963
 30
0.0
 11
3585.3290061979600978
 21
187.2582894239642997
 31
0.0
  0
ARC
  5
10D13
  8
0
 10
3585.345234610890202
 20
187.2598859453962064
 30
0.0
 40
0.0163067552541497
 50
163.9811169598575873
 51
185.6185739970879069
  0
LINE
  5
10D14
  8
0
 10
3585.3232405834801284
 20
187.2160669640441029
 30
0.0
 11
3585.3290061979600978
 21
187.2103013496642916
 31
0.0
  0
LINE
  5
10D15
  8
0
 10
3585.3290061979600978
 20
187.2103013496642916
 30
0.0
 11
3585.3290061979600978
 21
187.1709312708642869
 31
0.0
  0
ARC
  5
10D16
  8
0
 10
3585.2794215737781087
 20
187.1871592356179121
 30
0.0
 40
0.0163063116984621
 50
253.9807719347346051
 51
275.618816310516479
  0
LINE
  5
10D17
  8
0
 10
3585.2810181204140463
 20
187.1709312708642869
 30
0.0
 11
3585.3093047359639058
 21
187.1709309146750115
 31
0.0
  0
ARC
  5
10D18
  8
0
 10
3585.3093217544760591
 20
187.1512464785458008
 30
0.0
 40
0.019684443486141
 50
359.9993221488506947
 51
90.0495360218600354
  0
LINE
  5
10D19
  8
0
 10
3585.3290061979600978
 20
187.1512462456643107
 30
0.0
 11
3585.3290061979600978
 21
187.1229431965643073
 31
0.0
  0
ARC
  5
10D1A
  8
0
 10
3585.345234610890202
 20
187.1213466751324006
 30
0.0
 40
0.0163067552541497
 50
174.3814260029120931
 51
196.0188830401424127
  0
LINE
  5
10D1B
  8
0
 10
3585.3232405834801284
 20
187.1651656564845041
 30
0.0
 11
3585.3290061979600978
 21
187.1709312708642869
 31
0.0
  0
ARC
  5
10D1C
  8
0
 10
3585.5260872941280468
 20
187.1906163102642893
 30
0.0
 40
0.2518930877304259
 50
175.6444377794508966
 51
184.3555622205603868
  0
ARC
  5
10D1D
  8
0
 10
3585.3486912373100495
 20
187.0132202090397868
 30
0.0
 40
0.2518931320245664
 50
85.6444373598362745
 51
94.3555626401637113
  0
ARC
  5
10D1E
  8
0
 10
3585.3486912373100495
 20
187.3680124114889054
 30
0.0
 40
0.2518931320245664
 50
265.6444373598362745
 51
274.3555626401637255
  0
LINE
  5
10D1F
  8
0
 10
3585.3290061979600978
 20
187.2103013496642916
 30
0.0
 11
3585.3683762766600012
 21
187.2103013496642916
 31
0.0
  0
LINE
  5
10D20
  8
0
 10
3585.3290061979600978
 20
187.1709312708642869
 30
0.0
 11
3585.3683762766600012
 21
187.1709312708642869
 31
0.0
  0
CIRCLE
  5
10D21
  8
0
 10
3585.474135784560076
 20
183.1822025898642892
 30
0.0
 40
0.1771653542999996
  0
CIRCLE
  5
10D22
  8
0
 10
3585.3486912373600717
 20
180.0005605229642924
 30
0.0
 40
0.1771653542999996
  0
LINE
  5
10D23
  8
0
 10
3585.842246020859875
 20
180.8652734559643136
 30
0.0
 11
3585.7635058633600238
 21
180.7865332984642919
 31
0.0
  0
LINE
  5
10D24
  8
0
 10
3585.5455416310601322
 20
180.7865332984642919
 30
0.0
 11
3585.5455416310601322
 21
180.0005605229642924
 31
0.0
  0
ARC
  5
10D25
  8
0
 10
3585.3486912373600717
 20
180.0005605229642924
 30
0.0
 40
0.1968503937000001
 50
179.9999997671503991
 51
0.0
  0
LINE
  5
10D26
  8
0
 10
3585.1518408436609207
 20
180.0005605237643067
 30
0.0
 11
3585.151840846855066
 21
180.7865332984642919
 31
0.0
  0
LINE
  5
10D27
  8
0
 10
3591.7930283021019022
 20
187.2190295646483094
 30
0.0
 11
3591.7930283021019022
 21
180.9971671568642932
 31
0.0
  0
LINE
  5
10D28
  8
0
 10
3590.287127910559775
 20
168.4381181130642915
 30
0.0
 11
3587.9326378454788937
 21
168.4381181130642915
 31
0.0
  0
ARC
  5
10D29
  8
0
 10
3587.9326378454788937
 20
169.0286326638129992
 30
0.0
 40
0.5905145507486873
 50
179.9612531647157141
 51
270.0
  0
LINE
  5
10D2A
  8
0
 10
3587.3421234297597948
 20
169.0290320050642947
 30
0.0
 11
3587.3422257143920433
 21
169.1802824694271976
 31
0.0
  0
ARC
  5
10D2B
  8
0
 10
3587.2303383001631119
 20
169.1679747917272891
 30
0.0
 40
0.1125623044947161
 50
6.277329927438962
 51
104.443337306597499
  0
ARC
  5
10D2C
  8
0
 10
16092.312274065659949
 20
-78797.1506369061680743
 30
0.0
 40
79950.4500731475272914
 50
98.9986244043202248
 51
99.0004417980304794
  0
ARC
  5
10D2D
  8
0
 10
3584.0523279382650799
 20
173.0162183501041966
 30
0.0
 40
4.1859517013720247
 50
268.4425862441963773
 51
278.8661268586506026
  0
LINE
  5
10D2E
  8
0
 10
3588.8393736575599178
 20
168.4381181130642915
 30
0.0
 11
3588.8393736575599178
 21
169.3735192516643053
 31
0.0
  0
ARC
  5
10D2F
  8
0
 10
3589.2901750632559015
 20
169.1363502915965
 30
0.0
 40
0.5093829826341147
 50
94.3752980579975826
 51
152.2509091397350005
  0
ARC
  5
10D30
  8
0
 10
3596.0273485987831918
 20
129.6746511205467129
 30
0.0
 40
40.5398985489375008
 50
98.1401150704518983
 51
99.6218539950998263
  0
LINE
  5
10D31
  8
0
 10
3584.5256064235600206
 20
176.2993757575642917
 30
0.0
 11
3585.1927261896598793
 21
176.2993757673642961
 31
0.0
  0
ARC
  5
10D32
  8
0
 10
3585.2402168586490916
 20
175.8593718931209082
 30
0.0
 40
0.4425593440322747
 50
263.8397830779675246
 51
96.1602232114965005
  0
LINE
  5
10D33
  8
0
 10
3585.1927262379599597
 20
175.4193680136642968
 30
0.0
 11
3584.522753849703804
 21
175.4193679499620941
 31
0.0
  0
ARC
  5
10D34
  8
0
 10
3584.5212299905520013
 20
175.8593814167574862
 30
0.0
 40
0.4400161055097114
 50
89.430122506971145
 51
270.1984265381053092
  0
LINE
  5
10D35
  8
0
 10
3584.5847319967601834
 20
175.9514396647643082
 30
0.0
 11
3584.8084100096598377
 21
175.9514396758642931
 31
0.0
  0
ARC
  5
10D36
  8
0
 10
3584.8011504658529702
 20
175.8593718810697055
 30
0.0
 40
0.09235355875455
 50
274.5084445441602838
 51
85.4915569494321659
  0
LINE
  5
10D37
  8
0
 10
3584.8084100120599942
 20
175.7673040864642928
 30
0.0
 11
3584.5847319967601834
 21
175.7673040917335072
 31
0.0
  0
ARC
  5
10D38
  8
0
 10
3584.5847319989288735
 20
175.8593718782489077
 30
0.0
 40
0.0920677865153916
 50
90.0000013497325284
 51
269.9999986502675142
  0
LINE
  5
10D39
  8
0
 10
3584.5256064235600206
 20
173.1450681972544032
 30
0.0
 11
3585.1927261896598793
 21
173.1450682070542939
 31
0.0
  0
ARC
  5
10D3A
  8
0
 10
3585.2402168586490916
 20
172.7050643328109061
 30
0.0
 40
0.4425593440322747
 50
263.8397830779675246
 51
96.1602232114965005
  0
LINE
  5
10D3B
  8
0
 10
3585.1927262379599597
 20
172.2650604533544083
 30
0.0
 11
3584.522753849703804
 21
172.2650603896522057
 31
0.0
  0
ARC
  5
10D3C
  8
0
 10
3584.5212299905520013
 20
172.7050738564475125
 30
0.0
 40
0.4400161055097114
 50
89.430122506971145
 51
270.1984265381053092
  0
LINE
  5
10D3D
  8
0
 10
3584.5847319967601834
 20
172.7971321044543913
 30
0.0
 11
3584.8084100096598377
 21
172.7971321155544047
 31
0.0
  0
ARC
  5
10D3E
  8
0
 10
3584.8011504658529702
 20
172.7050643207597886
 30
0.0
 40
0.09235355875455
 50
274.5084445441602838
 51
85.4915569494321659
  0
LINE
  5
10D3F
  8
0
 10
3584.8084100120599942
 20
172.6129965261544044
 30
0.0
 11
3584.5847319967601834
 21
172.6129965314235903
 31
0.0
  0
ARC
  5
10D40
  8
0
 10
3584.5847319989288735
 20
172.7050643179389908
 30
0.0
 40
0.0920677865153916
 50
90.0000013497325284
 51
269.9999986502675142
  0
CIRCLE
  5
10D41
  8
0
 10
3585.2969945899599225
 20
157.3632739102642972
 30
0.0
 40
0.2011124239658676
  0
CIRCLE
  5
10D42
  8
0
 10
3581.7536633436598095
 20
158.7530726685643003
 30
0.0
 40
0.8858267716999996
  0
CIRCLE
  5
10D43
  8
0
 10
3581.7536633436598095
 20
158.7530726685643003
 30
0.0
 40
0.9842519685000006
  0
ARC
  5
10D44
  8
0
 10
3581.7536633436598095
 20
158.7530726685643003
 30
0.0
 40
1.1515748030999999
 50
296.0602626558136876
 51
243.9397373441863124
  0
ARC
  5
10D45
  8
0
 10
3581.7536633436598095
 20
158.7530726685643003
 30
0.0
 40
1.1909448818999999
 50
330.2730117348273779
 51
209.7269882651725936
  0
LINE
  5
10D46
  8
0
 10
3582.2765567404230751
 20
159.4681052308175992
 30
0.0
 11
3582.2292343020108092
 21
159.411709521092007
 31
0.0
  0
ARC
  5
10D47
  8
0
 10
3582.2467263812050078
 20
159.3970316698093086
 30
0.0
 40
0.0228344510070734
 50
139.9995116161996975
 51
230.0004884957400861
  0
LINE
  5
10D48
  8
0
 10
3582.2320488281598045
 20
159.379539340364289
 30
0.0
 11
3582.2875422084471211
 21
159.3329756716796055
 31
0.0
  0
ARC
  5
10D49
  8
0
 10
3582.3022448616798101
 20
159.3501842197011058
 30
0.0
 40
0.0226340923626518
 50
229.4900584584088961
 51
320.508391679099816
  0
LINE
  5
10D4A
  8
0
 10
3582.3197119922101592
 20
159.3357897246374932
 30
0.0
 11
3582.3670331654889196
 21
159.3921865325430076
 31
0.0
  0
LINE
  5
10D4B
  8
0
 10
3581.8127184617601415
 20
157.8692165929012106
 30
0.0
 11
3581.8127184617601415
 21
158.0069689349643056
 31
0.0
  0
ARC
  5
10D4C
  8
0
 10
3581.7733483830597834
 20
158.0069689349643056
 30
0.0
 40
0.0393700786999993
 50
0.0000000000016284
 51
90.0
  0
LINE
  5
10D4D
  8
0
 10
3581.7733483830597834
 20
158.0463390136642943
 30
0.0
 11
3581.7339783042598356
 21
158.0463390136642943
 31
0.0
  0
ARC
  5
10D4E
  8
0
 10
3581.7339783042598356
 20
158.0069689349643056
 30
0.0
 40
0.0393700786999993
 50
90.0
 51
180.0000000000015916
  0
LINE
  5
10D4F
  8
0
 10
3581.6946082255599322
 20
158.0069689349643056
 30
0.0
 11
3581.6946082255599322
 21
157.8692165929012106
 31
0.0
  0
LINE
  5
10D50
  8
0
 10
3582.4906334025858996
 20
158.2615808561137101
 30
0.0
 11
3582.4267976148021262
 21
158.2982534814694873
 31
0.0
  0
ARC
  5
10D51
  8
0
 10
3582.4381722471998728
 20
158.3180532261800124
 30
0.0
 40
0.0228344510070734
 50
150.1223538461634064
 51
240.1233307256989917
  0
LINE
  5
10D52
  8
0
 10
3582.4183726964270136
 20
158.3294281961576075
 30
0.0
 11
3582.4544591157168725
 21
158.3922410996080998
 31
0.0
  0
ARC
  5
10D53
  8
0
 10
3582.4741846040160453
 20
158.3811412235521914
 30
0.0
 40
0.0226340923626518
 50
59.6144506627954698
 51
150.632783883478595
  0
LINE
  5
10D54
  8
0
 10
3582.4856332948779709
 20
158.400666325719186
 30
0.0
 11
3582.5494682725698112
 21
158.363992233970805
 31
0.0
  0
LINE
  5
10D55
  8
0
 10
3581.2307699468969986
 20
159.4681052308175992
 30
0.0
 11
3581.2780923853088098
 21
159.411709521092007
 31
0.0
  0
ARC
  5
10D56
  8
0
 10
3581.2606003061150659
 20
159.3970316698093086
 30
0.0
 40
0.0228344510070734
 50
309.9995115042598854
 51
40.0004883838002669
  0
LINE
  5
10D57
  8
0
 10
3581.2752778591598144
 20
159.379539340364289
 30
0.0
 11
3581.2197844788729526
 21
159.3329756716796055
 31
0.0
  0
ARC
  5
10D58
  8
0
 10
3581.2050818256398088
 20
159.3501842197011058
 30
0.0
 40
0.0226340923626518
 50
219.491608320898905
 51
310.5099415415911039
  0
LINE
  5
10D59
  8
0
 10
3581.187614695110824
 20
159.3357897246374932
 30
0.0
 11
3581.1402935218311541
 21
159.3921865325430076
 31
0.0
  0
LINE
  5
10D5A
  8
0
 10
3581.0166932847328098
 20
158.2615808561137101
 30
0.0
 11
3581.080529072518857
 21
158.2982534814694873
 31
0.0
  0
ARC
  5
10D5B
  8
0
 10
3581.0691544401202009
 20
158.3180532261800124
 30
0.0
 40
0.0228344510070734
 50
299.8766692743009799
 51
29.8776461538351299
  0
LINE
  5
10D5C
  8
0
 10
3581.0889539908939696
 20
158.3294281961576075
 30
0.0
 11
3581.052867571601837
 21
158.3922410996080998
 31
0.0
  0
ARC
  5
10D5D
  8
0
 10
3581.0331420833040283
 20
158.3811412235521914
 30
0.0
 40
0.0226340923626518
 50
29.3672161165213907
 51
120.3855493372044947
  0
LINE
  5
10D5E
  8
0
 10
3581.0216933924421028
 20
158.400666325719186
 30
0.0
 11
3580.9578584147511719
 21
158.363992233970805
 31
0.0
  0
LINE
  5
10D5F
  8
0
 10
3582.7765279937948435
 20
158.1625214875643053
 30
0.0
 11
3590.287127910559775
 21
158.1625214875643053
 31
0.0
  0
LINE
  5
10D60
  8
0
 10
3582.259568855460202
 20
157.7185756215577896
 30
0.0
 11
3582.259568855460202
 21
157.6858040037421063
 31
0.0
  0
LINE
  5
10D61
  8
0
 10
3583.4662617688600221
 20
168.1625214874642893
 30
0.0
 11
3580.0410649184600516
 21
168.1625214874642893
 31
0.0
  0
LINE
  5
10D62
  8
0
 10
3583.2890964145599355
 20
168.0444112512643073
 30
0.0
 11
3580.2182302727587739
 21
168.0444112512643073
 31
0.0
  0
LINE
  5
10D63
  8
0
 10
3583.2890964145599355
 20
167.1388994402643107
 30
0.0
 11
3580.2182302727587739
 21
167.1388994402643107
 31
0.0
  0
LINE
  5
10D64
  8
0
 10
3583.2103562570600843
 20
166.942049046564307
 30
0.0
 11
3580.2969704302599894
 21
166.942049046564307
 31
0.0
  0
LINE
  5
10D65
  8
0
 10
3583.0528759420608367
 20
166.6074033772642906
 30
0.0
 11
3580.4544507452601465
 21
166.6074033772642906
 31
0.0
  0
LINE
  5
10D66
  8
0
 10
3583.4662617688600221
 20
168.3587234981642951
 30
0.0
 11
3583.4662617688600221
 21
168.1625214874642893
 31
0.0
  0
LINE
  5
10D67
  8
0
 10
3583.4662617688600221
 20
168.1625214874642893
 30
0.0
 11
3583.2890964145599355
 21
168.0444112512643073
 31
0.0
  0
LINE
  5
10D68
  8
0
 10
3583.2890964145599355
 20
168.0444112512643073
 30
0.0
 11
3583.2890964145599355
 21
167.1388994402992978
 31
0.0
  0
ARC
  5
10D69
  8
0
 10
3583.4957893279602104
 20
166.942049046564307
 30
0.0
 40
0.2854330708999821
 50
136.3971810242767901
 51
180.0
  0
LINE
  5
10D6A
  8
0
 10
3582.867836571960197
 20
166.6074033772642906
 30
0.0
 11
3582.867836571960197
 21
166.512598269764311
 31
0.0
  0
ARC
  5
10D6B
  8
0
 10
3582.8273852499878558
 20
166.5129280796961098
 30
0.0
 40
0.0404526664622798
 50
293.5463735586600933
 51
359.5328632661119741
  0
ARC
  5
10D6C
  8
0
 10
3582.8468139501451333
 20
166.470182904814294
 30
0.0
 40
0.0065364332842835
 50
120.0000004265844069
 51
239.999999653560991
  0
ARC
  5
10D6D
  8
0
 10
3582.827385249991039
 20
166.4274377299335868
 30
0.0
 40
0.0404526664588907
 50
0.4671367323670772
 51
66.4536264322444055
  0
LINE
  5
10D6E
  8
0
 10
3582.867836571960197
 20
166.4277675398643055
 30
0.0
 11
3582.8678365717828456
 21
166.3157478760643073
 31
0.0
  0
ARC
  5
10D6F
  8
0
 10
3583.0528759420608367
 20
166.6861435347643123
 30
0.0
 40
0.0787401574999951
 50
270.0
 51
0.0000000000016284
  0
LINE
  5
10D70
  8
0
 10
3583.1316160995597784
 20
166.6861435347643123
 30
0.0
 11
3583.1316160995597784
 21
166.942049046564307
 31
0.0
  0
LINE
  5
10D71
  8
0
 10
3582.8435457334608145
 20
166.4758436220643887
 30
0.0
 11
3580.6637809538601687
 21
166.4758436220643887
 31
0.0
  0
LINE
  5
10D72
  8
0
 10
3582.8435457334680905
 20
166.4645221875597088
 30
0.0
 11
3580.6637809538519832
 21
166.4645221875597088
 31
0.0
  0
ARC
  5
10D73
  8
0
 10
3582.8273852498100496
 20
166.3160776859961061
 30
0.0
 40
0.0404526664622798
 50
293.5463735586600933
 51
359.5328632661119741
  0
ARC
  5
10D74
  8
0
 10
3582.8468139499668723
 20
166.2733325111142904
 30
0.0
 40
0.0065364332842835
 50
120.0000004265844069
 51
239.999999653560991
  0
ARC
  5
10D75
  8
0
 10
3582.8273852498141423
 20
166.2305873362336115
 30
0.0
 40
0.0404526664588907
 50
0.4671367323670772
 51
66.4536264322444055
  0
LINE
  5
10D76
  8
0
 10
3582.8678365717828456
 20
166.2309171461643018
 30
0.0
 11
3582.8678365716050394
 21
166.1188974823643036
 31
0.0
  0
LINE
  5
10D77
  8
0
 10
3582.8435457332830083
 20
166.2789932283644134
 30
0.0
 11
3580.6637809540370654
 21
166.2789932283644134
 31
0.0
  0
LINE
  5
10D78
  8
0
 10
3582.8435457332898295
 20
166.2676717938597051
 30
0.0
 11
3580.6637809540288799
 21
166.2676717938597051
 31
0.0
  0
ARC
  5
10D79
  8
0
 10
3582.8273852496331529
 20
166.1192272922961024
 30
0.0
 40
0.0404526664622798
 50
293.5463735586600933
 51
359.5328632661119741
  0
ARC
  5
10D7A
  8
0
 10
3582.8468139497890661
 20
166.0764821174142867
 30
0.0
 40
0.0065364332842835
 50
120.0000004265844069
 51
239.999999653560991
  0
ARC
  5
10D7B
  8
0
 10
3582.8273852496358813
 20
166.0337369425336078
 30
0.0
 40
0.0404526664588907
 50
0.4671367323670772
 51
66.4536264322444055
  0
LINE
  5
10D7C
  8
0
 10
3582.8678365716050394
 20
166.0340667524642981
 30
0.0
 11
3582.8678365714267784
 21
165.9220470886643
 31
0.0
  0
LINE
  5
10D7D
  8
0
 10
3582.8435457331052021
 20
166.0821428346644097
 30
0.0
 11
3580.6637809542148716
 21
166.0821428346644097
 31
0.0
  0
LINE
  5
10D7E
  8
0
 10
3582.8435457331129328
 20
166.0708214001597014
 30
0.0
 11
3580.6637809542071409
 21
166.0708214001597014
 31
0.0
  0
ARC
  5
10D7F
  8
0
 10
3582.8273852494548919
 20
165.9223768985960987
 30
0.0
 40
0.0404526664622798
 50
293.5463735586600933
 51
359.5328632661119741
  0
ARC
  5
10D80
  8
0
 10
3582.8468139496121694
 20
165.8796317237143114
 30
0.0
 40
0.0065364332842835
 50
120.0000004265844069
 51
239.999999653560991
  0
ARC
  5
10D81
  8
0
 10
3582.8273852494580751
 20
165.8368865488334905
 30
0.0
 40
0.0404526664588907
 50
0.4671367323670772
 51
66.4536264322444055
  0
LINE
  5
10D82
  8
0
 10
3582.8678365714267784
 20
165.8372163587642092
 30
0.0
 11
3582.8678365712507912
 21
165.725196694964211
 31
0.0
  0
LINE
  5
10D83
  8
0
 10
3582.8435457329278506
 20
165.8852924409644061
 30
0.0
 11
3580.6637809543922231
 21
165.8852924409644061
 31
0.0
  0
LINE
  5
10D84
  8
0
 10
3582.8435457329360361
 20
165.8739710064596977
 30
0.0
 11
3580.6637809543849471
 21
165.8739710064596977
 31
0.0
  0
ARC
  5
10D85
  8
0
 10
3582.8273852492779952
 20
165.7255265048960098
 30
0.0
 40
0.0404526664622798
 50
293.5463735586600933
 51
359.5328632661119741
  0
ARC
  5
10D86
  8
0
 10
3582.8468139494348179
 20
165.6827813300141941
 30
0.0
 40
0.0065364332842835
 50
120.0000004265844069
 51
239.999999653560991
  0
ARC
  5
10D87
  8
0
 10
3582.8273852492811784
 20
165.6400361551334868
 30
0.0
 40
0.0404526664588907
 50
0.4671367323670772
 51
66.4536264322444055
  0
LINE
  5
10D88
  8
0
 10
3582.8678365712507912
 20
165.6403659650642055
 30
0.0
 11
3582.867836571072985
 21
165.5283463012642073
 31
0.0
  0
LINE
  5
10D89
  8
0
 10
3582.8435457327509539
 20
165.6884420472644024
 30
0.0
 11
3580.6637809545691198
 21
165.6884420472644024
 31
0.0
  0
LINE
  5
10D8A
  8
0
 10
3582.8435457327591394
 20
165.6771206127596088
 30
0.0
 11
3580.6637809545618438
 21
165.6771206127596088
 31
0.0
  0
ARC
  5
10D8B
  8
0
 10
3582.827385249100189
 20
165.5286761111960061
 30
0.0
 40
0.0404526664622798
 50
293.5463735586600933
 51
359.5328632661119741
  0
ARC
  5
10D8C
  8
0
 10
3582.8468139492570117
 20
165.4859309363141904
 30
0.0
 40
0.0065364332842835
 50
120.0000004265844069
 51
239.999999653560991
  0
ARC
  5
10D8D
  8
0
 10
3582.8273852491038269
 20
165.4431857614335115
 30
0.0
 40
0.0404526664588907
 50
0.4671367323670772
 51
66.4536264322444055
  0
LINE
  5
10D8E
  8
0
 10
3582.867836571072985
 20
165.4435155713642018
 30
0.0
 11
3582.8678365708951787
 21
165.3314959075642037
 31
0.0
  0
LINE
  5
10D8F
  8
0
 10
3582.8435457325731477
 20
165.4915916535643134
 30
0.0
 11
3580.663780954746926
 21
165.4915916535643134
 31
0.0
  0
LINE
  5
10D90
  8
0
 10
3582.8435457325808784
 20
165.4802702190596051
 30
0.0
 11
3580.6637809547391953
 21
165.4802702190596051
 31
0.0
  0
ARC
  5
10D91
  8
0
 10
3582.8273852489228375
 20
165.3318257174960024
 30
0.0
 40
0.0404526664622798
 50
293.5463735586600933
 51
359.5328632661119741
  0
ARC
  5
10D92
  8
0
 10
3582.846813949080115
 20
165.2890805426141867
 30
0.0
 40
0.0065364332842835
 50
120.0000004265844069
 51
239.999999653560991
  0
ARC
  5
10D93
  8
0
 10
3582.8273852489269302
 20
165.2463353677333942
 30
0.0
 40
0.0404526664588907
 50
0.4671367323670772
 51
66.4536264322444055
  0
LINE
  5
10D94
  8
0
 10
3582.8678365708951787
 20
165.2466651776641982
 30
0.0
 11
3582.8678365707178273
 21
165.1346455138642
 31
0.0
  0
LINE
  5
10D95
  8
0
 10
3582.8435457323957962
 20
165.2947412598643098
 30
0.0
 11
3580.663780954925187
 21
165.2947412598643098
 31
0.0
  0
LINE
  5
10D96
  8
0
 10
3582.8435457324039817
 20
165.2834198253596014
 30
0.0
 11
3580.6637809549170015
 21
165.2834198253596014
 31
0.0
  0
ARC
  5
10D97
  8
0
 10
3582.8273852487459408
 20
165.1349753237959987
 30
0.0
 40
0.0404526664622798
 50
293.5463735586600933
 51
359.5328632661119741
  0
ARC
  5
10D98
  8
0
 10
3582.8468139489032183
 20
165.0922301489142114
 30
0.0
 40
0.0065364332842835
 50
120.0000004265844069
 51
239.999999653560991
  0
ARC
  5
10D99
  8
0
 10
3582.827385248749124
 20
165.0494849740335042
 30
0.0
 40
0.0404526664588907
 50
0.4671367323670772
 51
66.4536264322444055
  0
LINE
  5
10D9A
  8
0
 10
3582.8678365707178273
 20
165.0498147839641945
 30
0.0
 11
3582.8678365705409306
 21
164.9377951201641963
 31
0.0
  0
LINE
  5
10D9B
  8
0
 10
3582.8435457322188995
 20
165.0978908661643061
 30
0.0
 11
3580.6637809551020837
 21
165.0978908661643061
 31
0.0
  0
LINE
  5
10D9C
  8
0
 10
3582.8435457322261755
 20
165.0865694316595977
 30
0.0
 11
3580.6637809550938982
 21
165.0865694316595977
 31
0.0
  0
ARC
  5
10D9D
  8
0
 10
3582.8273852485681346
 20
164.9381249300959098
 30
0.0
 40
0.0404526664622798
 50
293.5463735586600933
 51
359.5328632661119741
  0
ARC
  5
10D9E
  8
0
 10
3582.8468139487249573
 20
164.8953797552140941
 30
0.0
 40
0.0065364332842835
 50
120.0000004265844069
 51
239.999999653560991
  0
ARC
  5
10D9F
  8
0
 10
3582.8273852485722273
 20
164.8526345803333868
 30
0.0
 40
0.0404526664588907
 50
0.4671367323670772
 51
66.4536264322444055
  0
LINE
  5
10DA0
  8
0
 10
3582.8678365705409306
 20
164.8529643902641055
 30
0.0
 11
3582.8678365703631243
 21
164.7409447264641074
 31
0.0
  0
LINE
  5
10DA1
  8
0
 10
3582.8435457320410933
 20
164.9010404724641887
 30
0.0
 11
3580.6637809552789804
 21
164.9010404724641887
 31
0.0
  0
LINE
  5
10DA2
  8
0
 10
3582.843545732048824
 20
164.8897190379595941
 30
0.0
 11
3580.6637809552707949
 21
164.8897190379595941
 31
0.0
  0
ARC
  5
10DA3
  8
0
 10
3582.8273852483907831
 20
164.7412745363959061
 30
0.0
 40
0.0404526664622798
 50
293.5463735586600933
 51
359.5328632661119741
  0
ARC
  5
10DA4
  8
0
 10
3582.8468139485480606
 20
164.6985293615140904
 30
0.0
 40
0.0065364332842835
 50
120.0000004265844069
 51
239.999999653560991
  0
ARC
  5
10DA5
  8
0
 10
3582.8273852483939663
 20
164.6557841866334115
 30
0.0
 40
0.0404526664588907
 50
0.4671367323670772
 51
66.4536264322444055
  0
LINE
  5
10DA6
  8
0
 10
3582.8678365703631243
 20
164.6561139965641019
 30
0.0
 11
3582.8678365701857729
 21
164.5440943327641037
 31
0.0
  0
LINE
  5
10DA7
  8
0
 10
3582.8435457318641966
 20
164.7041900787642135
 30
0.0
 11
3580.6637809554567866
 21
164.7041900787642135
 31
0.0
  0
LINE
  5
10DA8
  8
0
 10
3582.8435457318710178
 20
164.6928686442595051
 30
0.0
 11
3580.6637809554490559
 21
164.6928686442595051
 31
0.0
  0
ARC
  5
10DA9
  8
0
 10
3582.8273852482138864
 20
164.5444241426959024
 30
0.0
 40
0.0404526664622798
 50
293.5463735586600933
 51
359.5328632661119741
  0
ARC
  5
10DAA
  8
0
 10
3582.8468139483697996
 20
164.5016789678140867
 30
0.0
 40
0.0065364332842835
 50
120.0000004265844069
 51
239.999999653560991
  0
ARC
  5
10DAB
  8
0
 10
3582.8273852482170696
 20
164.4589337929334079
 30
0.0
 40
0.0404526664588907
 50
0.4671367323670772
 51
66.4536264322444055
  0
LINE
  5
10DAC
  8
0
 10
3582.8678365701857729
 20
164.4592636028640982
 30
0.0
 11
3582.8678365700088762
 21
164.3472439390641
 31
0.0
  0
LINE
  5
10DAD
  8
0
 10
3582.8435457316859356
 20
164.5073396850642098
 30
0.0
 11
3580.6637809556341381
 21
164.5073396850642098
 31
0.0
  0
LINE
  5
10DAE
  8
0
 10
3582.8435457316941211
 20
164.4960182505595014
 30
0.0
 11
3580.6637809556259526
 21
164.4960182505595014
 31
0.0
  0
ARC
  5
10DAF
  8
0
 10
3582.8273852480360802
 20
164.3475737489958988
 30
0.0
 40
0.0404526664622798
 50
293.5463735586600933
 51
359.5328632661119741
  0
ARC
  5
10DB0
  8
0
 10
3582.8468139481929029
 20
164.3048285741141115
 30
0.0
 40
0.0065364332842835
 50
120.0000004265844069
 51
239.999999653560991
  0
ARC
  5
10DB1
  8
0
 10
3582.8273852480401729
 20
164.2620833992334042
 30
0.0
 40
0.0404526664588907
 50
0.4671367323670772
 51
66.4536264322444055
  0
LINE
  5
10DB2
  8
0
 10
3582.8678365700088762
 20
164.2624132091640945
 30
0.0
 11
3582.8678365698310699
 21
164.1503935453640963
 31
0.0
  0
LINE
  5
10DB3
  8
0
 10
3582.8435457315090389
 20
164.3104892913642061
 30
0.0
 11
3580.6637809558110348
 21
164.3104892913642061
 31
0.0
  0
LINE
  5
10DB4
  8
0
 10
3582.8435457315172243
 20
164.2991678568594978
 30
0.0
 11
3580.6637809558042136
 21
164.2991678568594978
 31
0.0
  0
ARC
  5
10DB5
  8
0
 10
3582.8273852478578192
 20
164.1507233552958951
 30
0.0
 40
0.0404526664622798
 50
293.5463735586600933
 51
359.5328632661119741
  0
ARC
  5
10DB6
  8
0
 10
3582.8468139480150967
 20
164.1079781804141078
 30
0.0
 40
0.0065364332842835
 50
120.0000004265844069
 51
239.999999653560991
  0
LINE
  5
10DB7
  8
0
 10
3582.8435457313307779
 20
164.1136388976642024
 30
0.0
 11
3580.663780955988841
 21
164.1136388976642024
 31
0.0
  0
LINE
  5
10DB8
  8
0
 10
3582.8435457313389634
 20
164.1023174631594941
 30
0.0
 11
3580.6637809559811103
 21
164.1023174631594941
 31
0.0
  0
LINE
  5
10DB9
  8
0
 10
3582.867836571960197
 20
162.490754768174213
 30
0.0
 11
3582.867836571960197
 21
162.3787400021267047
 31
0.0
  0
ARC
  5
10DBA
  8
0
 10
3582.8273852499878558
 20
162.3790698120585034
 30
0.0
 40
0.0404526664622798
 50
293.5463735586600933
 51
359.5328632661119741
  0
ARC
  5
10DBB
  8
0
 10
3582.8468139501451333
 20
162.3363246371766877
 30
0.0
 40
0.0065364332842835
 50
120.0000004265844069
 51
239.999999653560991
  0
ARC
  5
10DBC
  8
0
 10
3582.827385249991039
 20
162.2935794622960088
 30
0.0
 40
0.0404526664588907
 50
0.4671367323670772
 51
66.4536264322444055
  0
LINE
  5
10DBD
  8
0
 10
3582.8435457334608145
 20
162.3419853544268108
 30
0.0
 11
3580.6637809538601687
 21
162.3419853544268108
 31
0.0
  0
LINE
  5
10DBE
  8
0
 10
3582.8435457334680905
 20
162.3306639199221024
 30
0.0
 11
3580.6637809538519832
 21
162.3306639199221024
 31
0.0
  0
LINE
  5
10DBF
  8
0
 10
3582.867836571960197
 20
160.8205766055642982
 30
0.0
 11
3580.6394901153598767
 21
160.8205766055642982
 31
0.0
  0
LINE
  5
10DC0
  8
0
 10
3582.8953956271598145
 20
160.4465608575642932
 30
0.0
 11
3580.6119310601598045
 21
160.4465608575642932
 31
0.0
  0
LINE
  5
10DC1
  8
0
 10
3582.8953956271598145
 20
160.3481356606642976
 30
0.0
 11
3580.6119310601598045
 21
160.3481356606642976
 31
0.0
  0
LINE
  5
10DC2
  8
0
 10
3582.7772853908600155
 20
160.3481356606642976
 30
0.0
 11
3582.7772853908600155
 21
159.3617988929131002
 31
0.0
  0
LINE
  5
10DC3
  8
0
 10
3582.867836571960197
 20
162.2939092722266992
 30
0.0
 11
3582.867836571960197
 21
160.8205766055642982
 31
0.0
  0
LINE
  5
10DC4
  8
0
 10
3582.867836571960197
 20
160.8205766055642982
 30
0.0
 11
3582.807288968740977
 21
160.4465608575642932
 31
0.0
  0
LINE
  5
10DC5
  8
0
 10
3582.8953956271598145
 20
160.4465608575642932
 30
0.0
 11
3582.8953956271598145
 21
160.3481356606642976
 31
0.0
  0
LINE
  5
10DC6
  8
0
 10
3577.6650806664601987
 20
180.8652734559643136
 30
0.0
 11
3577.6650806664601987
 21
186.3259033772642965
 31
0.0
  0
LINE
  5
10DC7
  8
0
 10
3572.6985452334602087
 20
187.3357498339642859
 30
0.0
 11
3572.6985452334602087
 21
186.8239388103642966
 31
0.0
  0
ARC
  5
10DC8
  8
0
 10
3572.836340509009915
 20
186.8239388103642966
 30
0.0
 40
0.1377952755499976
 50
180.0
 51
0.0
  0
LINE
  5
10DC9
  8
0
 10
3572.9741357845609855
 20
186.8239388103642966
 30
0.0
 11
3572.9741357845609855
 21
187.3357498339642859
 31
0.0
  0
ARC
  5
10DCA
  8
0
 10
3572.836340509009915
 20
187.3357498339642859
 30
0.0
 40
0.1377952755500011
 50
0.0
 51
180.0
  0
ARC
  5
10DCB
  8
0
 10
3576.9180228166242159
 20
187.6091902275487939
 30
0.0
 40
0.2135728172145131
 50
357.7483575826105948
 51
40.5449208186938677
  0
ARC
  5
10DCC
  8
0
 10
3567.5342190934889004
 20
187.2269780453723911
 30
0.0
 40
9.6044892439166851
 50
359.5290635332680154
 51
2.2306017472491431
  0
LINE
  5
10DCD
  8
0
 10
3577.1383839072541377
 20
187.1480358730352123
 30
0.0
 11
3577.1383839069599162
 21
179.8160608575551862
 31
0.0
  0
ARC
  5
10DCE
  8
0
 10
3576.9111436586599666
 20
179.8160608575643096
 30
0.0
 40
0.2272402482999993
 50
270.0000000003126956
 51
0.0
  0
LINE
  5
10DCF
  8
0
 10
3576.9111436586608761
 20
179.5888206092643031
 30
0.0
 11
3573.2201987767598439
 21
179.5888206092448911
 31
0.0
  0
ARC
  5
10DD0
  8
0
 10
3578.1119310600888639
 20
187.2373207002349886
 30
0.0
 40
0.492125984129288
 50
89.999999991766586
 51
180.0000000198751025
  0
LINE
  5
10DD1
  8
0
 10
3577.6198050759599028
 20
187.2373207000642878
 30
0.0
 11
3577.6198050784860243
 21
179.9538561333642974
 31
0.0
  0
ARC
  5
10DD2
  8
0
 10
3578.149453086270114
 20
179.9913781564322903
 30
0.0
 40
0.5309754366862816
 50
184.0522531494403893
 51
265.947746521482884
  0
CIRCLE
  5
10DD3
  8
0
 10
3578.158635449960002
 20
187.1906163102642893
 30
0.0
 40
0.1771653542999996
  0
LINE
  5
10DD4
  8
0
 10
3577.6650806664601987
 20
186.3259033772642965
 30
0.0
 11
3577.7438208239600499
 21
186.4046435347642898
 31
0.0
  0
LINE
  5
10DD5
  8
0
 10
3577.9617850562599415
 20
186.4046435347642898
 30
0.0
 11
3577.9617850562599415
 21
187.1906163094643034
 31
0.0
  0
ARC
  5
10DD6
  8
0
 10
3578.158635449960002
 20
187.1906163094643034
 30
0.0
 40
0.1968503937000001
 50
0.0000004656975289
 51
180.0
  0
LINE
  5
10DD7
  8
0
 10
3578.355485843660972
 20
187.1906163110643035
 30
0.0
 11
3578.3554858500488081
 21
186.4046435347642898
 31
0.0
  0
LINE
  5
10DD8
  8
0
 10
3571.7142983852168072
 20
186.0293020365085113
 30
0.0
 11
3573.2691942916630978
 21
186.029302036873105
 31
0.0
  0
ARC
  5
10DD9
  8
0
 10
3573.2691942916080734
 20
186.2628102624543942
 30
0.0
 40
0.2335082255812928
 50
270.0000000134443781
 51
328.5823704728913981
  0
LINE
  5
10DDA
  8
0
 10
3573.4684679803121981
 20
186.1410889068739039
 30
0.0
 11
3574.5019300824601487
 21
187.3924637954642947
 31
0.0
  0
ARC
  5
10DDB
  8
0
 10
3575.4559421294670756
 20
186.5153484422149859
 30
0.0
 40
1.2959437984491919
 50
93.964737290849925
 51
137.4046763877394142
  0
LINE
  5
10DDC
  8
0
 10
3571.7142983852168072
 20
186.4064228002723951
 30
0.0
 11
3573.4827671552598076
 21
186.4064227995642966
 31
0.0
  0
ARC
  5
10DDD
  8
0
 10
3573.4827671553921391
 20
186.7372195652251889
 30
0.0
 40
0.3307967656608746
 50
269.9999999770453769
 51
308.3469025445804164
  0
LINE
  5
10DDE
  8
0
 10
3573.688000496587847
 20
186.4777859979413961
 30
0.0
 11
3574.5019300824601487
 21
187.3924637954642947
 31
0.0
  0
CIRCLE
  5
10DDF
  8
0
 10
3572.1079940523600271
 20
185.367245896964306
 30
0.0
 40
0.2755905512000005
  0
LINE
  5
10DE0
  8
0
 10
3572.009568855460202
 20
185.4240717108642968
 30
0.0
 11
3572.009568855460202
 21
185.3104200830642867
 31
0.0
  0
LINE
  5
10DE1
  8
0
 10
3572.009568855460202
 20
185.3104200830642867
 30
0.0
 11
3572.1079940523600271
 21
185.2535942691642958
 31
0.0
  0
LINE
  5
10DE2
  8
0
 10
3572.1079940523600271
 20
185.2535942691642958
 30
0.0
 11
3572.2064192491598078
 21
185.3104200830642867
 31
0.0
  0
LINE
  5
10DE3
  8
0
 10
3572.2064192491598078
 20
185.3104200830642867
 30
0.0
 11
3572.2064192491598078
 21
185.4240717108642968
 31
0.0
  0
LINE
  5
10DE4
  8
0
 10
3572.2064192491598078
 20
185.4240717108642968
 30
0.0
 11
3572.1079940523600271
 21
185.4808975247642877
 31
0.0
  0
LINE
  5
10DE5
  8
0
 10
3572.1079940523600271
 20
185.4808975247642877
 30
0.0
 11
3572.009568855460202
 21
185.4240717108642968
 31
0.0
  0
ARC
  5
10DE6
  8
0
 10
3572.3734836312100924
 20
187.1489716114207056
 30
0.0
 40
0.6628976582743912
 50
96.0387946313828422
 51
173.9333997668339862
  0
CIRCLE
  5
10DE7
  8
0
 10
3578.0331909027599977
 20
183.1822025898642892
 30
0.0
 40
0.1771653542999996
  0
CIRCLE
  5
10DE8
  8
0
 10
3578.158635449960002
 20
180.0005605229642924
 30
0.0
 40
0.1771653542999996
  0
LINE
  5
10DE9
  8
0
 10
3577.6650806664601987
 20
180.8652734559643136
 30
0.0
 11
3577.7438208239600499
 21
180.7865332984642919
 31
0.0
  0
LINE
  5
10DEA
  8
0
 10
3577.9617850562599415
 20
180.7865332984642919
 30
0.0
 11
3577.9617850562599415
 21
180.0005605229642924
 31
0.0
  0
ARC
  5
10DEB
  8
0
 10
3578.158635449960002
 20
180.0005605229642924
 30
0.0
 40
0.1968503937000001
 50
180.0
 51
0.0000002328495787
  0
LINE
  5
10DEC
  8
0
 10
3578.355485843660972
 20
180.0005605237643067
 30
0.0
 11
3578.3554858404659171
 21
180.7865332984642919
 31
0.0
  0
LINE
  5
10DED
  8
0
 10
3571.7142983852168072
 20
187.2190295646483094
 30
0.0
 11
3571.7142983852168072
 21
180.9971671568642932
 31
0.0
  0
LINE
  5
10DEE
  8
0
 10
3573.2201987767598439
 20
168.4381181130642915
 30
0.0
 11
3575.5746888418398157
 21
168.4381181130642915
 31
0.0
  0
ARC
  5
10DEF
  8
0
 10
3575.5746888418398157
 20
169.0286326638129992
 30
0.0
 40
0.5905145507486873
 50
270.0
 51
0.0387468352843192
  0
LINE
  5
10DF0
  8
0
 10
3576.1652032575598241
 20
169.0290320050642947
 30
0.0
 11
3576.1651009729289399
 21
169.1802824694271976
 31
0.0
  0
ARC
  5
10DF1
  8
0
 10
3576.2769883871569618
 20
169.1679747917272891
 30
0.0
 40
0.1125623044947161
 50
75.5566626934025294
 51
173.7226700725609874
  0
ARC
  5
10DF2
  8
0
 10
-8928.8049473783448775
 20
-78797.1506369061680743
 30
0.0
 40
79950.4500731475272914
 50
80.9995582019695064
 51
81.001375595679761
  0
ARC
  5
10DF3
  8
0
 10
3579.4549987490549938
 20
173.0162183501041966
 30
0.0
 40
4.1859517013720247
 50
261.1338731413493974
 51
271.5574137558036227
  0
LINE
  5
10DF4
  8
0
 10
3574.6679530297601559
 20
168.4381181130642915
 30
0.0
 11
3574.6679530297601559
 21
169.3735192516643053
 31
0.0
  0
ARC
  5
10DF5
  8
0
 10
3574.2171516240641722
 20
169.1363502915965
 30
0.0
 40
0.5093829826341147
 50
27.7490908602650101
 51
85.6247019420024174
  0
ARC
  5
10DF6
  8
0
 10
3567.4799780885368818
 20
129.6746511205467129
 30
0.0
 40
40.5398985489375008
 50
80.3781460049002163
 51
81.8598849295480875
  0
LINE
  5
10DF7
  8
0
 10
3578.9817202637600531
 20
176.2993757575642917
 30
0.0
 11
3578.3146004976601944
 21
176.2993757673642961
 31
0.0
  0
ARC
  5
10DF8
  8
0
 10
3578.2671098286709821
 20
175.8593718931209082
 30
0.0
 40
0.4425593440322747
 50
83.8397767885035137
 51
276.1602169220324754
  0
LINE
  5
10DF9
  8
0
 10
3578.314600449360114
 20
175.4193680136642968
 30
0.0
 11
3578.9845728376158149
 21
175.4193679499620941
 31
0.0
  0
ARC
  5
10DFA
  8
0
 10
3578.9860966967680724
 20
175.8593814167574862
 30
0.0
 40
0.4400161055097114
 50
269.8015734618945771
 51
90.5698774930288693
  0
LINE
  5
10DFB
  8
0
 10
3578.9225946905598903
 20
175.9514396647643082
 30
0.0
 11
3578.6989166776597813
 21
175.9514396758642931
 31
0.0
  0
ARC
  5
10DFC
  8
0
 10
3578.7061762214671035
 20
175.8593718810697055
 30
0.0
 40
0.09235355875455
 50
94.5084430505678483
 51
265.4915554558396025
  0
LINE
  5
10DFD
  8
0
 10
3578.698916675260989
 20
175.7673040864642928
 30
0.0
 11
3578.9225946905598903
 21
175.7673040917335072
 31
0.0
  0
ARC
  5
10DFE
  8
0
 10
3578.9225946883912002
 20
175.8593718782489077
 30
0.0
 40
0.0920677865153916
 50
270.0000013497325995
 51
89.9999986502674432
  0
LINE
  5
10DFF
  8
0
 10
3578.9817202637600531
 20
173.1450681972544032
 30
0.0
 11
3578.3146004976601944
 21
173.1450682070542939
 31
0.0
  0
ARC
  5
10E00
  8
0
 10
3578.2671098286709821
 20
172.7050643328109061
 30
0.0
 40
0.4425593440322747
 50
83.8397767885035137
 51
276.1602169220324754
  0
LINE
  5
10E01
  8
0
 10
3578.314600449360114
 20
172.2650604533544083
 30
0.0
 11
3578.9845728376158149
 21
172.2650603896522057
 31
0.0
  0
ARC
  5
10E02
  8
0
 10
3578.9860966967680724
 20
172.7050738564475125
 30
0.0
 40
0.4400161055097114
 50
269.8015734618945771
 51
90.5698774930288693
  0
LINE
  5
10E03
  8
0
 10
3578.9225946905598903
 20
172.7971321044543913
 30
0.0
 11
3578.6989166776597813
 21
172.7971321155544047
 31
0.0
  0
ARC
  5
10E04
  8
0
 10
3578.7061762214671035
 20
172.7050643207597886
 30
0.0
 40
0.09235355875455
 50
94.5084430505678483
 51
265.4915554558396025
  0
LINE
  5
10E05
  8
0
 10
3578.698916675260989
 20
172.6129965261544044
 30
0.0
 11
3578.9225946905598903
 21
172.6129965314235903
 31
0.0
  0
ARC
  5
10E06
  8
0
 10
3578.9225946883912002
 20
172.7050643179389908
 30
0.0
 40
0.0920677865153916
 50
270.0000013497325995
 51
89.9999986502674432
  0
LINE
  5
10E07
  8
0
 10
3581.2477578318598717
 20
157.7185756215577896
 30
0.0
 11
3581.2477578318598717
 21
157.6858040037421063
 31
0.0
  0
LINE
  5
10E08
  8
0
 10
3580.0410649184600516
 20
168.1625214874642893
 30
0.0
 11
3580.2182302727587739
 21
168.0444112512643073
 31
0.0
  0
LINE
  5
10E09
  8
0
 10
3580.2182302727587739
 20
168.0444112512643073
 30
0.0
 11
3580.2182302727587739
 21
167.1388994402992978
 31
0.0
  0
ARC
  5
10E0A
  8
0
 10
3580.0115373593598633
 20
166.942049046564307
 30
0.0
 40
0.2854330708999821
 50
359.9999999999984084
 51
43.6028189757232028
  0
LINE
  5
10E0B
  8
0
 10
3580.6394901153598767
 20
166.6074033772642906
 30
0.0
 11
3580.6394901153598767
 21
166.512598269764311
 31
0.0
  0
ARC
  5
10E0C
  8
0
 10
3580.6799414373322179
 20
166.5129280796961098
 30
0.0
 40
0.0404526664622798
 50
180.4671367338879122
 51
246.4536264413399067
  0
ARC
  5
10E0D
  8
0
 10
3580.6605127371749404
 20
166.470182904814294
 30
0.0
 40
0.0065364332842835
 50
300.0000003464389806
 51
59.9999995734155576
  0
ARC
  5
10E0E
  8
0
 10
3580.6799414373299442
 20
166.4274377299335868
 30
0.0
 40
0.0404526664588907
 50
113.5463735677555945
 51
179.532863267632905
  0
LINE
  5
10E0F
  8
0
 10
3580.6394901153598767
 20
166.4277675398643055
 30
0.0
 11
3580.6394901155367734
 21
166.3157478760643073
 31
0.0
  0
ARC
  5
10E10
  8
0
 10
3580.4544507452601465
 20
166.6861435347643123
 30
0.0
 40
0.0787401574999951
 50
179.9999999999984084
 51
270.0
  0
LINE
  5
10E11
  8
0
 10
3580.3757105877598406
 20
166.6861435347643123
 30
0.0
 11
3580.3757105877598406
 21
166.942049046564307
 31
0.0
  0
ARC
  5
10E12
  8
0
 10
3580.6799414375100241
 20
166.3160776859961061
 30
0.0
 40
0.0404526664622798
 50
180.4671367338879122
 51
246.4536264413399067
  0
ARC
  5
10E13
  8
0
 10
3580.6605127373532014
 20
166.2733325111142904
 30
0.0
 40
0.0065364332842835
 50
300.0000003464389806
 51
59.9999995734155576
  0
ARC
  5
10E14
  8
0
 10
3580.6799414375068409
 20
166.2305873362336115
 30
0.0
 40
0.0404526664588907
 50
113.5463735677555945
 51
179.532863267632905
  0
LINE
  5
10E15
  8
0
 10
3580.6394901155367734
 20
166.2309171461643018
 30
0.0
 11
3580.6394901157150343
 21
166.1188974823643036
 31
0.0
  0
ARC
  5
10E16
  8
0
 10
3580.6799414376869208
 20
166.1192272922961024
 30
0.0
 40
0.0404526664622798
 50
180.4671367338879122
 51
246.4536264413399067
  0
ARC
  5
10E17
  8
0
 10
3580.6605127375310076
 20
166.0764821174142867
 30
0.0
 40
0.0065364332842835
 50
300.0000003464389806
 51
59.9999995734155576
  0
ARC
  5
10E18
  8
0
 10
3580.6799414376841924
 20
166.0337369425336078
 30
0.0
 40
0.0404526664588907
 50
113.5463735677555945
 51
179.532863267632905
  0
LINE
  5
10E19
  8
0
 10
3580.6394901157150343
 20
166.0340667524642981
 30
0.0
 11
3580.6394901158919311
 21
165.9220470886643
 31
0.0
  0
ARC
  5
10E1A
  8
0
 10
3580.6799414378638176
 20
165.9223768985960987
 30
0.0
 40
0.0404526664622798
 50
180.4671367338879122
 51
246.4536264413399067
  0
ARC
  5
10E1B
  8
0
 10
3580.6605127377079043
 20
165.8796317237143114
 30
0.0
 40
0.0065364332842835
 50
300.0000003464389806
 51
59.9999995734155576
  0
ARC
  5
10E1C
  8
0
 10
3580.6799414378610891
 20
165.8368865488334905
 30
0.0
 40
0.0404526664588907
 50
113.5463735677555945
 51
179.532863267632905
  0
LINE
  5
10E1D
  8
0
 10
3580.6394901158919311
 20
165.8372163587642092
 30
0.0
 11
3580.639490116070192
 21
165.725196694964211
 31
0.0
  0
ARC
  5
10E1E
  8
0
 10
3580.6799414380420785
 20
165.7255265048960098
 30
0.0
 40
0.0404526664622798
 50
180.4671367338879122
 51
246.4536264413399067
  0
ARC
  5
10E1F
  8
0
 10
3580.660512737884801
 20
165.6827813300141941
 30
0.0
 40
0.0065364332842835
 50
300.0000003464389806
 51
59.9999995734155576
  0
ARC
  5
10E20
  8
0
 10
3580.6799414380388953
 20
165.6400361551334868
 30
0.0
 40
0.0404526664588907
 50
113.5463735677555945
 51
179.532863267632905
  0
LINE
  5
10E21
  8
0
 10
3580.639490116070192
 20
165.6403659650642055
 30
0.0
 11
3580.6394901162470887
 21
165.5283463012642073
 31
0.0
  0
ARC
  5
10E22
  8
0
 10
3580.6799414382198847
 20
165.5286761111960061
 30
0.0
 40
0.0404526664622798
 50
180.4671367338879122
 51
246.4536264413399067
  0
ARC
  5
10E23
  8
0
 10
3580.660512738063062
 20
165.4859309363141904
 30
0.0
 40
0.0065364332842835
 50
300.0000003464389806
 51
59.9999995734155576
  0
ARC
  5
10E24
  8
0
 10
3580.679941438215792
 20
165.4431857614335115
 30
0.0
 40
0.0404526664588907
 50
113.5463735677555945
 51
179.532863267632905
  0
LINE
  5
10E25
  8
0
 10
3580.6394901162470887
 20
165.4435155713642018
 30
0.0
 11
3580.6394901164248949
 21
165.3314959075642037
 31
0.0
  0
ARC
  5
10E26
  8
0
 10
3580.6799414383967815
 20
165.3318257174960024
 30
0.0
 40
0.0404526664622798
 50
180.4671367338879122
 51
246.4536264413399067
  0
ARC
  5
10E27
  8
0
 10
3580.6605127382399587
 20
165.2890805426141867
 30
0.0
 40
0.0065364332842835
 50
300.0000003464389806
 51
59.9999995734155576
  0
ARC
  5
10E28
  8
0
 10
3580.679941438394053
 20
165.2463353677333942
 30
0.0
 40
0.0404526664588907
 50
113.5463735677555945
 51
179.532863267632905
  0
LINE
  5
10E29
  8
0
 10
3580.6394901164248949
 20
165.2466651776641982
 30
0.0
 11
3580.6394901166017917
 21
165.1346455138642
 31
0.0
  0
ARC
  5
10E2A
  8
0
 10
3580.6799414385750424
 20
165.1349753237959987
 30
0.0
 40
0.0404526664622798
 50
180.4671367338879122
 51
246.4536264413399067
  0
ARC
  5
10E2B
  8
0
 10
3580.6605127384168554
 20
165.0922301489142114
 30
0.0
 40
0.0065364332842835
 50
300.0000003464389806
 51
59.9999995734155576
  0
ARC
  5
10E2C
  8
0
 10
3580.6799414385709497
 20
165.0494849740335042
 30
0.0
 40
0.0404526664588907
 50
113.5463735677555945
 51
179.532863267632905
  0
LINE
  5
10E2D
  8
0
 10
3580.6394901166017917
 20
165.0498147839641945
 30
0.0
 11
3580.6394901167791431
 21
164.9377951201641963
 31
0.0
  0
ARC
  5
10E2E
  8
0
 10
3580.6799414387510296
 20
164.9381249300959098
 30
0.0
 40
0.0404526664622798
 50
180.4671367338879122
 51
246.4536264413399067
  0
ARC
  5
10E2F
  8
0
 10
3580.6605127385951164
 20
164.8953797552140941
 30
0.0
 40
0.0065364332842835
 50
300.0000003464389806
 51
59.9999995734155576
  0
ARC
  5
10E30
  8
0
 10
3580.6799414387492106
 20
164.8526345803333868
 30
0.0
 40
0.0404526664588907
 50
113.5463735677555945
 51
179.532863267632905
  0
LINE
  5
10E31
  8
0
 10
3580.6394901167791431
 20
164.8529643902641055
 30
0.0
 11
3580.6394901169569494
 21
164.7409447264641074
 31
0.0
  0
ARC
  5
10E32
  8
0
 10
3580.6799414389288359
 20
164.7412745363959061
 30
0.0
 40
0.0404526664622798
 50
180.4671367338879122
 51
246.4536264413399067
  0
ARC
  5
10E33
  8
0
 10
3580.6605127387729226
 20
164.6985293615140904
 30
0.0
 40
0.0065364332842835
 50
300.0000003464389806
 51
59.9999995734155576
  0
ARC
  5
10E34
  8
0
 10
3580.6799414389261074
 20
164.6557841866334115
 30
0.0
 40
0.0404526664588907
 50
113.5463735677555945
 51
179.532863267632905
  0
LINE
  5
10E35
  8
0
 10
3580.6394901169569494
 20
164.6561139965641019
 30
0.0
 11
3580.6394901171338461
 21
164.5440943327641037
 31
0.0
  0
ARC
  5
10E36
  8
0
 10
3580.6799414391070968
 20
164.5444241426959024
 30
0.0
 40
0.0404526664622798
 50
180.4671367338879122
 51
246.4536264413399067
  0
ARC
  5
10E37
  8
0
 10
3580.6605127389498193
 20
164.5016789678140867
 30
0.0
 40
0.0065364332842835
 50
300.0000003464389806
 51
59.9999995734155576
  0
ARC
  5
10E38
  8
0
 10
3580.6799414391030041
 20
164.4589337929334079
 30
0.0
 40
0.0404526664588907
 50
113.5463735677555945
 51
179.532863267632905
  0
LINE
  5
10E39
  8
0
 10
3580.6394901171338461
 20
164.4592636028640982
 30
0.0
 11
3580.639490117312107
 21
164.3472439390641
 31
0.0
  0
ARC
  5
10E3A
  8
0
 10
3580.6799414392839935
 20
164.3475737489958988
 30
0.0
 40
0.0404526664622798
 50
180.4671367338879122
 51
246.4536264413399067
  0
ARC
  5
10E3B
  8
0
 10
3580.6605127391271708
 20
164.3048285741141115
 30
0.0
 40
0.0065364332842835
 50
300.0000003464389806
 51
59.9999995734155576
  0
ARC
  5
10E3C
  8
0
 10
3580.6799414392808103
 20
164.2620833992334042
 30
0.0
 40
0.0404526664588907
 50
113.5463735677555945
 51
179.532863267632905
  0
LINE
  5
10E3D
  8
0
 10
3580.639490117312107
 20
164.2624132091640945
 30
0.0
 11
3580.6394901174890038
 21
164.1503935453640963
 31
0.0
  0
ARC
  5
10E3E
  8
0
 10
3580.6799414394608903
 20
164.1507233552958951
 30
0.0
 40
0.0404526664622798
 50
180.4671367338879122
 51
246.4536264413399067
  0
ARC
  5
10E3F
  8
0
 10
3580.660512739304977
 20
164.1079781804141078
 30
0.0
 40
0.0065364332842835
 50
300.0000003464389806
 51
59.9999995734155576
  0
LINE
  5
10E40
  8
0
 10
3580.6394901153598767
 20
162.4907640508448878
 30
0.0
 11
3580.6394901153598767
 21
162.3787400021267047
 31
0.0
  0
ARC
  5
10E41
  8
0
 10
3580.6799414373322179
 20
162.3790698120585034
 30
0.0
 40
0.0404526664622798
 50
180.4671367338879122
 51
246.4536264413399067
  0
ARC
  5
10E42
  8
0
 10
3580.6605127371749404
 20
162.3363246371766877
 30
0.0
 40
0.0065364332842835
 50
300.0000003464389806
 51
59.9999995734155576
  0
ARC
  5
10E43
  8
0
 10
3580.6799414373299442
 20
162.2935794622960088
 30
0.0
 40
0.0404526664588907
 50
113.5463735677555945
 51
179.532863267632905
  0
LINE
  5
10E44
  8
0
 10
3580.7300412964600582
 20
160.3481356606642976
 30
0.0
 11
3580.7300412964600582
 21
159.3617988929131002
 31
0.0
  0
LINE
  5
10E45
  8
0
 10
3580.6394901153598767
 20
162.2939092722266992
 30
0.0
 11
3580.6394901153598767
 21
160.8205766055642982
 31
0.0
  0
LINE
  5
10E46
  8
0
 10
3580.6394901153598767
 20
160.8205766055642982
 30
0.0
 11
3580.7000377185781872
 21
160.4465608575642932
 31
0.0
  0
LINE
  5
10E47
  8
0
 10
3580.6119310601598045
 20
160.4465608575642932
 30
0.0
 11
3580.6119310601598045
 21
160.3481356606642976
 31
0.0
  0
ARC
  5
10E48
  8
0
 10
3583.9072709843539997
 20
168.390750725278707
 30
0.0
 40
0.4421706360982565
 50
85.9423025048246814
 51
184.1536753680582024
  0
ARC
  5
10E49
  8
0
 10
3579.5859388733870219
 20
168.3766575234386949
 30
0.0
 40
0.4554792488868261
 50
357.7434545094068881
 51
92.1605676177067039
  0
LINE
  5
10E4A
  8
0
 10
3590.287127910559775
 20
178.6456671311642879
 30
0.0
 11
3573.2201987767598439
 21
178.6456671311642879
 31
0.0
  0
LINE
  5
10E4B
  8
0
 10
3590.287127910559775
 20
178.7570226462642893
 30
0.0
 11
3573.2201987767598439
 21
178.7570226462642893
 31
0.0
  0
LINE
  5
10E4C
  8
0
 10
3585.3987981827722251
 20
179.4617301488642909
 30
0.0
 11
3578.1119310601598045
 21
179.4617301488642909
 31
0.0
  0
LINE
  5
10E4D
  8
0
 10
3585.7635058633600238
 20
180.7865332984642919
 30
0.0
 11
3577.7438208239600499
 21
180.7865332984642919
 31
0.0
  0
LINE
  5
10E4E
  8
0
 10
3585.7635058633600238
 20
186.4046435347642898
 30
0.0
 11
3577.7438208239600499
 21
186.4046435347642898
 31
0.0
  0
LINE
  5
10E4F
  8
0
 10
3585.3953956272312098
 20
187.7294466843642908
 30
0.0
 11
3578.1119310600888639
 21
187.7294466843642908
 31
0.0
  0
LINE
  5
10E50
  8
0
 10
3591.2035810989600577
 20
187.8081907788642866
 30
0.0
 11
3577.6935505962169373
 21
187.8081907788642866
 31
0.0
  0
LINE
  5
10E51
  8
0
 10
3575.3946360787581398
 20
187.8081907788642866
 30
0.0
 11
3572.303745588360016
 21
187.8081907788642866
 31
0.0
  0
CIRCLE
  5
10E52
  8
0
 10
3581.7536633436598095
 20
158.7530726686142941
 30
0.0
 40
0.9645669291500013
  0
ARC
  5
10E54
  8
0
 10
3582.8273852438378526
 20
164.0652330072867926
 30
0.0
 40
0.0404526664588907
 50
0.4671367323670772
 51
66.4536264322444055
  0
ARC
  5
10E55
  8
0
 10
3580.6799414350789448
 20
164.0652330072867926
 30
0.0
 40
0.0404526664588907
 50
113.5463735677555945
 51
179.532863267632905
  0
LINE
  5
10E56
  8
0
 10
3582.8678365658070106
 20
164.0655628172175113
 30
0.0
 11
3582.8678365656292044
 21
163.9535431534175132
 31
0.0
  0
ARC
  5
10E57
  8
0
 10
3582.8273852436568632
 20
163.9538729633493119
 30
0.0
 40
0.0404526664622798
 50
293.5463735586600933
 51
359.5328632661119741
  0
ARC
  5
10E58
  8
0
 10
3582.8468139438141407
 20
163.9111277884674962
 30
0.0
 40
0.0065364332842835
 50
120.0000004265844069
 51
239.999999653560991
  0
LINE
  5
10E59
  8
0
 10
3582.8435457271298219
 20
163.9167885057175909
 30
0.0
 11
3580.663780951787885
 21
163.9167885057175909
 31
0.0
  0
LINE
  5
10E5A
  8
0
 10
3582.8435457271380074
 20
163.9054670712129109
 30
0.0
 11
3580.6637809517801543
 21
163.9054670712129109
 31
0.0
  0
LINE
  5
10E5B
  8
0
 10
3580.639490113111151
 20
164.0655628172175113
 30
0.0
 11
3580.6394901132880477
 21
163.9535431534175132
 31
0.0
  0
ARC
  5
10E5C
  8
0
 10
3580.6799414352599342
 20
163.9538729633493119
 30
0.0
 40
0.0404526664622798
 50
180.4671367338879122
 51
246.4536264413399067
  0
ARC
  5
10E5D
  8
0
 10
3580.660512735104021
 20
163.9111277884674962
 30
0.0
 40
0.0065364332842835
 50
300.0000003464389806
 51
59.9999995734155576
  0
ARC
  5
10E5E
  8
0
 10
3582.8273852396368966
 20
163.8683826153402094
 30
0.0
 40
0.0404526664588907
 50
0.4671367323670772
 51
66.4536264322444055
  0
ARC
  5
10E5F
  8
0
 10
3580.6799414308779888
 20
163.8683826153402094
 30
0.0
 40
0.0404526664588907
 50
113.5463735677555945
 51
179.532863267632905
  0
LINE
  5
10E60
  8
0
 10
3582.8678365616060546
 20
163.8687124252708998
 30
0.0
 11
3582.8678365614277936
 21
163.7566927614709016
 31
0.0
  0
ARC
  5
10E61
  8
0
 10
3582.8273852394559071
 20
163.7570225714027004
 30
0.0
 40
0.0404526664622798
 50
293.5463735586600933
 51
359.5328632661119741
  0
ARC
  5
10E62
  8
0
 10
3582.8468139396131846
 20
163.714277396520913
 30
0.0
 40
0.0065364332842835
 50
120.0000004265844069
 51
239.999999653560991
  0
LINE
  5
10E63
  8
0
 10
3582.8435457229288659
 20
163.7199381137710077
 30
0.0
 11
3580.6637809475860195
 21
163.7199381137710077
 31
0.0
  0
LINE
  5
10E64
  8
0
 10
3582.8435457229370513
 20
163.708616679266413
 30
0.0
 11
3580.6637809475791983
 21
163.708616679266413
 31
0.0
  0
LINE
  5
10E65
  8
0
 10
3580.639490108910195
 20
163.8687124252708998
 30
0.0
 11
3580.6394901090870917
 21
163.7566927614709016
 31
0.0
  0
ARC
  5
10E66
  8
0
 10
3580.6799414310589782
 20
163.7570225714027004
 30
0.0
 40
0.0404526664622798
 50
180.4671367338879122
 51
246.4536264413399067
  0
ARC
  5
10E67
  8
0
 10
3580.6605127309021555
 20
163.714277396520913
 30
0.0
 40
0.0065364332842835
 50
300.0000003464389806
 51
59.9999995734155576
  0
ARC
  5
10E68
  8
0
 10
3582.8273852354359406
 20
163.6715322233937115
 30
0.0
 40
0.0404526664588907
 50
0.4671367323670772
 51
66.4536264322444055
  0
ARC
  5
10E69
  8
0
 10
3580.6799414266770327
 20
163.6715322233937115
 30
0.0
 40
0.0404526664588907
 50
113.5463735677555945
 51
179.532863267632905
  0
LINE
  5
10E6A
  8
0
 10
3582.8678365574050986
 20
163.6718620333244019
 30
0.0
 11
3582.8678365572268376
 21
163.5598423695244037
 31
0.0
  0
ARC
  5
10E6B
  8
0
 10
3582.8273852352549511
 20
163.5601721794562025
 30
0.0
 40
0.0404526664622798
 50
293.5463735586600933
 51
359.5328632661119741
  0
ARC
  5
10E6C
  8
0
 10
3582.8468139354117739
 20
163.5174270045743867
 30
0.0
 40
0.0065364332842835
 50
120.0000004265844069
 51
239.999999653560991
  0
LINE
  5
10E6D
  8
0
 10
3582.8435457187270003
 20
163.5230877218245098
 30
0.0
 11
3580.6637809433850634
 21
163.5230877218245098
 31
0.0
  0
LINE
  5
10E6E
  8
0
 10
3582.8435457187351858
 20
163.5117662873198014
 30
0.0
 11
3580.663780943376878
 21
163.5117662873198014
 31
0.0
  0
LINE
  5
10E6F
  8
0
 10
3580.6394901047078747
 20
163.6718620333244019
 30
0.0
 11
3580.6394901048861357
 21
163.5598423695244037
 31
0.0
  0
ARC
  5
10E70
  8
0
 10
3580.6799414268580222
 20
163.5601721794562025
 30
0.0
 40
0.0404526664622798
 50
180.4671367338879122
 51
246.4536264413399067
  0
ARC
  5
10E71
  8
0
 10
3580.6605127267011994
 20
163.5174270045743867
 30
0.0
 40
0.0065364332842835
 50
300.0000003464389806
 51
59.9999995734155576
  0
ARC
  5
10E72
  8
0
 10
3582.827385231234075
 20
163.4746818314471
 30
0.0
 40
0.0404526664588907
 50
0.4671367323670772
 51
66.4536264322444055
  0
ARC
  5
10E73
  8
0
 10
3580.6799414224760767
 20
163.4746818314471
 30
0.0
 40
0.0404526664588907
 50
113.5463735677555945
 51
179.532863267632905
  0
LINE
  5
10E74
  8
0
 10
3582.8678365532041425
 20
163.4750116413777903
 30
0.0
 11
3582.8678365530258816
 21
163.3629919775777921
 31
0.0
  0
ARC
  5
10E75
  8
0
 10
3582.8273852310539951
 20
163.3633217875095909
 30
0.0
 40
0.0404526664622798
 50
293.5463735586600933
 51
359.5328632661119741
  0
ARC
  5
10E76
  8
0
 10
3582.8468139312108178
 20
163.3205766126278036
 30
0.0
 40
0.0065364332842835
 50
120.0000004265844069
 51
239.999999653560991
  0
LINE
  5
10E77
  8
0
 10
3582.8435457145269538
 20
163.3262373298778982
 30
0.0
 11
3580.6637809391841074
 21
163.3262373298778982
 31
0.0
  0
LINE
  5
10E78
  8
0
 10
3582.843545714533775
 20
163.3149158953731899
 30
0.0
 11
3580.6637809391768315
 21
163.3149158953731899
 31
0.0
  0
LINE
  5
10E79
  8
0
 10
3580.6394901005060092
 20
163.4750116413777903
 30
0.0
 11
3580.6394901006851796
 21
163.3629919775777921
 31
0.0
  0
ARC
  5
10E7A
  8
0
 10
3580.6799414226570661
 20
163.3633217875095909
 30
0.0
 40
0.0404526664622798
 50
180.4671367338879122
 51
246.4536264413399067
  0
ARC
  5
10E7B
  8
0
 10
3580.6605127224997887
 20
163.3205766126278036
 30
0.0
 40
0.0065364332842835
 50
300.0000003464389806
 51
59.9999995734155576
  0
ARC
  5
10E7C
  8
0
 10
3582.8273852270340285
 20
163.2778314395006021
 30
0.0
 40
0.0404526664588907
 50
0.4671367323670772
 51
66.4536264322444055
  0
ARC
  5
10E7D
  8
0
 10
3580.6799414182751207
 20
163.2778314395006021
 30
0.0
 40
0.0404526664588907
 50
113.5463735677555945
 51
179.532863267632905
  0
LINE
  5
10E7E
  8
0
 10
3582.8678365490018223
 20
163.2781612494312924
 30
0.0
 11
3582.8678365488249256
 21
163.1661415856312942
 31
0.0
  0
ARC
  5
10E7F
  8
0
 10
3582.8273852268530391
 20
163.1664713955630077
 30
0.0
 40
0.0404526664622798
 50
293.5463735586600933
 51
359.5328632661119741
  0
ARC
  5
10E80
  8
0
 10
3582.8468139270089523
 20
163.123726220681192
 30
0.0
 40
0.0065364332842835
 50
120.0000004265844069
 51
239.999999653560991
  0
LINE
  5
10E81
  8
0
 10
3582.8435457103250883
 20
163.1293869379314003
 30
0.0
 11
3580.6637809349831514
 21
163.1293869379314003
 31
0.0
  0
LINE
  5
10E82
  8
0
 10
3582.843545710332819
 20
163.118065503426692
 30
0.0
 11
3580.6637809349749659
 21
163.118065503426692
 31
0.0
  0
LINE
  5
10E83
  8
0
 10
3580.6394900963059627
 20
163.2781612494312924
 30
0.0
 11
3580.6394900964828594
 21
163.1661415856312942
 31
0.0
  0
ARC
  5
10E84
  8
0
 10
3580.6799414184561101
 20
163.1664713955630077
 30
0.0
 40
0.0404526664622798
 50
180.4671367338879122
 51
246.4536264413399067
  0
ARC
  5
10E85
  8
0
 10
3580.6605127182988326
 20
163.123726220681192
 30
0.0
 40
0.0065364332842835
 50
300.0000003464389806
 51
59.9999995734155576
  0
ARC
  5
10E86
  8
0
 10
3582.827385222832163
 20
163.0809810475539905
 30
0.0
 40
0.0404526664588907
 50
0.4671367323670772
 51
66.4536264322444055
  0
ARC
  5
10E87
  8
0
 10
3580.6799414140741646
 20
163.0809810475539905
 30
0.0
 40
0.0404526664588907
 50
113.5463735677555945
 51
179.532863267632905
  0
LINE
  5
10E88
  8
0
 10
3582.8678365448017757
 20
163.0813108574847092
 30
0.0
 11
3582.8678365446239695
 21
162.9692911936847111
 31
0.0
  0
ARC
  5
10E89
  8
0
 10
3582.8273852226511735
 20
162.9696210036165098
 30
0.0
 40
0.0404526664622798
 50
293.5463735586600933
 51
359.5328632661119741
  0
ARC
  5
10E8A
  8
0
 10
3582.8468139228079963
 20
162.9268758287346941
 30
0.0
 40
0.0065364332842835
 50
120.0000004265844069
 51
239.999999653560991
  0
LINE
  5
10E8B
  8
0
 10
3582.8435457061241323
 20
162.9325365459847887
 30
0.0
 11
3580.6637809307821954
 21
162.9325365459847887
 31
0.0
  0
LINE
  5
10E8C
  8
0
 10
3582.843545706131863
 20
162.9212151114801088
 30
0.0
 11
3580.6637809307740099
 21
162.9212151114801088
 31
0.0
  0
LINE
  5
10E8D
  8
0
 10
3580.6394900921040971
 20
163.0813108574847092
 30
0.0
 11
3580.6394900922819033
 21
162.9692911936847111
 31
0.0
  0
ARC
  5
10E8E
  8
0
 10
3580.6799414142551541
 20
162.9696210036165098
 30
0.0
 40
0.0404526664622798
 50
180.4671367338879122
 51
246.4536264413399067
  0
ARC
  5
10E8F
  8
0
 10
3580.6605127140978766
 20
162.9268758287346941
 30
0.0
 40
0.0065364332842835
 50
300.0000003464389806
 51
59.9999995734155576
  0
ARC
  5
10E90
  8
0
 10
3582.827385218631207
 20
162.8841306556074073
 30
0.0
 40
0.0404526664588907
 50
0.4671367323670772
 51
66.4536264322444055
  0
ARC
  5
10E91
  8
0
 10
3580.6799414098732086
 20
162.8841306556074073
 30
0.0
 40
0.0404526664588907
 50
113.5463735677555945
 51
179.532863267632905
  0
LINE
  5
10E92
  8
0
 10
3582.8678365405999102
 20
162.8844604655380977
 30
0.0
 11
3582.8678365404230135
 21
162.7724408017380995
 31
0.0
  0
ARC
  5
10E93
  8
0
 10
3582.8273852184502175
 20
162.7727706116698982
 30
0.0
 40
0.0404526664622798
 50
293.5463735586600933
 51
359.5328632661119741
  0
ARC
  5
10E94
  8
0
 10
3582.8468139186070403
 20
162.7300254367881109
 30
0.0
 40
0.0065364332842835
 50
120.0000004265844069
 51
239.999999653560991
  0
LINE
  5
10E95
  8
0
 10
3582.8435457019231762
 20
162.7356861540382056
 30
0.0
 11
3580.6637809265798751
 21
162.7356861540382056
 31
0.0
  0
LINE
  5
10E96
  8
0
 10
3582.8435457019299974
 20
162.7243647195334972
 30
0.0
 11
3580.6637809265730539
 21
162.7243647195334972
 31
0.0
  0
LINE
  5
10E97
  8
0
 10
3580.6394900879040506
 20
162.8844604655380977
 30
0.0
 11
3580.6394900880800378
 21
162.7724408017380995
 31
0.0
  0
ARC
  5
10E98
  8
0
 10
3580.6799414100528338
 20
162.7727706116698982
 30
0.0
 40
0.0404526664622798
 50
180.4671367338879122
 51
246.4536264413399067
  0
ARC
  5
10E99
  8
0
 10
3580.6605127098960111
 20
162.7300254367881109
 30
0.0
 40
0.0065364332842835
 50
300.0000003464389806
 51
59.9999995734155576
  0
ARC
  5
10E9A
  8
0
 10
3582.8273852144297962
 20
162.6872802636609094
 30
0.0
 40
0.0404526664588907
 50
0.4671367323670772
 51
66.4536264322444055
  0
ARC
  5
10E9B
  8
0
 10
3580.6799414056717978
 20
162.6872802636609094
 30
0.0
 40
0.0404526664588907
 50
113.5463735677555945
 51
179.532863267632905
  0
LINE
  5
10E9C
  8
0
 10
3582.8678365363989542
 20
162.6876100735915998
 30
0.0
 11
3582.8678365362220575
 21
162.5755904097916016
 31
0.0
  0
ARC
  5
10E9D
  8
0
 10
3582.8273852142488067
 20
162.5759202197234004
 30
0.0
 40
0.0404526664622798
 50
293.5463735586600933
 51
359.5328632661119741
  0
ARC
  5
10E9E
  8
0
 10
3582.8468139144060842
 20
162.533175044841613
 30
0.0
 40
0.0065364332842835
 50
120.0000004265844069
 51
239.999999653560991
  0
LINE
  5
10E9F
  8
0
 10
3582.8435456977222202
 20
162.5388357620917077
 30
0.0
 11
3580.6637809223789191
 21
162.5388357620917077
 31
0.0
  0
LINE
  5
10EA0
  8
0
 10
3582.8435456977290414
 20
162.5275143275869993
 30
0.0
 11
3580.6637809223720978
 21
162.5275143275869993
 31
0.0
  0
LINE
  5
10EA1
  8
0
 10
3580.6394900837021851
 20
162.6876100735915998
 30
0.0
 11
3580.6394900838799913
 21
162.5755904097916016
 31
0.0
  0
ARC
  5
10EA2
  8
0
 10
3580.6799414058518778
 20
162.5759202197234004
 30
0.0
 40
0.0404526664622798
 50
180.4671367338879122
 51
246.4536264413399067
  0
ARC
  5
10EA3
  8
0
 10
3580.6605127056959645
 20
162.533175044841613
 30
0.0
 40
0.0065364332842835
 50
300.0000003464389806
 51
59.9999995734155576
  0
ARC
  5
10EA4
  8
0
 10
3582.8273852102288402
 20
162.4904298717142979
 30
0.0
 40
0.0404526664588907
 50
0.460177213551927
 51
66.4536264322444055
  0
ARC
  5
10EA5
  8
0
 10
3580.6799414014699323
 20
162.4904298717142979
 30
0.0
 40
0.0404526664588925
 50
113.5463735677562056
 51
179.5266746731986132
  0
LINE
  5
10EA6
  8
0
 10
3580.0410649184600516
 20
168.3587234981642951
 30
0.0
 11
3580.0410649184600516
 21
168.1625214874642893
 31
0.0
  0
LINE
  5
10EA7
  8
0
 10
3590.4839783042598356
 20
180.9971671568642932
 30
0.0
 11
3591.8619310601598045
 21
180.9971671568642932
 31
0.0
  0
CIRCLE
  5
10EA8
  8
0
 10
3588.0528759420599272
 20
168.9105529835642869
 30
0.0
 40
0.1377952755999985
  0
CIRCLE
  5
10EA9
  8
0
 10
3575.4544507452601465
 20
168.9105529835642869
 30
0.0
 40
0.1377952756000003
  0
LINE
  5
10EAA
  8
0
 10
3591.8619310601598045
 20
180.9971671568642932
 30
0.0
 11
3591.8619310601598045
 21
156.5877183379643043
 31
0.0
  0
LINE
  5
10EAB
  8
0
 10
3590.287127910559775
 20
180.8003167631642896
 30
0.0
 11
3590.287127910559775
 21
156.5877183379643043
 31
0.0
  0
ARC
  5
10EAC
  8
0
 10
3590.4839783042598356
 20
180.8003167631642896
 30
0.0
 40
0.1968503936999859
 50
90.0
 51
180.0000000000032117
  0
CIRCLE
  5
10EAD
  8
0
 10
3591.2418523200599338
 20
169.2255136135642886
 30
0.0
 40
0.0944881889999998
  0
ARC
  5
10EAE
  8
0
 10
3581.7536633436598095
 20
153.4385509126643115
 30
0.0
 40
2.3622047243999988
 50
96.6426086994829774
 51
83.3573913005170084
  0
ARC
  5
10EAF
  8
0
 10
3581.7536633436598095
 20
153.4385509126643115
 30
0.0
 40
2.4409448819000001
 50
96.7053339799947764
 51
83.2946660200052236
  0
LINE
  5
10EB0
  8
0
 10
3581.8324035011601154
 20
156.5877183379643043
 30
0.0
 11
3581.8324035011601154
 21
155.926301015064297
 31
0.0
  0
LINE
  5
10EB1
  8
0
 10
3581.9701987767598439
 20
155.940874837264289
 30
0.0
 11
3581.9701987767598439
 21
156.5491347582643016
 31
0.0
  0
LINE
  5
10EB2
  8
0
 10
3581.9701987767598439
 20
156.5491347582643016
 30
0.0
 11
3581.8914586192599927
 21
156.5491347582643016
 31
0.0
  0
LINE
  5
10EB3
  8
0
 10
3581.8914586192599927
 20
156.5491347582643016
 30
0.0
 11
3581.8914586192599927
 21
155.940874837264289
 31
0.0
  0
LINE
  5
10EB4
  8
0
 10
3581.9701987767598439
 20
156.465079640172803
 30
0.0
 11
3582.2228804703368041
 21
156.4650796401408002
 31
0.0
  0
LINE
  5
10EB5
  8
0
 10
3582.2228804703368041
 20
156.4650796401408002
 30
0.0
 11
3582.2275182379421494
 21
155.9638994401884133
 31
0.0
  0
LINE
  5
10EB6
  8
0
 10
3582.2237420838600883
 20
156.3719694038643127
 30
0.0
 11
3582.3245294853600171
 21
156.3719694038643127
 31
0.0
  0
LINE
  5
10EB7
  8
0
 10
3582.3245294853600171
 20
156.3719694038643127
 30
0.0
 11
3582.3245294853600171
 21
156.057009676464304
 31
0.0
  0
ARC
  5
10EB8
  8
0
 10
3581.8967496194259184
 20
156.3437831936822136
 30
0.0
 40
0.3261553802764951
 50
336.6455133764001744
 51
21.8327030764508585
  0
LINE
  5
10EB9
  8
0
 10
3582.1961830286691111
 20
156.2144890889740054
 30
0.0
 11
3581.9977578318598717
 21
156.2144890889643136
 31
0.0
  0
LINE
  5
10EBA
  8
0
 10
3581.615868068060081
 20
156.3719694038643127
 30
0.0
 11
3581.6749231861599583
 21
156.3719694038643127
 31
0.0
  0
LINE
  5
10EBB
  8
0
 10
3581.7516948397601482
 20
156.3719694038643127
 30
0.0
 11
3581.7556318475599255
 21
156.3719694038643127
 31
0.0
  0
LINE
  5
10EBC
  8
0
 10
3581.8324035011601154
 20
156.3719694038643127
 30
0.0
 11
3581.8914586192599927
 21
156.3719694038643127
 31
0.0
  0
ARC
  5
10EBD
  8
0
 10
3582.2971912411030644
 20
156.3437831936822136
 30
0.0
 40
0.3261553802764951
 50
158.1672969235490882
 51
203.3544866235997972
  0
LINE
  5
10EBE
  8
0
 10
3581.9701987767598439
 20
155.9638994401558989
 30
0.0
 11
3582.2275182379421494
 21
155.9638994401884133
 31
0.0
  0
LINE
  5
10EBF
  8
0
 10
3582.2266566244197747
 20
156.057009676464304
 30
0.0
 11
3582.3245294853600171
 21
156.057009676464304
 31
0.0
  0
ARC
  5
10EC0
  8
0
 10
3581.8967496194259184
 20
156.0851958866464884
 30
0.0
 40
0.3261553802764951
 50
338.1672969235490882
 51
23.3544866235998008
  0
LINE
  5
10EC1
  8
0
 10
3581.615868068060081
 20
156.057009676464304
 30
0.0
 11
3581.6749231861599583
 21
156.057009676464304
 31
0.0
  0
LINE
  5
10EC2
  8
0
 10
3581.7516948397601482
 20
156.057009676464304
 30
0.0
 11
3581.7556318475599255
 21
156.057009676464304
 31
0.0
  0
LINE
  5
10EC3
  8
0
 10
3581.8324035011601154
 20
156.057009676464304
 30
0.0
 11
3581.8914586192599927
 21
156.057009676464304
 31
0.0
  0
ARC
  5
10EC4
  8
0
 10
3582.2971912411030644
 20
156.0851958866464884
 30
0.0
 40
0.3261553802764951
 50
156.6455133764002028
 51
201.8327030764507981
  0
ARC
  5
10EC5
  8
0
 10
3582.048953404544136
 20
155.9408803390811045
 30
0.0
 40
0.0787546279761071
 50
180.0040026965992865
 51
262.5014729465793835
  0
ARC
  5
10EC6
  8
0
 10
3582.049029464258183
 20
155.9409092581136065
 30
0.0
 40
0.1575708487575555
 50
180.0125160803661117
 51
261.9315303867160196
  0
LINE
  5
10EC7
  8
0
 10
3581.537127910559775
 20
155.940874837264289
 30
0.0
 11
3581.537127910559775
 21
156.5491347582643016
 31
0.0
  0
LINE
  5
10EC8
  8
0
 10
3581.537127910559775
 20
156.5491347582643016
 30
0.0
 11
3581.615868068060081
 21
156.5491347582643016
 31
0.0
  0
LINE
  5
10EC9
  8
0
 10
3581.615868068060081
 20
156.5491347582643016
 30
0.0
 11
3581.615868068060081
 21
155.940874837264289
 31
0.0
  0
ARC
  5
10ECA
  8
0
 10
3581.4583732827768472
 20
155.9408803390811045
 30
0.0
 40
0.0787546279761071
 50
277.4985270534206165
 51
359.9959973034005998
  0
ARC
  5
10ECB
  8
0
 10
3581.4582972230618907
 20
155.9409092581136065
 30
0.0
 40
0.1575708487575555
 50
278.0684696132839235
 51
359.9874839196339167
  0
ARC
  5
10ECC
  8
0
 10
3581.5213798790600777
 20
156.3325993251642956
 30
0.0
 40
0.1574803150000017
 50
84.2608295227384616
 51
180.0
  0
LINE
  5
10ECD
  8
0
 10
3581.3638995640599205
 20
156.3325993251642956
 30
0.0
 11
3581.3638995640599205
 21
156.0963946353643053
 31
0.0
  0
ARC
  5
10ECE
  8
0
 10
3581.5213956624511411
 20
156.0963946353643053
 30
0.0
 40
0.15749609839086
 50
180.0
 51
275.7295077244182835
  0
LINE
  5
10ECF
  8
0
 10
3581.7556318475599255
 20
155.9282695190642869
 30
0.0
 11
3581.7556318475599255
 21
156.5877183379643043
 31
0.0
  0
LINE
  5
10ED0
  8
0
 10
3581.6749231861599583
 20
156.5877183379643043
 30
0.0
 11
3581.6749231861599583
 21
155.926301015064297
 31
0.0
  0
LINE
  5
10ED1
  8
0
 10
3581.7516948397601482
 20
155.9282695190642869
 30
0.0
 11
3581.7516948397601482
 21
156.5877183379643043
 31
0.0
  0
ARC
  5
10ED2
  8
0
 10
3581.7536633436598095
 20
155.926301015064297
 30
0.0
 40
0.0787401574999986
 50
180.0
 51
0.0
  0
ARC
  5
10ED3
  8
0
 10
3581.7536633436598095
 20
155.9282695190642869
 30
0.0
 40
0.0019685039000006
 50
180.000000000052097
 51
359.9999999999478746
  0
LINE
  5
10ED4
  8
0
 10
3591.8619310601598045
 20
156.5877183379643043
 30
0.0
 11
3571.6453956271598145
 21
156.5877183379643043
 31
0.0
  0
CIRCLE
  5
10ED5
  8
0
 10
3590.6020885405600893
 20
156.9814191253643116
 30
0.0
 40
0.1811023622000007
  0
CIRCLE
  5
10ED6
  8
0
 10
3591.3894901153598767
 20
157.7688207001642979
 30
0.0
 40
0.1811023621999999
  0
CIRCLE
  5
10ED7
  8
0
 10
3586.2812223987598372
 20
157.3751199127642906
 30
0.0
 40
0.1870078739999998
  0
LINE
  5
10ED8
  8
0
 10
3581.9662617688600221
 20
156.5877183379643043
 30
0.0
 11
3581.9662617688600221
 21
156.5778758182642889
 31
0.0
  0
ARC
  5
10ED9
  8
0
 10
3581.9957893280179633
 20
156.5778758182642889
 30
0.0
 40
0.0295275591578541
 50
180.0000000000212026
 51
270.0035863605958752
  0
LINE
  5
10EDA
  8
0
 10
3581.9957911762598997
 20
156.5483482591642996
 30
0.0
 11
3582.2989389336671593
 21
156.5483672343345916
 31
0.0
  0
ARC
  5
10EDB
  8
0
 10
3582.2989370853069886
 20
156.5778966496766031
 30
0.0
 40
0.029529415399919
 50
270.0035863605958752
 51
359.959580909732324
  0
LINE
  5
10EDC
  8
0
 10
3582.3284664933598833
 20
156.5778758182642889
 30
0.0
 11
3582.328473436728018
 21
156.5877183355152056
 31
0.0
  0
LINE
  5
10EDD
  8
0
 10
3584.4465767294600482
 20
156.5877183379643043
 30
0.0
 11
3584.4465767294600482
 21
156.5778758182642889
 31
0.0
  0
ARC
  5
10EDE
  8
0
 10
3584.4761042885597817
 20
156.5778758182642889
 30
0.0
 40
0.0295275591000053
 50
180.0000000000098055
 51
270.0
  0
LINE
  5
10EDF
  8
0
 10
3584.4761042885597817
 20
156.5483482591642996
 30
0.0
 11
3584.7792538948601759
 21
156.5483482591642996
 31
0.0
  0
ARC
  5
10EE0
  8
0
 10
3584.7792538948601759
 20
156.5778758182642889
 30
0.0
 40
0.0295275590999946
 50
270.0
 51
0.000000000117248
  0
LINE
  5
10EE1
  8
0
 10
3584.8087814539599094
 20
156.5778758182642889
 30
0.0
 11
3584.8087814539599094
 21
156.5877183379643043
 31
0.0
  0
LINE
  5
10EE2
  8
0
 10
3585.6079940522599827
 20
156.5877183379643043
 30
0.0
 11
3585.6079940522599827
 21
156.5778758182642889
 31
0.0
  0
ARC
  5
10EE3
  8
0
 10
3585.6375216113601709
 20
156.5778758182642889
 30
0.0
 40
0.0295275591000053
 50
180.0000000000098055
 51
270.0
  0
LINE
  5
10EE4
  8
0
 10
3585.6375216113601709
 20
156.5483482591642996
 30
0.0
 11
3585.9406712176601104
 21
156.5483482591642996
 31
0.0
  0
ARC
  5
10EE5
  8
0
 10
3585.9406712176601104
 20
156.5778758182642889
 30
0.0
 40
0.0295275590999946
 50
270.0
 51
0.000000000117248
  0
LINE
  5
10EE6
  8
0
 10
3585.9701987767598439
 20
156.5778758182642889
 30
0.0
 11
3585.9701987767598439
 21
156.5877183379643043
 31
0.0
  0
LINE
  5
10EE7
  8
0
 10
3586.7694113751599616
 20
156.5877183379643043
 30
0.0
 11
3586.7694113751599616
 21
156.5778758182642889
 31
0.0
  0
ARC
  5
10EE8
  8
0
 10
3586.7989389342601498
 20
156.5778758182642889
 30
0.0
 40
0.0295275591000053
 50
180.0000000000098055
 51
270.0
  0
LINE
  5
10EE9
  8
0
 10
3586.7989389342601498
 20
156.5483482591642996
 30
0.0
 11
3587.1020885405600893
 21
156.5483482591642996
 31
0.0
  0
ARC
  5
10EEA
  8
0
 10
3587.1020885405600893
 20
156.5778758182642889
 30
0.0
 40
0.0295275590999946
 50
270.0
 51
0.000000000117248
  0
LINE
  5
10EEB
  8
0
 10
3587.1316160996598228
 20
156.5778758182642889
 30
0.0
 11
3587.1316160996598228
 21
156.5877183379643043
 31
0.0
  0
ARC
  5
10EEC
  8
0
 10
3583.15798905155998
 20
156.733387629264314
 30
0.0
 40
0.1968503936999966
 50
270.0000000038040184
 51
312.2685844460232261
  0
ARC
  5
10EED
  8
0
 10
3583.2367288087598354
 20
156.733387629264314
 30
0.0
 40
0.2440944881999896
 50
270.0
 51
323.3607860689102154
  0
LINE
  5
10EEE
  8
0
 10
3583.2367288087598354
 20
156.4892931410643087
 30
0.0
 11
3581.9701987767598439
 21
156.4892931410643087
 31
0.0
  0
LINE
  5
10EEF
  8
0
 10
3581.8914586192599927
 20
156.4892931410643087
 30
0.0
 11
3581.8324035011601154
 21
156.4892931410643087
 31
0.0
  0
LINE
  5
10EF0
  8
0
 10
3581.7556318475599255
 20
156.4892931410643087
 30
0.0
 11
3581.7516948397601482
 21
156.4892931410643087
 31
0.0
  0
LINE
  5
10EF1
  8
0
 10
3581.6749231861599583
 20
156.4892931410643087
 30
0.0
 11
3581.615868068060081
 21
156.4892931410643087
 31
0.0
  0
LINE
  5
10EF2
  8
0
 10
3581.537127910559775
 20
156.4892931410643087
 30
0.0
 11
3581.5370992197331361
 21
156.4892931410643087
 31
0.0
  0
LINE
  5
10EF3
  8
0
 10
3583.1579890515731677
 20
156.5365372355643103
 30
0.0
 11
3581.9701987767598439
 21
156.5365372355643103
 31
0.0
  0
LINE
  5
10EF4
  8
0
 10
3581.8914586192599927
 20
156.5365372355643103
 30
0.0
 11
3581.8324035011601154
 21
156.5365372355643103
 31
0.0
  0
LINE
  5
10EF5
  8
0
 10
3581.7556318475599255
 20
156.5365372355643103
 30
0.0
 11
3581.7516948397601482
 21
156.5365372355643103
 31
0.0
  0
LINE
  5
10EF6
  8
0
 10
3581.6749231861599583
 20
156.5365372355643103
 30
0.0
 11
3581.615868068060081
 21
156.5365372355643103
 31
0.0
  0
LINE
  5
10EF7
  8
0
 10
3582.4938208239600499
 20
156.5365372355643103
 30
0.0
 11
3582.4938208239600499
 21
156.5877183379643043
 31
0.0
  0
LINE
  5
10EF8
  8
0
 10
3582.5410649184609611
 20
156.5365372355643103
 30
0.0
 11
3582.5410649184609611
 21
156.5877183379643043
 31
0.0
  0
CIRCLE
  5
10F04
  8
0
 10
3578.2103320973601512
 20
157.3632739102642972
 30
0.0
 40
0.2011124239658676
  0
LINE
  5
10F05
  8
0
 10
3580.7307986935247754
 20
158.1625214875643053
 30
0.0
 11
3573.2201987767598439
 21
158.1625214875643053
 31
0.0
  0
LINE
  5
10F06
  8
0
 10
3573.0233483830597834
 20
180.9971671568642932
 30
0.0
 11
3571.6453956271598145
 21
180.9971671568642932
 31
0.0
  0
LINE
  5
10F07
  8
0
 10
3571.6453956271598145
 20
180.9971671568642932
 30
0.0
 11
3571.6453956271598145
 21
156.5877183379643043
 31
0.0
  0
LINE
  5
10F08
  8
0
 10
3573.2201987767598439
 20
180.8003167631642896
 30
0.0
 11
3573.2201987767598439
 21
156.5877183379643043
 31
0.0
  0
ARC
  5
10F09
  8
0
 10
3573.0233483830597834
 20
180.8003167631642896
 30
0.0
 40
0.1968503936999859
 50
359.9999999999968168
 51
90.0
  0
CIRCLE
  5
10F0A
  8
0
 10
3572.2654743672601398
 20
169.2255136135642886
 30
0.0
 40
0.0944881889999998
  0
CIRCLE
  5
10F0B
  8
0
 10
3572.9052381467599844
 20
156.9814191253643116
 30
0.0
 40
0.1811023622000007
  0
CIRCLE
  5
10F0C
  8
0
 10
3572.117836571960197
 20
157.7688207001642979
 30
0.0
 40
0.1811023621999999
  0
CIRCLE
  5
10F0D
  8
0
 10
3577.2261042885597817
 20
157.3751199127642906
 30
0.0
 40
0.1870078739999998
  0
LINE
  5
10F0E
  8
0
 10
3581.5410649184600516
 20
156.5877183379643043
 30
0.0
 11
3581.5410649184600516
 21
156.5778758182642889
 31
0.0
  0
ARC
  5
10F0F
  8
0
 10
3581.5115373593030199
 20
156.5778758182642889
 30
0.0
 40
0.0295275591578541
 50
269.9964136394041248
 51
359.9999999999772058
  0
LINE
  5
10F10
  8
0
 10
3581.511535511060174
 20
156.5483482591642996
 30
0.0
 11
3581.2083877536538239
 21
156.5483672343345916
 31
0.0
  0
ARC
  5
10F11
  8
0
 10
3581.2083896020121756
 20
156.5778966496766031
 30
0.0
 40
0.029529415399919
 50
180.0404190902677044
 51
269.9964136394041248
  0
LINE
  5
10F12
  8
0
 10
3581.1788601939601904
 20
156.5778758182642889
 30
0.0
 11
3581.1788532505920557
 21
156.5877183355152056
 31
0.0
  0
LINE
  5
10F13
  8
0
 10
3579.0607499578600255
 20
156.5877183379643043
 30
0.0
 11
3579.0607499578600255
 21
156.5778758182642889
 31
0.0
  0
ARC
  5
10F14
  8
0
 10
3579.0312223987598372
 20
156.5778758182642889
 30
0.0
 40
0.0295275591000053
 50
270.0
 51
359.9999999999902229
  0
LINE
  5
10F15
  8
0
 10
3579.0312223987598372
 20
156.5483482591642996
 30
0.0
 11
3578.7280727924598978
 21
156.5483482591642996
 31
0.0
  0
ARC
  5
10F16
  8
0
 10
3578.7280727924598978
 20
156.5778758182642889
 30
0.0
 40
0.0295275590999946
 50
179.9999999998827036
 51
270.0
  0
LINE
  5
10F17
  8
0
 10
3578.6985452333601643
 20
156.5778758182642889
 30
0.0
 11
3578.6985452333601643
 21
156.5877183379643043
 31
0.0
  0
LINE
  5
10F18
  8
0
 10
3577.899332635060091
 20
156.5877183379643043
 30
0.0
 11
3577.899332635060091
 21
156.5778758182642889
 31
0.0
  0
ARC
  5
10F19
  8
0
 10
3577.8698050759599028
 20
156.5778758182642889
 30
0.0
 40
0.0295275591000053
 50
270.0
 51
359.9999999999902229
  0
LINE
  5
10F1A
  8
0
 10
3577.8698050759599028
 20
156.5483482591642996
 30
0.0
 11
3577.5666554696599633
 21
156.5483482591642996
 31
0.0
  0
ARC
  5
10F1B
  8
0
 10
3577.5666554696599633
 20
156.5778758182642889
 30
0.0
 40
0.0295275590999946
 50
179.9999999998827036
 51
270.0
  0
LINE
  5
10F1C
  8
0
 10
3577.537127910559775
 20
156.5778758182642889
 30
0.0
 11
3577.537127910559775
 21
156.5877183379643043
 31
0.0
  0
LINE
  5
10F1D
  8
0
 10
3576.7379153121601121
 20
156.5877183379643043
 30
0.0
 11
3576.7379153121601121
 21
156.5778758182642889
 31
0.0
  0
ARC
  5
10F1E
  8
0
 10
3576.7083877530599239
 20
156.5778758182642889
 30
0.0
 40
0.0295275591000053
 50
270.0
 51
359.9999999999902229
  0
LINE
  5
10F1F
  8
0
 10
3576.7083877530599239
 20
156.5483482591642996
 30
0.0
 11
3576.4052381467599844
 21
156.5483482591642996
 31
0.0
  0
ARC
  5
10F20
  8
0
 10
3576.4052381467599844
 20
156.5778758182642889
 30
0.0
 40
0.0295275590999946
 50
179.9999999998827036
 51
270.0
  0
LINE
  5
10F21
  8
0
 10
3576.3757105876597961
 20
156.5778758182642889
 30
0.0
 11
3576.3757105876597961
 21
156.5877183379643043
 31
0.0
  0
ARC
  5
10F22
  8
0
 10
3580.3493376357600937
 20
156.733387629264314
 30
0.0
 40
0.1968503936999966
 50
227.7314155539768024
 51
269.9999999961959816
  0
ARC
  5
10F23
  8
0
 10
3580.2705978785597836
 20
156.733387629264314
 30
0.0
 40
0.2440944881999896
 50
216.6392139310885057
 51
270.0
  0
LINE
  5
10F24
  8
0
 10
3580.2705978785597836
 20
156.4892931410643087
 30
0.0
 11
3581.5056605383870192
 21
156.4892931410643087
 31
0.0
  0
LINE
  5
10F25
  8
0
 10
3581.5370992197331361
 20
156.4892931410643087
 30
0.0
 11
3581.537127910559775
 21
156.4892931410643087
 31
0.0
  0
LINE
  5
10F26
  8
0
 10
3580.349337635746906
 20
156.5365372355643103
 30
0.0
 11
3581.537127910559775
 21
156.5365372355643103
 31
0.0
  0
LINE
  5
10F27
  8
0
 10
3581.0135058633600238
 20
156.5365372355643103
 30
0.0
 11
3581.0135058633600238
 21
156.5877183379643043
 31
0.0
  0
LINE
  5
10F28
  8
0
 10
3580.9662617688600221
 20
156.5365372355643103
 30
0.0
 11
3580.9662617688600221
 21
156.5877183379643043
 31
0.0
  0
ARC
  5
10F2C
  8
0
 10
3581.7536633436598095
 20
158.7530726686642879
 30
0.0
 40
1.181102362199995
 50
209.9999999999971863
 51
330.0000000000026716
  0
ARC
  5
10F2F
  8
0
 10
3577.7007124957599444
 20
187.5730355316644022
 30
0.0
 40
0.2352642834998917
 50
91.7444637847978868
 51
120.2932444372085001
  0
ARC
  5
10F30
  8
0
 10
3572.1301495770699148
 20
280.4488701868762064
 30
0.0
 40
92.8329220170591327
 50
272.1878311464644185
 51
273.3668023476316762
  0
ARC
  5
10F31
  8
0
 10
3575.7533590279272175
 20
187.9692663735253859
 30
0.0
 40
0.2964395377687769
 50
230.1573430766611068
 51
254.4921864099686957
  0
ARC
  5
10F32
  8
0
 10
3575.3952845796338806
 20
187.5624395612215949
 30
0.0
 40
0.2457520732898619
 50
46.8248626977642175
 51
90.1511946809747258
  0
ARC
  5
10F33
  8
0
 10
3577.127679091589016
 20
187.7766947156935942
 30
0.0
 40
0.0196850392292909
 50
179.9999995031323863
 51
270.0000002058353061
  0
LINE
  5
10F34
  8
0
 10
3577.1079940523600271
 20
187.7766947158642949
 30
0.0
 11
3577.1079940533850277
 21
187.8948049520643053
 31
0.0
  0
ARC
  5
10F35
  8
0
 10
3577.0686239750261848
 20
187.8948049524057069
 30
0.0
 40
0.0393700783585835
 50
359.9999995031324147
 51
90.0000021330010753
  0
LINE
  5
10F36
  8
0
 10
3577.0292538948601759
 20
187.93417503086431
 30
0.0
 11
3577.0292538948601759
 21
188.5444112513642949
 31
0.0
  0
LINE
  5
10F37
  8
0
 10
3577.0607490766601586
 20
188.5444112513642949
 30
0.0
 11
3577.0607490766601586
 21
188.583781330064312
 31
0.0
  0
LINE
  5
10F38
  8
0
 10
3577.0686239750261848
 20
187.934175030764294
 30
0.0
 11
3576.1237420823940738
 21
187.934175030764294
 31
0.0
  0
LINE
  5
10F39
  8
0
 10
3577.2458514198028752
 20
187.7570096764642926
 30
0.0
 11
3576.665080668560222
 21
187.7570096764642926
 31
0.0
  0
LINE
  5
10F3A
  8
0
 10
3576.5293137931898855
 20
187.7570096764642926
 30
0.0
 11
3575.8389482785009932
 21
187.7570096764642926
 31
0.0
  0
LINE
  5
10F3B
  8
0
 10
3575.5454315044771647
 20
187.7570096764642926
 30
0.0
 11
3575.5454063694601246
 21
187.7570096764642926
 31
0.0
  0
LINE
  5
10F3C
  8
0
 10
3577.0607490766601586
 20
188.583781330064312
 30
0.0
 11
3576.1316169807601
 21
188.583781330064312
 31
0.0
  0
LINE
  5
10F3D
  8
0
 10
3577.0607490766601586
 20
188.5444112513642949
 30
0.0
 11
3576.1316169807601
 21
188.5444112513642949
 31
0.0
  0
ARC
  5
10F3E
  8
0
 10
3576.0646869658307878
 20
187.7766947156935942
 30
0.0
 40
0.0196850392292909
 50
269.9999997941646939
 51
0.0000004968675754
  0
LINE
  5
10F3F
  8
0
 10
3576.0843720050597767
 20
187.7766947158642949
 30
0.0
 11
3576.0843720040361404
 21
187.8948049520643053
 31
0.0
  0
ARC
  5
10F40
  8
0
 10
3576.1237420823940738
 20
187.8948049524057069
 30
0.0
 40
0.0393700783585835
 50
89.9999978669989105
 51
180.0000004968659084
  0
LINE
  5
10F41
  8
0
 10
3576.1631121625609921
 20
187.93417503086431
 30
0.0
 11
3576.1631121625609921
 21
188.5444112513642949
 31
0.0
  0
LINE
  5
10F42
  8
0
 10
3576.1316169807601
 20
188.5444112513642949
 30
0.0
 11
3576.1316169807601
 21
188.583781330064312
 31
0.0
  0
LINE
  5
10F43
  8
0
 10
3575.8195781482600069
 20
187.6892910209298009
 30
0.0
 11
3575.8195781478880235
 21
187.7373246371643063
 31
0.0
  0
ARC
  5
10F44
  8
0
 10
3575.8392657468361904
 20
187.7373246373171867
 30
0.0
 40
0.0196875989488028
 50
90.9239513759408737
 51
180.0000004448208131
  0
ARC
  5
10F45
  8
0
 10
3576.6650816875530836
 20
187.7766957368571923
 30
0.0
 40
0.0196860604192702
 50
180.0029715739308074
 51
269.9970342473071128
  0
LINE
  5
10F46
  8
0
 10
3576.6453956271598145
 20
187.7766947158642949
 30
0.0
 11
3576.6448634630678498
 21
187.8948037531841067
 31
0.0
  0
ARC
  5
10F47
  8
0
 10
3576.6053078482891578
 20
187.8946255273828001
 30
0.0
 40
0.0395560162931479
 50
0.2581559449677127
 51
88.9602596206542842
  0
ARC
  5
10F48
  8
0
 10
3576.5270689072858659
 20
187.7767843861905135
 30
0.0
 40
0.01990172498745
 50
276.4766655407059943
 51
359.7418440550616197
  0
LINE
  5
10F49
  8
0
 10
3576.5469704302608989
 20
187.7766947158642949
 30
0.0
 11
3576.547502594351954
 21
187.8948037531841067
 31
0.0
  0
ARC
  5
10F4A
  8
0
 10
3576.5870582091311007
 20
187.8946255273828001
 30
0.0
 40
0.0395560162931479
 50
91.0397403793457016
 51
179.7418440550322885
  0
ARC
  5
10F4B
  8
0
 10
3585.5434054480419945
 20
183.1856596645106947
 30
0.0
 40
0.0163063116984621
 50
73.9807719347345909
 51
95.6188163105165359
  0
LINE
  5
10F4C
  8
0
 10
3585.541808901406057
 20
183.2018876292642915
 30
0.0
 11
3585.5135222858561974
 21
183.2018879854535953
 31
0.0
  0
ARC
  5
10F4D
  8
0
 10
3585.5135052673449536
 20
183.2215724215828914
 30
0.0
 40
0.019684443486141
 50
179.9993221488506947
 51
270.0495360218599785
  0
LINE
  5
10F4E
  8
0
 10
3585.4938208238600055
 20
183.2215726544642962
 30
0.0
 11
3585.4938208238600055
 21
183.2498757035642996
 31
0.0
  0
ARC
  5
10F4F
  8
0
 10
3585.4775924109299012
 20
183.2514722249962915
 30
0.0
 40
0.0163067552541497
 50
354.3814260029121215
 51
16.0188830401423985
  0
LINE
  5
10F50
  8
0
 10
3585.4995864383399748
 20
183.2076532436441028
 30
0.0
 11
3585.4938208238600055
 21
183.2018876292642915
 31
0.0
  0
LINE
  5
10F51
  8
0
 10
3585.4938208238600055
 20
183.2018876292642915
 30
0.0
 11
3585.4938208238600055
 21
183.1625175504642868
 31
0.0
  0
ARC
  5
10F52
  8
0
 10
3585.5434054480419945
 20
183.1787455152179973
 30
0.0
 40
0.0163063116984621
 50
264.381183689483521
 51
286.0192280652653949
  0
LINE
  5
10F53
  8
0
 10
3585.541808901406057
 20
183.1625175504642868
 30
0.0
 11
3585.5135222858561974
 21
183.1625171942750967
 31
0.0
  0
ARC
  5
10F54
  8
0
 10
3585.5135052673449536
 20
183.142832758145687
 30
0.0
 40
0.019684443486141
 50
89.9504639781399646
 51
180.0006778511493053
  0
LINE
  5
10F55
  8
0
 10
3585.4938208238600055
 20
183.1428325252643106
 30
0.0
 11
3585.4938208238600055
 21
183.1145294761643072
 31
0.0
  0
ARC
  5
10F56
  8
0
 10
3585.4775924109299012
 20
183.1129329547324005
 30
0.0
 40
0.0163067552541497
 50
343.9811169598576157
 51
5.6185739970879061
  0
LINE
  5
10F57
  8
0
 10
3585.4995864383399748
 20
183.156751936084504
 30
0.0
 11
3585.4938208238600055
 21
183.1625175504642868
 31
0.0
  0
ARC
  5
10F58
  8
0
 10
3585.296739727691147
 20
183.1822025898642892
 30
0.0
 40
0.2518930877316217
 50
355.6444377794721277
 51
4.355562220539297
  0
ARC
  5
10F59
  8
0
 10
3585.404866120978113
 20
183.1856596645106947
 30
0.0
 40
0.0163063116984621
 50
84.3811836894834641
 51
106.0192280652653949
  0
LINE
  5
10F5A
  8
0
 10
3585.4064626676131411
 20
183.2018876292642915
 30
0.0
 11
3585.4347492831639101
 21
183.2018879854535953
 31
0.0
  0
ARC
  5
10F5B
  8
0
 10
3585.4347663016760634
 20
183.2215724215828914
 30
0.0
 40
0.019684443486141
 50
269.9504639781399078
 51
0.000677851149328
  0
LINE
  5
10F5C
  8
0
 10
3585.4544507451601021
 20
183.2215726544642962
 30
0.0
 11
3585.4544507451601021
 21
183.2498757035642996
 31
0.0
  0
ARC
  5
10F5D
  8
0
 10
3585.4706791580911158
 20
183.2514722249962915
 30
0.0
 40
0.0163067552541497
 50
163.9811169598575873
 51
185.6185739970879069
  0
LINE
  5
10F5E
  8
0
 10
3585.4486851306810422
 20
183.2076532436441028
 30
0.0
 11
3585.4544507451601021
 21
183.2018876292642915
 31
0.0
  0
LINE
  5
10F5F
  8
0
 10
3585.4544507451601021
 20
183.2018876292642915
 30
0.0
 11
3585.4544507451601021
 21
183.1625175504642868
 31
0.0
  0
ARC
  5
10F60
  8
0
 10
3585.404866120978113
 20
183.1787455152179973
 30
0.0
 40
0.0163063116984621
 50
253.9807719347346051
 51
275.618816310516479
  0
LINE
  5
10F61
  8
0
 10
3585.4064626676131411
 20
183.1625175504642868
 30
0.0
 11
3585.4347492831639101
 21
183.1625171942750967
 31
0.0
  0
ARC
  5
10F62
  8
0
 10
3585.4347663016760634
 20
183.142832758145687
 30
0.0
 40
0.019684443486141
 50
359.9993221488506947
 51
90.0495360218600354
  0
LINE
  5
10F63
  8
0
 10
3585.4544507451601021
 20
183.1428325252643106
 30
0.0
 11
3585.4544507451601021
 21
183.1145294761643072
 31
0.0
  0
ARC
  5
10F64
  8
0
 10
3585.4706791580911158
 20
183.1129329547324005
 30
0.0
 40
0.0163067552541497
 50
174.3814260029120931
 51
196.0188830401424127
  0
LINE
  5
10F65
  8
0
 10
3585.4486851306810422
 20
183.156751936084504
 30
0.0
 11
3585.4544507451601021
 21
183.1625175504642868
 31
0.0
  0
ARC
  5
10F66
  8
0
 10
3585.6515318413280511
 20
183.1822025898642892
 30
0.0
 40
0.2518930877304259
 50
175.6444377794508966
 51
184.3555622205603868
  0
ARC
  5
10F67
  8
0
 10
3585.4741357845100538
 20
183.0048064886397015
 30
0.0
 40
0.2518931320245664
 50
85.6444373598362745
 51
94.3555626401637113
  0
ARC
  5
10F68
  8
0
 10
3585.4741357845100538
 20
183.3595986910889053
 30
0.0
 40
0.2518931320245664
 50
265.6444373598362745
 51
274.3555626401637255
  0
LINE
  5
10F69
  8
0
 10
3585.4544507451601021
 20
183.2018876292642915
 30
0.0
 11
3585.4938208238600055
 21
183.2018876292642915
 31
0.0
  0
LINE
  5
10F6A
  8
0
 10
3585.4544507451601021
 20
183.1625175504642868
 30
0.0
 11
3585.4938208238600055
 21
183.1625175504642868
 31
0.0
  0
ARC
  5
10F6B
  8
0
 10
3585.4179609008419902
 20
180.004017597610698
 30
0.0
 40
0.0163063116984621
 50
73.9807719347345909
 51
95.6188163105165359
  0
LINE
  5
10F6C
  8
0
 10
3585.4163643542060527
 20
180.0202455623642948
 30
0.0
 11
3585.3880777386561931
 21
180.0202459185535986
 31
0.0
  0
ARC
  5
10F6D
  8
0
 10
3585.3880607201449493
 20
180.0399303546828946
 30
0.0
 40
0.019684443486141
 50
179.9993221488506947
 51
270.0495360218599785
  0
LINE
  5
10F6E
  8
0
 10
3585.3683762766600012
 20
180.0399305875642995
 30
0.0
 11
3585.3683762766600012
 21
180.0682336366643028
 31
0.0
  0
ARC
  5
10F6F
  8
0
 10
3585.3521478637298969
 20
180.0698301580962948
 30
0.0
 40
0.0163067552541497
 50
354.3814260029121215
 51
16.0188830401423985
  0
LINE
  5
10F70
  8
0
 10
3585.3741418911399705
 20
180.026011176744106
 30
0.0
 11
3585.3683762766600012
 21
180.0202455623642948
 31
0.0
  0
LINE
  5
10F71
  8
0
 10
3585.3683762766600012
 20
180.0202455623642948
 30
0.0
 11
3585.3683762766600012
 21
179.9808754835642901
 31
0.0
  0
ARC
  5
10F72
  8
0
 10
3585.4179609008419902
 20
179.9971034483180006
 30
0.0
 40
0.0163063116984621
 50
264.381183689483521
 51
286.0192280652653949
  0
LINE
  5
10F73
  8
0
 10
3585.4163643542060527
 20
179.9808754835642901
 30
0.0
 11
3585.3880777386561931
 21
179.9808751273751
 31
0.0
  0
ARC
  5
10F74
  8
0
 10
3585.3880607201449493
 20
179.9611906912456902
 30
0.0
 40
0.019684443486141
 50
89.9504639781399646
 51
180.0006778511493053
  0
LINE
  5
10F75
  8
0
 10
3585.3683762766600012
 20
179.9611904583643138
 30
0.0
 11
3585.3683762766600012
 21
179.9328874092643105
 31
0.0
  0
ARC
  5
10F76
  8
0
 10
3585.3521478637298969
 20
179.9312908878324038
 30
0.0
 40
0.0163067552541497
 50
343.9811169598576157
 51
5.6185739970879061
  0
LINE
  5
10F77
  8
0
 10
3585.3741418911399705
 20
179.9751098691845073
 30
0.0
 11
3585.3683762766600012
 21
179.9808754835642901
 31
0.0
  0
ARC
  5
10F78
  8
0
 10
3585.1712951804911427
 20
180.0005605229642924
 30
0.0
 40
0.2518930877316217
 50
355.6444377794721277
 51
4.355562220539297
  0
ARC
  5
10F79
  8
0
 10
3585.2794215737781087
 20
180.004017597610698
 30
0.0
 40
0.0163063116984621
 50
84.3811836894834641
 51
106.0192280652653949
  0
LINE
  5
10F7A
  8
0
 10
3585.2810181204140463
 20
180.0202455623642948
 30
0.0
 11
3585.3093047359639058
 21
180.0202459185535986
 31
0.0
  0
ARC
  5
10F7B
  8
0
 10
3585.3093217544760591
 20
180.0399303546828946
 30
0.0
 40
0.019684443486141
 50
269.9504639781399078
 51
0.000677851149328
  0
LINE
  5
10F7C
  8
0
 10
3585.3290061979600978
 20
180.0399305875642995
 30
0.0
 11
3585.3290061979600978
 21
180.0682336366643028
 31
0.0
  0
ARC
  5
10F7D
  8
0
 10
3585.345234610890202
 20
180.0698301580962948
 30
0.0
 40
0.0163067552541497
 50
163.9811169598575873
 51
185.6185739970879069
  0
LINE
  5
10F7E
  8
0
 10
3585.3232405834801284
 20
180.026011176744106
 30
0.0
 11
3585.3290061979600978
 21
180.0202455623642948
 31
0.0
  0
LINE
  5
10F7F
  8
0
 10
3585.3290061979600978
 20
180.0202455623642948
 30
0.0
 11
3585.3290061979600978
 21
179.9808754835642901
 31
0.0
  0
ARC
  5
10F80
  8
0
 10
3585.2794215737781087
 20
179.9971034483180006
 30
0.0
 40
0.0163063116984621
 50
253.9807719347346051
 51
275.618816310516479
  0
LINE
  5
10F81
  8
0
 10
3585.2810181204140463
 20
179.9808754835642901
 30
0.0
 11
3585.3093047359639058
 21
179.9808751273751
 31
0.0
  0
ARC
  5
10F82
  8
0
 10
3585.3093217544760591
 20
179.9611906912456902
 30
0.0
 40
0.019684443486141
 50
359.9993221488506947
 51
90.0495360218600354
  0
LINE
  5
10F83
  8
0
 10
3585.3290061979600978
 20
179.9611904583643138
 30
0.0
 11
3585.3290061979600978
 21
179.9328874092643105
 31
0.0
  0
ARC
  5
10F84
  8
0
 10
3585.345234610890202
 20
179.9312908878324038
 30
0.0
 40
0.0163067552541497
 50
174.3814260029120931
 51
196.0188830401424127
  0
LINE
  5
10F85
  8
0
 10
3585.3232405834801284
 20
179.9751098691845073
 30
0.0
 11
3585.3290061979600978
 21
179.9808754835642901
 31
0.0
  0
ARC
  5
10F86
  8
0
 10
3585.5260872941280468
 20
180.0005605229642924
 30
0.0
 40
0.2518930877304259
 50
175.6444377794508966
 51
184.3555622205603868
  0
ARC
  5
10F87
  8
0
 10
3585.3486912373100495
 20
179.8231644217397047
 30
0.0
 40
0.2518931320245664
 50
85.6444373598362745
 51
94.3555626401637113
  0
ARC
  5
10F88
  8
0
 10
3585.3486912373100495
 20
180.1779566241889086
 30
0.0
 40
0.2518931320245664
 50
265.6444373598362745
 51
274.3555626401637255
  0
LINE
  5
10F89
  8
0
 10
3585.3290061979600978
 20
180.0202455623642948
 30
0.0
 11
3585.3683762766600012
 21
180.0202455623642948
 31
0.0
  0
LINE
  5
10F8A
  8
0
 10
3585.3290061979600978
 20
179.9808754835642901
 30
0.0
 11
3585.3683762766600012
 21
179.9808754835642901
 31
0.0
  0
ARC
  5
10F8B
  8
0
 10
3578.0893657864780835
 20
187.1940733849106948
 30
0.0
 40
0.0163063116984621
 50
84.3811836894834641
 51
106.0192280652653949
  0
LINE
  5
10F8C
  8
0
 10
3578.090962333114021
 20
187.2103013496642916
 30
0.0
 11
3578.1192489486629711
 21
187.2103017058535954
 31
0.0
  0
ARC
  5
10F8D
  8
0
 10
3578.1192659671751244
 20
187.2299861419828915
 30
0.0
 40
0.019684443486141
 50
269.9504639781399078
 51
0.000677851149328
  0
LINE
  5
10F8E
  8
0
 10
3578.1389504106600725
 20
187.2299863748642963
 30
0.0
 11
3578.1389504106600725
 21
187.2582894239642997
 31
0.0
  0
ARC
  5
10F8F
  8
0
 10
3578.1551788235901768
 20
187.2598859453962064
 30
0.0
 40
0.0163067552541497
 50
163.9811169598575873
 51
185.6185739970879069
  0
LINE
  5
10F90
  8
0
 10
3578.1331847961801031
 20
187.2160669640441029
 30
0.0
 11
3578.1389504106600725
 21
187.2103013496642916
 31
0.0
  0
LINE
  5
10F91
  8
0
 10
3578.1389504106600725
 20
187.2103013496642916
 30
0.0
 11
3578.1389504106600725
 21
187.1709312708642869
 31
0.0
  0
ARC
  5
10F92
  8
0
 10
3578.0893657864780835
 20
187.1871592356179121
 30
0.0
 40
0.0163063116984621
 50
253.9807719347346051
 51
275.618816310516479
  0
LINE
  5
10F93
  8
0
 10
3578.090962333114021
 20
187.1709312708642869
 30
0.0
 11
3578.1192489486629711
 21
187.1709309146750115
 31
0.0
  0
ARC
  5
10F94
  8
0
 10
3578.1192659671751244
 20
187.1512464785458008
 30
0.0
 40
0.019684443486141
 50
359.9993221488506947
 51
90.0495360218600354
  0
LINE
  5
10F95
  8
0
 10
3578.1389504106600725
 20
187.1512462456643107
 30
0.0
 11
3578.1389504106600725
 21
187.1229431965643073
 31
0.0
  0
ARC
  5
10F96
  8
0
 10
3578.1551788235901768
 20
187.1213466751324006
 30
0.0
 40
0.0163067552541497
 50
174.3814260029120931
 51
196.0188830401424127
  0
LINE
  5
10F97
  8
0
 10
3578.1331847961801031
 20
187.1651656564845041
 30
0.0
 11
3578.1389504106600725
 21
187.1709312708642869
 31
0.0
  0
ARC
  5
10F98
  8
0
 10
3578.336031506828931
 20
187.1906163102642893
 30
0.0
 40
0.2518930877316217
 50
175.6444377794607021
 51
184.3555622205279008
  0
ARC
  5
10F99
  8
0
 10
3578.227905113541965
 20
187.1940733849106948
 30
0.0
 40
0.0163063116984621
 50
73.9807719347345909
 51
95.6188163105165359
  0
LINE
  5
10F9A
  8
0
 10
3578.2263085669060274
 20
187.2103013496642916
 30
0.0
 11
3578.1980219513570773
 21
187.2103017058535954
 31
0.0
  0
ARC
  5
10F9B
  8
0
 10
3578.198004932844924
 20
187.2299861419828915
 30
0.0
 40
0.019684443486141
 50
179.9993221488506947
 51
270.0495360218599785
  0
LINE
  5
10F9C
  8
0
 10
3578.1783204893599759
 20
187.2299863748642963
 30
0.0
 11
3578.1783204893599759
 21
187.2582894239642997
 31
0.0
  0
ARC
  5
10F9D
  8
0
 10
3578.1620920764298717
 20
187.2598859453962064
 30
0.0
 40
0.0163067552541497
 50
354.3814260029121215
 51
16.0188830401423985
  0
LINE
  5
10F9E
  8
0
 10
3578.1840861038399453
 20
187.2160669640441029
 30
0.0
 11
3578.1783204893599759
 21
187.2103013496642916
 31
0.0
  0
LINE
  5
10F9F
  8
0
 10
3578.1783204893599759
 20
187.2103013496642916
 30
0.0
 11
3578.1783204893599759
 21
187.1709312708642869
 31
0.0
  0
ARC
  5
10FA0
  8
0
 10
3578.227905113541965
 20
187.1871592356179121
 30
0.0
 40
0.0163063116984621
 50
264.381183689483521
 51
286.0192280652653949
  0
LINE
  5
10FA1
  8
0
 10
3578.2263085669060274
 20
187.1709312708642869
 30
0.0
 11
3578.1980219513570773
 21
187.1709309146750115
 31
0.0
  0
ARC
  5
10FA2
  8
0
 10
3578.198004932844924
 20
187.1512464785458008
 30
0.0
 40
0.019684443486141
 50
89.9504639781399646
 51
180.0006778511493053
  0
LINE
  5
10FA3
  8
0
 10
3578.1783204893599759
 20
187.1512462456643107
 30
0.0
 11
3578.1783204893599759
 21
187.1229431965643073
 31
0.0
  0
ARC
  5
10FA4
  8
0
 10
3578.1620920764298717
 20
187.1213466751324006
 30
0.0
 40
0.0163067552541497
 50
343.9811169598576157
 51
5.6185739970879061
  0
LINE
  5
10FA5
  8
0
 10
3578.1840861038399453
 20
187.1651656564845041
 30
0.0
 11
3578.1783204893599759
 21
187.1709312708642869
 31
0.0
  0
ARC
  5
10FA6
  8
0
 10
3577.9812393931920269
 20
187.1906163102642893
 30
0.0
 40
0.2518930877304259
 50
355.6444377794396132
 51
4.3555622205490412
  0
ARC
  5
10FA7
  8
0
 10
3578.1586354500100242
 20
187.0132202090397868
 30
0.0
 40
0.2518931320245664
 50
85.6444373598362745
 51
94.3555626401637113
  0
ARC
  5
10FA8
  8
0
 10
3578.1586354500100242
 20
187.3680124114889054
 30
0.0
 40
0.2518931320245664
 50
265.6444373598362745
 51
274.3555626401637255
  0
LINE
  5
10FA9
  8
0
 10
3578.1783204893599759
 20
187.2103013496642916
 30
0.0
 11
3578.1389504106600725
 21
187.2103013496642916
 31
0.0
  0
LINE
  5
10FAA
  8
0
 10
3578.1783204893599759
 20
187.1709312708642869
 30
0.0
 11
3578.1389504106600725
 21
187.1709312708642869
 31
0.0
  0
ARC
  5
10FAB
  8
0
 10
3577.9639212392780792
 20
183.1856596645106947
 30
0.0
 40
0.0163063116984621
 50
84.3811836894834641
 51
106.0192280652653949
  0
LINE
  5
10FAC
  8
0
 10
3577.9655177859131072
 20
183.2018876292642915
 30
0.0
 11
3577.9938044014638763
 21
183.2018879854535953
 31
0.0
  0
ARC
  5
10FAD
  8
0
 10
3577.9938214199751201
 20
183.2215724215828914
 30
0.0
 40
0.019684443486141
 50
269.9504639781399078
 51
0.000677851149328
  0
LINE
  5
10FAE
  8
0
 10
3578.0135058634600682
 20
183.2215726544642962
 30
0.0
 11
3578.0135058634600682
 21
183.2498757035642996
 31
0.0
  0
ARC
  5
10FAF
  8
0
 10
3578.0297342763901725
 20
183.2514722249962915
 30
0.0
 40
0.0163067552541497
 50
163.9811169598575873
 51
185.6185739970879069
  0
LINE
  5
10FB0
  8
0
 10
3578.0077402489800988
 20
183.2076532436441028
 30
0.0
 11
3578.0135058634600682
 21
183.2018876292642915
 31
0.0
  0
LINE
  5
10FB1
  8
0
 10
3578.0135058634600682
 20
183.2018876292642915
 30
0.0
 11
3578.0135058634600682
 21
183.1625175504642868
 31
0.0
  0
ARC
  5
10FB2
  8
0
 10
3577.9639212392780792
 20
183.1787455152179973
 30
0.0
 40
0.0163063116984621
 50
253.9807719347346051
 51
275.618816310516479
  0
LINE
  5
10FB3
  8
0
 10
3577.9655177859131072
 20
183.1625175504642868
 30
0.0
 11
3577.9938044014638763
 21
183.1625171942750967
 31
0.0
  0
ARC
  5
10FB4
  8
0
 10
3577.9938214199751201
 20
183.142832758145687
 30
0.0
 40
0.019684443486141
 50
359.9993221488506947
 51
90.0495360218600354
  0
LINE
  5
10FB5
  8
0
 10
3578.0135058634600682
 20
183.1428325252643106
 30
0.0
 11
3578.0135058634600682
 21
183.1145294761643072
 31
0.0
  0
ARC
  5
10FB6
  8
0
 10
3578.0297342763901725
 20
183.1129329547324005
 30
0.0
 40
0.0163067552541497
 50
174.3814260029120931
 51
196.0188830401424127
  0
LINE
  5
10FB7
  8
0
 10
3578.0077402489800988
 20
183.156751936084504
 30
0.0
 11
3578.0135058634600682
 21
183.1625175504642868
 31
0.0
  0
ARC
  5
10FB8
  8
0
 10
3578.2105869596298362
 20
183.1822025898642892
 30
0.0
 40
0.2518930877316217
 50
175.6444377794607021
 51
184.3555622205279008
  0
ARC
  5
10FB9
  8
0
 10
3578.1024605663419607
 20
183.1856596645106947
 30
0.0
 40
0.0163063116984621
 50
73.9807719347345909
 51
95.6188163105165359
  0
LINE
  5
10FBA
  8
0
 10
3578.1008640197060231
 20
183.2018876292642915
 30
0.0
 11
3578.072577404157073
 21
183.2018879854535953
 31
0.0
  0
ARC
  5
10FBB
  8
0
 10
3578.0725603856449197
 20
183.2215724215828914
 30
0.0
 40
0.019684443486141
 50
179.9993221488506947
 51
270.0495360218599785
  0
LINE
  5
10FBC
  8
0
 10
3578.0528759421599716
 20
183.2215726544642962
 30
0.0
 11
3578.0528759421599716
 21
183.2498757035642996
 31
0.0
  0
ARC
  5
10FBD
  8
0
 10
3578.0366475292298674
 20
183.2514722249962915
 30
0.0
 40
0.0163067552541497
 50
354.3814260029121215
 51
16.0188830401423985
  0
LINE
  5
10FBE
  8
0
 10
3578.058641556639941
 20
183.2076532436441028
 30
0.0
 11
3578.0528759421599716
 21
183.2018876292642915
 31
0.0
  0
LINE
  5
10FBF
  8
0
 10
3578.0528759421599716
 20
183.2018876292642915
 30
0.0
 11
3578.0528759421599716
 21
183.1625175504642868
 31
0.0
  0
ARC
  5
10FC0
  8
0
 10
3578.1024605663419607
 20
183.1787455152179973
 30
0.0
 40
0.0163063116984621
 50
264.381183689483521
 51
286.0192280652653949
  0
LINE
  5
10FC1
  8
0
 10
3578.1008640197060231
 20
183.1625175504642868
 30
0.0
 11
3578.072577404157073
 21
183.1625171942750967
 31
0.0
  0
ARC
  5
10FC2
  8
0
 10
3578.0725603856449197
 20
183.142832758145687
 30
0.0
 40
0.019684443486141
 50
89.9504639781399646
 51
180.0006778511493053
  0
LINE
  5
10FC3
  8
0
 10
3578.0528759421599716
 20
183.1428325252643106
 30
0.0
 11
3578.0528759421599716
 21
183.1145294761643072
 31
0.0
  0
ARC
  5
10FC4
  8
0
 10
3578.0366475292298674
 20
183.1129329547324005
 30
0.0
 40
0.0163067552541497
 50
343.9811169598576157
 51
5.6185739970879061
  0
LINE
  5
10FC5
  8
0
 10
3578.058641556639941
 20
183.156751936084504
 30
0.0
 11
3578.0528759421599716
 21
183.1625175504642868
 31
0.0
  0
ARC
  5
10FC6
  8
0
 10
3577.8557948459920226
 20
183.1822025898642892
 30
0.0
 40
0.2518930877304259
 50
355.6444377794396132
 51
4.3555622205490412
  0
ARC
  5
10FC7
  8
0
 10
3578.0331909028100199
 20
183.0048064886397015
 30
0.0
 40
0.2518931320245664
 50
85.6444373598362745
 51
94.3555626401637113
  0
ARC
  5
10FC8
  8
0
 10
3578.0331909028100199
 20
183.3595986910889053
 30
0.0
 40
0.2518931320245664
 50
265.6444373598362745
 51
274.3555626401637255
  0
LINE
  5
10FC9
  8
0
 10
3578.0528759421599716
 20
183.2018876292642915
 30
0.0
 11
3578.0135058634600682
 21
183.2018876292642915
 31
0.0
  0
LINE
  5
10FCA
  8
0
 10
3578.0528759421599716
 20
183.1625175504642868
 30
0.0
 11
3578.0135058634600682
 21
183.1625175504642868
 31
0.0
  0
ARC
  5
10FCB
  8
0
 10
3578.0893657864780835
 20
180.004017597610698
 30
0.0
 40
0.0163063116984621
 50
84.3811836894834641
 51
106.0192280652653949
  0
LINE
  5
10FCC
  8
0
 10
3578.090962333114021
 20
180.0202455623642948
 30
0.0
 11
3578.1192489486629711
 21
180.0202459185535986
 31
0.0
  0
ARC
  5
10FCD
  8
0
 10
3578.1192659671751244
 20
180.0399303546828946
 30
0.0
 40
0.019684443486141
 50
269.9504639781399078
 51
0.000677851149328
  0
LINE
  5
10FCE
  8
0
 10
3578.1389504106600725
 20
180.0399305875642995
 30
0.0
 11
3578.1389504106600725
 21
180.0682336366643028
 31
0.0
  0
ARC
  5
10FCF
  8
0
 10
3578.1551788235901768
 20
180.0698301580962948
 30
0.0
 40
0.0163067552541497
 50
163.9811169598575873
 51
185.6185739970879069
  0
LINE
  5
10FD0
  8
0
 10
3578.1331847961801031
 20
180.026011176744106
 30
0.0
 11
3578.1389504106600725
 21
180.0202455623642948
 31
0.0
  0
LINE
  5
10FD1
  8
0
 10
3578.1389504106600725
 20
180.0202455623642948
 30
0.0
 11
3578.1389504106600725
 21
179.9808754835642901
 31
0.0
  0
ARC
  5
10FD2
  8
0
 10
3578.0893657864780835
 20
179.9971034483180006
 30
0.0
 40
0.0163063116984621
 50
253.9807719347346051
 51
275.618816310516479
  0
LINE
  5
10FD3
  8
0
 10
3578.090962333114021
 20
179.9808754835642901
 30
0.0
 11
3578.1192489486629711
 21
179.9808751273751
 31
0.0
  0
ARC
  5
10FD4
  8
0
 10
3578.1192659671751244
 20
179.9611906912456902
 30
0.0
 40
0.019684443486141
 50
359.9993221488506947
 51
90.0495360218600354
  0
LINE
  5
10FD5
  8
0
 10
3578.1389504106600725
 20
179.9611904583643138
 30
0.0
 11
3578.1389504106600725
 21
179.9328874092643105
 31
0.0
  0
ARC
  5
10FD6
  8
0
 10
3578.1551788235901768
 20
179.9312908878324038
 30
0.0
 40
0.0163067552541497
 50
174.3814260029120931
 51
196.0188830401424127
  0
LINE
  5
10FD7
  8
0
 10
3578.1331847961801031
 20
179.9751098691845073
 30
0.0
 11
3578.1389504106600725
 21
179.9808754835642901
 31
0.0
  0
ARC
  5
10FD8
  8
0
 10
3578.336031506828931
 20
180.0005605229642924
 30
0.0
 40
0.2518930877316217
 50
175.6444377794607021
 51
184.3555622205279008
  0
ARC
  5
10FD9
  8
0
 10
3578.227905113541965
 20
180.004017597610698
 30
0.0
 40
0.0163063116984621
 50
73.9807719347345909
 51
95.6188163105165359
  0
LINE
  5
10FDA
  8
0
 10
3578.2263085669060274
 20
180.0202455623642948
 30
0.0
 11
3578.1980219513570773
 21
180.0202459185535986
 31
0.0
  0
ARC
  5
10FDB
  8
0
 10
3578.198004932844924
 20
180.0399303546828946
 30
0.0
 40
0.019684443486141
 50
179.9993221488506947
 51
270.0495360218599785
  0
LINE
  5
10FDC
  8
0
 10
3578.1783204893599759
 20
180.0399305875642995
 30
0.0
 11
3578.1783204893599759
 21
180.0682336366643028
 31
0.0
  0
ARC
  5
10FDD
  8
0
 10
3578.1620920764298717
 20
180.0698301580962948
 30
0.0
 40
0.0163067552541497
 50
354.3814260029121215
 51
16.0188830401423985
  0
LINE
  5
10FDE
  8
0
 10
3578.1840861038399453
 20
180.026011176744106
 30
0.0
 11
3578.1783204893599759
 21
180.0202455623642948
 31
0.0
  0
LINE
  5
10FDF
  8
0
 10
3578.1783204893599759
 20
180.0202455623642948
 30
0.0
 11
3578.1783204893599759
 21
179.9808754835642901
 31
0.0
  0
ARC
  5
10FE0
  8
0
 10
3578.227905113541965
 20
179.9971034483180006
 30
0.0
 40
0.0163063116984621
 50
264.381183689483521
 51
286.0192280652653949
  0
LINE
  5
10FE1
  8
0
 10
3578.2263085669060274
 20
179.9808754835642901
 30
0.0
 11
3578.1980219513570773
 21
179.9808751273751
 31
0.0
  0
ARC
  5
10FE2
  8
0
 10
3578.198004932844924
 20
179.9611906912456902
 30
0.0
 40
0.019684443486141
 50
89.9504639781399646
 51
180.0006778511493053
  0
LINE
  5
10FE3
  8
0
 10
3578.1783204893599759
 20
179.9611904583643138
 30
0.0
 11
3578.1783204893599759
 21
179.9328874092643105
 31
0.0
  0
ARC
  5
10FE4
  8
0
 10
3578.1620920764298717
 20
179.9312908878324038
 30
0.0
 40
0.0163067552541497
 50
343.9811169598576157
 51
5.6185739970879061
  0
LINE
  5
10FE5
  8
0
 10
3578.1840861038399453
 20
179.9751098691845073
 30
0.0
 11
3578.1783204893599759
 21
179.9808754835642901
 31
0.0
  0
ARC
  5
10FE6
  8
0
 10
3577.9812393931920269
 20
180.0005605229642924
 30
0.0
 40
0.2518930877304259
 50
355.6444377794396132
 51
4.3555622205490412
  0
ARC
  5
10FE7
  8
0
 10
3578.1586354500100242
 20
179.8231644217397047
 30
0.0
 40
0.2518931320245664
 50
85.6444373598362745
 51
94.3555626401637113
  0
ARC
  5
10FE8
  8
0
 10
3578.1586354500100242
 20
180.1779566241889086
 30
0.0
 40
0.2518931320245664
 50
265.6444373598362745
 51
274.3555626401637255
  0
LINE
  5
10FE9
  8
0
 10
3578.1783204893599759
 20
180.0202455623642948
 30
0.0
 11
3578.1389504106600725
 21
180.0202455623642948
 31
0.0
  0
LINE
  5
10FEA
  8
0
 10
3578.1783204893599759
 20
179.9808754835642901
 30
0.0
 11
3578.1389504106600725
 21
179.9808754835642901
 31
0.0
  0
ENDSEC
  0
EOF
