  0
SECTION
  2
HEADER
  9
$ACADVER
  1
AC1009
  9
$INSBASE
 10
4462.7255964723053694
 20
274.7685488619620173
 30
0.0
  9
$EXTMIN
 10
4457.2267713983255817
 20
274.7553384097682851
 30
-0.0000000349181948
  9
$EXTMAX
 10
4464.0621648475553229
 20
292.4505876566607867
 30
0.0000000814935746
  9
$LIMMIN
 10
0.0
 20
0.0
  9
$LIMMAX
 10
11.6929133858000007
 20
8.2677165353999982
  9
$ORTHOMODE
 70
     0
  9
$REGENMODE
 70
     1
  9
$FILLMODE
 70
     1
  9
$QTEXTMODE
 70
     0
  9
$MIRRTEXT
 70
     0
  9
$DRAGMODE
 70
     2
  9
$LTSCALE
 40
0.6431102362
  9
$OSMODE
 70
   695
  9
$ATTMODE
 70
     1
  9
$TEXTSIZE
 40
0.2
  9
$TRACEWID
 40
0.05
  9
$TEXTSTYLE
  7
STANDARD
  9
$CLAYER
  8
0
  9
$CELTYPE
  6
BYLAYER
  9
$CECOLOR
 62
   256
  9
$DIMSCALE
 40
1.0
  9
$DIMASZ
 40
0.1875
  9
$DIMEXO
 40
0.0625
  9
$DIMDLI
 40
0.4443307087
  9
$DIMRND
 40
0.0
  9
$DIMDLE
 40
0.0
  9
$DIMEXE
 40
0.125
  9
$DIMTP
 40
0.01
  9
$DIMTM
 40
0.01
  9
$DIMTXT
 40
2.0
  9
$DIMCEN
 40
0.1052362205
  9
$DIMTSZ
 40
0.0
  9
$DIMTOL
 70
     1
  9
$DIMLIM
 70
     0
  9
$DIMTIH
 70
     1
  9
$DIMTOH
 70
     1
  9
$DIMSE1
 70
     0
  9
$DIMSE2
 70
     0
  9
$DIMTAD
 70
     0
  9
$DIMZIN
 70
     0
  9
$DIMBLK
  1

  9
$DIMASO
 70
     1
  9
$DIMSHO
 70
     1
  9
$DIMPOST
  1
\X
  9
$DIMAPOST
  1

  9
$DIMALT
 70
     1
  9
$DIMALTD
 70
     2
  9
$DIMALTF
 40
25.3999999999999986
  9
$DIMLFAC
 40
1.0
  9
$DIMTOFL
 70
     0
  9
$DIMTVP
 40
0.0
  9
$DIMTIX
 70
     0
  9
$DIMSOXD
 70
     0
  9
$DIMSAH
 70
     0
  9
$DIMBLK1
  1

  9
$DIMBLK2
  1

  9
$DIMSTYLE
  2
STANDARD
  9
$DIMCLRD
 70
     0
  9
$DIMCLRE
 70
     0
  9
$DIMCLRT
 70
     0
  9
$DIMTFAC
 40
1.0
  9
$DIMGAP
 40
0.09
  9
$LUNITS
 70
     2
  9
$LUPREC
 70
     4
  9
$SKETCHINC
 40
0.1
  9
$FILLETRAD
 40
0.0
  9
$AUNITS
 70
     0
  9
$AUPREC
 70
     0
  9
$MENU
  1
.
  9
$ELEVATION
 40
0.0
  9
$PELEVATION
 40
0.0
  9
$THICKNESS
 40
0.0
  9
$LIMCHECK
 70
     0
  9
$BLIPMODE
 70
     0
  9
$CHAMFERA
 40
0.0
  9
$CHAMFERB
 40
0.0
  9
$SKPOLY
 70
     0
  9
$TDCREATE
 40
2458060.468368056230247
  9
$TDUPDATE
 40
2459360.0408912030979991
  9
$TDINDWG
 40
0.531534838
  9
$TDUSRTIMER
 40
0.531534838
  9
$USRTIMER
 70
     1
  9
$ANGBASE
 50
0.0
  9
$ANGDIR
 70
     0
  9
$PDMODE
 70
     0
  9
$PDSIZE
 40
0.3125
  9
$PLINEWID
 40
0.0
  9
$COORDS
 70
     1
  9
$SPLFRAME
 70
     0
  9
$SPLINETYPE
 70
     6
  9
$SPLINESEGS
 70
     8
  9
$ATTDIA
 70
     1
  9
$ATTREQ
 70
     1
  9
$HANDLING
 70
     1
  9
$HANDSEED
  5
21BD2
  9
$SURFTAB1
 70
     6
  9
$SURFTAB2
 70
     6
  9
$SURFTYPE
 70
     6
  9
$SURFU
 70
     6
  9
$SURFV
 70
     6
  9
$UCSNAME
  2

  9
$UCSORG
 10
0.0
 20
0.0
 30
0.0
  9
$UCSXDIR
 10
1.0
 20
0.0
 30
0.0
  9
$UCSYDIR
 10
0.0
 20
1.0
 30
0.0
  9
$PUCSNAME
  2

  9
$PUCSORG
 10
0.0
 20
0.0
 30
0.0
  9
$PUCSXDIR
 10
1.0
 20
0.0
 30
0.0
  9
$PUCSYDIR
 10
0.0
 20
1.0
 30
0.0
  9
$USERI1
 70
     0
  9
$USERI2
 70
     0
  9
$USERI3
 70
     0
  9
$USERI4
 70
     0
  9
$USERI5
 70
     0
  9
$USERR1
 40
0.0
  9
$USERR2
 40
0.0
  9
$USERR3
 40
0.0
  9
$USERR4
 40
0.0
  9
$USERR5
 40
0.0
  9
$WORLDVIEW
 70
     1
  9
$SHADEDGE
 70
     3
  9
$SHADEDIF
 70
    70
  9
$TILEMODE
 70
     1
  9
$MAXACTVP
 70
    64
  9
$PLIMCHECK
 70
     0
  9
$PEXTMIN
 10
1.0000000000000000E+20
 20
1.0000000000000000E+20
 30
1.0000000000000000E+20
  9
$PEXTMAX
 10
-1.0000000000000000E+20
 20
-1.0000000000000000E+20
 30
-1.0000000000000000E+20
  9
$PLIMMIN
 10
0.0
 20
0.0
  9
$PLIMMAX
 10
12.0
 20
9.0
  9
$UNITMODE
 70
     0
  9
$VISRETAIN
 70
     1
  9
$PLINEGEN
 70
     0
  9
$PSLTSCALE
 70
     1
  0
ENDSEC
  0
SECTION
  2
TABLES
  0
TABLE
  2
VPORT
 70
     1
  0
VPORT
  2
*ACTIVE
 70
     0
 10
0.0
 20
0.0
 11
1.0
 21
1.0
 12
549.2791114690658105
 22
151.0233578133963874
 13
0.0
 23
0.0
 14
1.0
 24
1.0
 15
0.0
 25
0.0
 16
0.0
 26
0.0
 36
60.4960186965801583
 17
3911.3653564453120453
 27
132.5796051025390057
 37
0.0
 40
24.4595886170217796
 41
2.3198804185351261
 42
50.0
 43
0.0
 44
0.0
 50
0.0
 51
0.0
 71
     0
 72
   100
 73
     1
 74
     1
 75
     0
 76
     0
 77
     0
 78
     0
  0
ENDTAB
  0
TABLE
  2
LTYPE
 70
     2
  0
LTYPE
  2
CONTINUOUS
 70
     0
  3
Solid line
 72
    65
 73
     0
 40
0.0
  0
LTYPE
  2
PHANTOM2
 70
     0
  3
___ _ _ ___ _ _ ___ _ _ ___ _ _
 72
    65
 73
     6
 40
1.25
 49
0.625
 49
-0.125
 49
0.125
 49
-0.125
 49
0.125
 49
-0.125
  0
ENDTAB
  0
TABLE
  2
LAYER
 70
     2
  0
LAYER
  2
0
 70
     0
 62
   255
  6
CONTINUOUS
  0
LAYER
  2
DEFPOINTS
 70
     0
 62
     7
  6
CONTINUOUS
  0
ENDTAB
  0
TABLE
  2
STYLE
 70
     1
  0
STYLE
  2
STANDARD
 70
     0
 40
0.0
 41
0.8
 50
0.0
 71
     0
 42
0.2
  3
txt
  4

  0
ENDTAB
  0
TABLE
  2
VIEW
 70
     0
  0
ENDTAB
  0
TABLE
  2
UCS
 70
     0
  0
ENDTAB
  0
TABLE
  2
APPID
 70
    11
  0
APPID
  2
ACAD
 70
     0
  0
APPID
  2
ACAD_MLEADERVER
 70
     0
  0
APPID
  2
ACAD_EXEMPT_FROM_CAD_STANDARDS
 70
     0
  0
APPID
  2
ACAD_NAV_VCDISPLAY
 70
     0
  0
APPID
  2
ACAECLAYERSTANDARD
 70
     0
  0
APPID
  2
ACCMTRANSPARENCY
 70
     0
  0
APPID
  2
ACAD_DSTYLE_DIMJAG
 70
     0
  0
APPID
  2
ACAD_DSTYLE_DIMTALN
 70
     0
  0
APPID
  2
ACDBATTR
 70
     0
  0
APPID
  2
ACADANNOTATIVE
 70
     0
  0
APPID
  2
DCO15
 70
     0
  0
ENDTAB
  0
TABLE
  2
DIMSTYLE
 70
     1
  0
DIMSTYLE
  2
STANDARD
 70
     0
  3

  4

  5

  6

  7

 40
1.0
 41
0.1875
 42
0.0625
 43
0.38
 44
0.125
 45
0.0
 46
0.0
 47
0.01
 48
0.01
140
0.15625
141
0.09
142
0.0
143
25.3999999999999986
144
1.0
145
0.0
146
1.0
147
0.09
 71
     1
 72
     0
 73
     1
 74
     1
 75
     0
 76
     0
 77
     0
 78
     4
170
     0
171
     2
172
     0
173
     0
174
     0
175
     0
176
     0
177
     0
178
     0
  0
ENDTAB
  0
ENDSEC
  0
SECTION
  2
BLOCKS
  0
BLOCK
  8
0
  2
$MODEL_SPACE
 70
     0
 10
0.0
 20
0.0
 30
0.0
  3
$MODEL_SPACE
  1

  0
ENDBLK
  5
21
  8
0
  0
BLOCK
 67
     1
  8
0
  2
$PAPER_SPACE
 70
     0
 10
0.0
 20
0.0
 30
0.0
  3
$PAPER_SPACE
  1

  0
ENDBLK
  5
1D
 67
     1
  8
0
  0
ENDSEC
  0
SECTION
  2
ENTITIES
  0
ATTDEF
  5
20106
  8
DEFPOINTS
 10
4462.7260683595741284
 20
274.7674262512111909
 30
0.0
 40
0.001
  1
K-19909T-4
  3

  2
MODELNUMBER
 70
     0
1001
ACDBATTR
1070
     0
1070
     1
  0
ATTDEF
  5
20107
  8
DEFPOINTS
 10
4462.7260723799981861
 20
274.7657595228744754
 30
0.0
 40
0.001
  1
SYMBOL
  3

  2
TRADENAME
 70
     0
1001
ACDBATTR
1070
     0
1070
     1
  0
ATTDEF
  5
20108
  8
DEFPOINTS
 10
4462.726068367030166
 20
274.7640930075118035
 30
0.0
 40
0.001
  1
BATHROOM SINK FAUCET
  3

  2
PRODUCT
 70
     0
1001
ACDBATTR
1070
     0
1070
     1
  0
ARC
  5
21A61
  8
0
 10
4461.6340330293332954
 20
274.8079518135666035
 30
0.0
 40
0.0394234339025769
 50
215.7738196677244105
 51
268.1529929632749258
  0
ARC
  5
21A62
  8
0
 10
4461.6339804240169542
 20
274.8078915808732745
 30
0.0
 40
0.0393455464999733
 50
179.9999999999901945
 51
215.7474383895473977
  0
ARC
  5
21A63
  8
0
 10
4461.6339804240169542
 20
274.8078915808732177
 30
0.0
 40
0.0393455465000578
 50
146.5874068510179882
 51
179.9999999999380975
  0
ARC
  5
21A64
  8
0
 10
4461.9213160521212558
 20
274.6146823317579901
 30
0.0
 40
0.3855978056499985
 50
140.2212055003938076
 51
146.133981473284507
  0
ARC
  5
21A65
  8
0
 10
4455.1375564429936276
 20
280.4920265878524788
 30
0.0
 40
8.5901454769181456
 50
319.0442930569204236
 51
319.9698080884862748
  0
ARC
  5
21A66
  8
0
 10
4461.3514459324142081
 20
275.2625445415386025
 30
0.0
 40
0.4686390225530705
 50
320.8898348441089752
 51
336.7898133263225873
  0
ARC
  5
21A67
  8
0
 10
4460.7025381421572092
 20
275.4849552606589214
 30
0.0
 40
1.1538231271926509
 50
339.3394682952547896
 51
347.0085337008237047
  0
ARC
  5
21A68
  8
0
 10
4463.8172242634209397
 20
274.8078796827509223
 30
0.0
 40
0.03933082927593
 50
270.0376400733007927
 51
318.7257902385535999
  0
ARC
  5
21A69
  8
0
 10
4463.8172162793180178
 20
274.8078904589731906
 30
0.0
 40
0.0393439385999585
 50
318.7216658088947838
 51
348.009622598857618
  0
ARC
  5
21A6A
  8
0
 10
4463.8171175217476048
 20
274.8078904516316925
 30
0.0
 40
0.0394405453415872
 50
348.0394378000232791
 51
33.320613453655632
  0
ARC
  5
21A6B
  8
0
 10
4463.4856604530423283
 20
274.5822387869980048
 30
0.0
 40
0.4404127414246188
 50
34.1636099479039927
 51
40.7754574106359868
  0
ARC
  5
21A6C
  8
0
 10
4468.3982938209528584
 20
278.8804833568459003
 30
0.0
 40
6.0871464988774564
 50
220.0569523498417936
 51
221.2134294708075117
  0
ARC
  5
21A6D
  8
0
 10
4464.0983200616219619
 20
275.2613407161748
 30
0.0
 40
0.4668386283682048
 50
199.0083412594140952
 51
219.7050020099395056
  0
ARC
  5
21A6E
  8
0
 10
4465.5752207614013969
 20
275.7092883485207722
 30
0.0
 40
2.0099278377865191
 50
193.9253176968211108
 51
197.3686138084364927
  0
ARC
  5
21A6F
  8
0
 10
4451.4443328365559864
 20
277.294994927732489
 30
0.0
 40
10.5867237258273796
 50
348.7276034659224138
 51
352.5464996958049255
  0
ARC
  5
21A70
  8
0
 10
4449.7997422980806732
 20
277.2533623671549208
 30
0.0
 40
12.2146717123802002
 50
353.7409389531147781
 51
358.4767552475522052
  0
ARC
  5
21A71
  8
0
 10
4326.70512550922831
 20
278.9798703878710171
 30
0.0
 40
135.3205192097250915
 50
359.1314704707035048
 51
1.0429880982074851
  0
ARC
  5
21A72
  8
0
 10
4470.6650955107170375
 20
276.8669277672298108
 30
0.0
 40
7.2295160483097938
 50
181.9077661339372867
 51
193.122485802340492
  0
ARC
  5
21A73
  8
0
 10
4562.0306993629737917
 20
279.1625374790739897
 30
0.0
 40
98.6237306100568247
 50
178.7391844584375917
 51
181.4736255368108004
  0
LINE
  5
21A74
  8
0
 10
4457.4825336443182096
 20
287.7081461354732141
 30
0.0
 11
4458.5453245922053611
 21
286.8068126265425235
 31
0.0
  0
LINE
  5
21A75
  8
0
 10
4462.7072023635637379
 20
290.5204113148732858
 30
0.0
 11
4463.5554922049677771
 21
290.9159753626233282
 31
0.0
  0
LINE
  5
21A76
  8
0
 10
4461.9672379500680108
 20
290.4771042282732765
 30
0.0
 11
4461.9816736455686623
 21
290.5204113148732858
 31
0.0
  0
LINE
  5
21A77
  8
0
 10
4461.9672379500680108
 20
290.4378241777732796
 30
0.0
 11
4461.9672379500680108
 21
290.4771042282732765
 31
0.0
  0
LINE
  5
21A78
  8
0
 10
4461.7119534345192733
 20
291.478707458573183
 30
0.0
 11
4461.7690610078170721
 21
291.3472729793733151
 31
0.0
  0
LINE
  5
21A79
  8
0
 10
4463.5026710208676377
 20
290.4378241777732796
 30
0.0
 11
4463.5026710208676377
 21
290.4771042282732765
 31
0.0
  0
LINE
  5
21A7A
  8
0
 10
4463.5026710208676377
 20
290.4771042282732765
 30
0.0
 11
4463.383192248492378
 21
290.8355405455002938
 31
0.0
  0
LINE
  5
21A7B
  8
0
 10
4460.6119234523675914
 20
292.0667553206233151
 30
0.0
 11
4460.4680774088683393
 21
292.0598158824233224
 31
0.0
  0
LINE
  5
21A7C
  8
0
 10
4460.8497163281681424
 20
292.0606972457231905
 30
0.0
 11
4461.0945167852678424
 21
292.0148580507233191
 31
0.0
  0
LINE
  5
21A7D
  8
0
 10
4463.2824999822678365
 20
292.1578311954232845
 30
0.0
 11
4463.2520536682686725
 21
292.1581892394232796
 31
0.0
  0
ARC
  5
21A7E
  8
0
 10
4463.2491253372727442
 20
292.1124888535119908
 30
0.0
 40
0.0751575193401231
 50
10.0263629458006704
 51
14.01607092512352
  0
ARC
  5
21A7F
  8
0
 10
4475.9257322091043534
 20
292.2200354811816965
 30
0.0
 40
12.4149322686999994
 50
188.4099042293011905
 51
189.2830337074047122
  0
ARC
  5
21A80
  8
0
 10
4460.385170117623602
 20
287.2943658440240142
 30
0.0
 40
1.3365374332982389
 50
6.5013423860142661
 51
25.7973469709439307
  0
ARC
  5
21A81
  8
0
 10
4461.0063927775818229
 20
287.5587457901831954
 30
0.0
 40
0.6629593268137546
 50
28.59151126762724
 51
80.2155573102720609
  0
ARC
  5
21A82
  8
0
 10
4461.0444554833666189
 20
287.5781689607308067
 30
0.0
 40
0.6382675966976574
 50
83.2878222953548146
 51
108.6352002017153069
  0
ARC
  5
21A83
  8
0
 10
4461.2987493723267107
 20
286.9757669003204796
 30
0.0
 40
1.291254553051959
 50
110.7863971560212946
 51
120.2782538549222977
  0
ARC
  5
21A84
  8
0
 10
4458.5563852291443254
 20
286.8230825821029271
 30
0.0
 40
0.0196735645839966
 50
235.7913609635103001
 51
301.677358989835227
  0
ARC
  5
21A85
  8
0
 10
4457.4952733579675623
 20
287.7231575576294063
 30
0.0
 40
0.0196886540690562
 50
118.1466129216743042
 51
229.6797990070209892
  0
ARC
  5
21A86
  8
0
 10
4902.612731533290571
 20
-544.8219715700687402
 30
0.0
 40
944.0858640916497961
 50
117.9380667158040978
 51
118.1310386804308052
  0
ARC
  5
21A87
  8
0
 10
4454.471788413287868
 20
300.6363821299730148
 30
0.0
 40
12.8013099303054503
 50
297.0457749804955938
 51
301.415591109173306
  0
ARC
  5
21A88
  8
0
 10
4459.6872397542883846
 20
292.1108756744786206
 30
0.0
 40
2.8070633067307629
 50
301.2714449627172257
 51
310.4429804305867719
  0
ARC
  5
21A89
  8
0
 10
4460.694053249375429
 20
290.8980234323811942
 30
0.0
 40
1.2310801349138101
 50
311.3984656638655224
 51
336.80413924809028
  0
ARC
  5
21A8A
  8
0
 10
4461.8829271573586084
 20
290.3935423726517797
 30
0.0
 40
0.0605649342103837
 50
150.5740340734398899
 51
161.1292851800517099
  0
ARC
  5
21A8B
  8
0
 10
4461.8559250131447698
 20
290.4092169371659793
 30
0.0
 40
0.0293479548386843
 50
127.4589469032153062
 51
151.3282158998200941
  0
ARC
  5
21A8C
  8
0
 10
4461.8535786321735941
 20
290.4102560042251184
 30
0.0
 40
0.0271240316260464
 50
101.0706599212213064
 51
124.8586256995793065
  0
ARC
  5
21A8D
  8
0
 10
4461.8587050159048886
 20
290.3874010183978953
 30
0.0
 40
0.050542159643088
 50
93.932511035765657
 51
101.7989032794033051
  0
ARC
  5
21A8E
  8
0
 10
4447.0764755456457351
 20
289.1335199145635784
 30
0.0
 40
16.7324019577371885
 50
354.2106426655702762
 51
358.10068311051009
  0
ARC
  5
21A8F
  8
0
 10
4455.9818439936616414
 20
288.7255320621904957
 30
0.0
 40
7.8192149118629777
 50
358.925873817398724
 51
5.8742208197235533
  0
ARC
  5
21A90
  8
0
 10
4451.8940174732806554
 20
288.3909809492297995
 30
0.0
 40
11.9201229135592204
 50
5.462892904276246
 51
8.813483522656222
  0
ARC
  5
21A91
  8
0
 10
4463.5944308225653003
 20
290.4010147220466251
 30
0.0
 40
0.0499742703151118
 50
3.771103201092846
 51
28.8066095516768002
  0
ARC
  5
21A92
  8
0
 10
4463.6164432775749447
 20
290.4115850461536184
 30
0.0
 40
0.0256277662447164
 50
31.8139850668612993
 51
82.9594691541249745
  0
ARC
  5
21A93
  8
0
 10
4463.6108726996653786
 20
290.390819370881502
 30
0.0
 40
0.0470144035580386
 50
79.3213255315468899
 51
88.8423167485609753
  0
ARC
  5
21A94
  8
0
 10
4450.8989012778356482
 20
289.1118308834643926
 30
0.0
 40
12.7845309338445006
 50
8.1126223964748032
 51
13.6348675643538808
  0
ARC
  5
21A95
  8
0
 10
4463.2813011727175763
 20
292.1219783399329799
 30
0.0
 40
0.04166533733467
 50
12.0710145858490705
 51
39.0926220538019891
  0
ARC
  5
21A96
  8
0
 10
4463.2946241008394281
 20
292.132651210926781
 30
0.0
 40
0.0245952711990685
 50
39.3665941316245735
 51
82.8227834522608646
  0
ARC
  5
21A97
  8
0
 10
4463.2831721687098252
 20
292.0220484107492211
 30
0.0
 40
0.1357844484778823
 50
83.8593336250643944
 51
90.2836378091044196
  0
ARC
  5
21A98
  8
0
 10
4465.040848722874216
 20
305.6376042230417056
 30
0.0
 40
13.6067421453575097
 50
257.9884617289250173
 51
260.2605505914202126
  0
ARC
  5
21A99
  8
0
 10
4463.7374932123757389
 20
297.0175111950126734
 30
0.0
 40
4.8934853679078936
 50
258.2266527444079998
 51
261.6474737753995896
  0
ARC
  5
21A9A
  8
0
 10
4463.2676807793277476
 20
293.7974610660565986
 30
0.0
 40
1.6393463112454041
 50
261.5452110565702242
 51
269.4538182296964237
  0
ARC
  5
21A9B
  8
0
 10
4461.1881576111563845
 20
287.9985597134340196
 30
0.0
 40
4.4489549674244753
 50
76.7326946049500549
 51
85.2906020750244807
  0
ARC
  5
21A9C
  8
0
 10
4461.0818881210143445
 20
284.4852459063001788
 30
0.0
 40
7.9612254843465671
 50
86.6044259842008444
 51
91.3487732859724417
  0
ARC
  5
21A9D
  8
0
 10
4461.3457623986960243
 20
282.4980142675939874
 30
0.0
 40
9.956483263769444
 50
92.5977686045829245
 51
101.3076853683252949
  0
ARC
  5
21A9E
  8
0
 10
4462.3638251534730443
 20
276.9787713551671118
 30
0.0
 40
15.5684341096648708
 50
100.9989112315322046
 51
104.2596408105783041
  0
ARC
  5
21A9F
  8
0
 10
4458.5994510701793843
 20
291.8410439914387098
 30
0.0
 40
0.2371747909301636
 50
107.2636605727314958
 51
115.4769111120617993
  0
ARC
  5
21AA0
  8
0
 10
4458.524877175788788
 20
291.9935291936221233
 30
0.0
 40
0.0674619008455745
 50
114.0064931586233001
 51
138.1659146374927047
  0
ARC
  5
21AA1
  8
0
 10
4458.5022785046339777
 20
292.0137674153004923
 30
0.0
 40
0.0371256933990993
 50
138.1756580032786133
 51
164.6325416498121967
  0
ARC
  5
21AA2
  8
0
 10
4457.5453405849902992
 20
292.2590736730535923
 30
0.0
 40
0.9507592742587293
 50
340.780457660377408
 51
345.6607526880608248
  0
ARC
  5
21AA3
  8
0
 10
4458.4732113077780014
 20
291.9321370305751771
 30
0.0
 40
0.0331811592041814
 50
155.1248514689376066
 51
177.6687168807339958
  0
ARC
  5
21AA4
  8
0
 10
4459.3659733150288957
 20
291.91261529549638
 30
0.0
 40
0.9261509098307522
 50
178.7086903515715903
 51
182.5776652094758958
  0
ARC
  5
21AA5
  8
0
 10
4460.2441913366646986
 20
291.9514675482657253
 30
0.0
 40
1.805227784332577
 50
182.555966693000812
 51
185.9206321849650863
  0
ARC
  5
21AA6
  8
0
 10
4458.5105353013168497
 20
291.7694131696168256
 30
0.0
 40
0.062081467270496
 50
183.8386543673765061
 51
201.6987897933680074
  0
ARC
  5
21AA7
  8
0
 10
4458.4767623789521167
 20
291.7564590125064115
 30
0.0
 40
0.0259160943911923
 50
202.6948916092312913
 51
243.4840201561731021
  0
ARC
  5
21AA8
  8
0
 10
4458.4785479934880641
 20
291.7644605025046189
 30
0.0
 40
0.0339305863666897
 50
246.8200102751368945
 51
275.3247063943775856
  0
ARC
  5
21AA9
  8
0
 10
4458.4680338166326692
 20
291.8569041148728047
 30
0.0
 40
0.1269650674207739
 50
276.1776617537836955
 51
283.2910896120109214
  0
ARC
  5
21AAA
  8
0
 10
4364.5656937352241584
 20
734.9603669060988977
 30
0.0
 40
453.0709984960226961
 50
281.9654533072214804
 51
282.0217175503981935
  0
ARC
  5
21AAB
  8
0
 10
4461.6262306395410633
 20
279.6458792201088954
 30
0.0
 40
12.4742499893803096
 50
96.8284307116284424
 51
102.4712278533853009
  0
ARC
  5
21AAC
  8
0
 10
4460.9259936618445863
 20
284.8883886113030144
 30
0.0
 40
7.1860320344198314
 50
93.6535402729968638
 51
96.2547242423045901
  0
ARC
  5
21AAD
  8
0
 10
4460.6795562756633444
 20
290.0515157142828002
 30
0.0
 40
2.0163741889218572
 50
85.159101929815705
 51
91.9221642150062763
  0
ARC
  5
21AAE
  8
0
 10
4460.8819201497653921
 20
291.1762618194675838
 30
0.0
 40
0.8651248282782525
 50
42.1269068499967432
 51
75.7743715930483717
  0
ARC
  5
21AAF
  8
0
 10
4460.3584300065231218
 20
290.7637443492558873
 30
0.0
 40
1.5307507693337721
 50
27.8440744177882706
 51
40.4349809296482974
  0
ARC
  5
21AB0
  8
0
 10
4461.4517715845204293
 20
291.1215675825926041
 30
0.0
 40
0.3893783561952677
 50
352.639329040721293
 51
35.4263324302788405
  0
ARC
  5
21AB1
  8
0
 10
4460.0570400839596914
 20
290.7916789320512976
 30
0.0
 40
1.8027786220479249
 50
351.3457221862535107
 51
8.9352244233800615
  0
ARC
  5
21AB2
  8
0
 10
4069.5064362948969574
 20
919.6767332597429458
 30
0.0
 40
742.8949025907661508
 50
301.5813321446235022
 51
301.682024982764915
  0
ARC
  5
21AB3
  8
0
 10
4468.7293111016497278
 20
273.9470021512092899
 30
0.0
 40
16.2899252636787786
 50
119.7430417965394014
 51
123.7532925019461061
  0
ARC
  5
21AB4
  8
0
 10
4566.4218499451026219
 20
280.1403835822985116
 30
0.0
 40
102.9979039839122947
 50
177.3489786094440888
 51
179.3367693397929088
  0
ARC
  5
21AB5
  8
0
 10
4510.1502906725618232
 20
282.708739065716486
 30
0.0
 40
46.667789518350709
 50
174.1742269047227012
 51
177.3034344299074121
  0
ARC
  5
21AB6
  8
0
 10
4369.1376896560395835
 20
280.3161320313707279
 30
0.0
 40
92.8723724009357881
 50
0.695247969742059
 51
3.4041806751767858
  0
ARC
  5
21AB7
  8
0
 10
4419.8414495398810686
 20
283.1822875946872955
 30
0.0
 40
42.0881554059469778
 50
3.607905262205799
 51
5.8138703497576918
  0
LINE
  5
21AB8
  8
0
 10
4461.6327623816559935
 20
274.7685488619620173
 30
0.0
 11
4463.8172501015405942
 21
274.7685488619620173
 31
0.0
  0
LINE
  5
21ABA
  8
0
 10
4461.8268275272548635
 20
275.2255691028731803
 30
0.0
 11
4463.6243682286612966
 21
275.2255691028731803
 31
0.0
  0
LINE
  5
21ABB
  8
0
 10
4461.8552387643276234
 20
290.4378241777732796
 30
0.0
 11
4463.6118225791269651
 21
290.4378241777732796
 31
0.0
  0
LINE
  5
21ABC
  8
0
 10
4461.9672379500680108
 20
290.4771042282732765
 30
0.0
 11
4463.5026710208676377
 21
290.4771042282732765
 31
0.0
  0
LINE
  5
21ABD
  8
0
 10
4462.7072023635637379
 20
290.5204113148732858
 30
0.0
 11
4461.8392927708664502
 21
290.5204113148732858
 31
0.0
  0
ARC
  5
21ABE
  8
0
 10
4459.8075871376604482
 20
290.6632733209204957
 30
0.0
 40
2.0851345130235899
 50
16.1972378644361683
 51
16.4094068969625013
  0
ARC
  5
21ABF
  8
0
 10
4459.8075871376604482
 20
290.6632733209204957
 30
0.0
 40
2.0851345130235899
 50
16.5919231012730108
 51
18.3795444025676709
  0
ARC
  5
21AC0
  8
0
 10
4460.6876192255713249
 20
290.920678686224619
 30
0.0
 40
1.167600102774865
 50
9.029494430936106
 51
12.53272474695037
  0
LINE
  5
21AC1
  8
0
 10
4461.8077891311031635
 20
291.1740446328731764
 30
0.0
 11
4461.8375975342260062
 21
291.1740446328731764
 31
0.0
  0
LINE
  5
21AC2
  8
0
 10
4461.8077891310313134
 20
291.2449107746732011
 30
0.0
 11
4461.8210979459408918
 21
291.2449107746732011
 31
0.0
  0
LINE
  5
21AC3
  8
0
 10
4461.807789131102254
 20
291.1751094515731779
 30
0.0
 11
4461.8374512087402763
 21
291.1751094515731779
 31
0.0
  0
LINE
  5
21AC4
  8
0
 10
4461.8077891310958876
 20
291.1813175208732787
 30
0.0
 11
4461.836538330937401
 21
291.1813175208732787
 31
0.0
  0
LINE
  5
21AC5
  8
0
 10
4461.807789131017671
 20
291.2586903022040019
 30
0.0
 11
4461.8077891311177154
 21
291.1603039678731761
 31
0.0
  0
LINE
  5
21AC6
  8
0
 10
4461.8077891311177154
 20
291.1603039678731761
 30
0.0
 11
4461.7959781074187049
 21
291.1602651053544832
 31
0.0
  0
LINE
  5
21AC7
  8
0
 10
4461.7959781074187049
 20
291.1602651053544832
 30
0.0
 11
4461.7959781074187049
 21
291.2586903021920079
 31
0.0
  0
LINE
  5
21AC8
  8
0
 10
4461.7959781074187049
 20
291.2586903021920079
 30
0.0
 11
4461.807789131017671
 21
291.2586903022040019
 31
0.0
  0
ARC
  5
21AC9
  8
0
 10
4461.8186774184177921
 20
291.2094777037733024
 30
0.0
 40
0.0541953740000018
 50
114.7615138851403032
 51
245.2384861622014114
  0
ENDSEC
  0
EOF
