  0
SECTION
  2
HEADER
  9
$ACADVER
  1
AC1009
  9
$INSBASE
 10
4455.0489500091089212
 20
271.3846814545734105
 30
0.0
  9
$EXTMIN
 10
4453.9112756312651982
 20
271.3797920585176939
 30
0.0
  9
$EXTMAX
 10
4456.1873676651248388
 20
289.0625911063846161
 30
0.0
  9
$LIMMIN
 10
0.0
 20
0.0
  9
$LIMMAX
 10
11.6929133858000007
 20
8.2677165353999982
  9
$ORTHOMODE
 70
     0
  9
$REGENMODE
 70
     1
  9
$FILLMODE
 70
     1
  9
$QTEXTMODE
 70
     0
  9
$MIRRTEXT
 70
     0
  9
$DRAGMODE
 70
     2
  9
$LTSCALE
 40
0.6431102362
  9
$OSMODE
 70
   695
  9
$ATTMODE
 70
     1
  9
$TEXTSIZE
 40
0.2
  9
$TRACEWID
 40
0.05
  9
$TEXTSTYLE
  7
STANDARD
  9
$CLAYER
  8
0
  9
$CELTYPE
  6
BYLAYER
  9
$CECOLOR
 62
   256
  9
$DIMSCALE
 40
1.0
  9
$DIMASZ
 40
0.1875
  9
$DIMEXO
 40
0.0625
  9
$DIMDLI
 40
0.4443307087
  9
$DIMRND
 40
0.0
  9
$DIMDLE
 40
0.0
  9
$DIMEXE
 40
0.125
  9
$DIMTP
 40
0.01
  9
$DIMTM
 40
0.01
  9
$DIMTXT
 40
2.0
  9
$DIMCEN
 40
0.1052362205
  9
$DIMTSZ
 40
0.0
  9
$DIMTOL
 70
     1
  9
$DIMLIM
 70
     0
  9
$DIMTIH
 70
     1
  9
$DIMTOH
 70
     1
  9
$DIMSE1
 70
     0
  9
$DIMSE2
 70
     0
  9
$DIMTAD
 70
     0
  9
$DIMZIN
 70
     0
  9
$DIMBLK
  1

  9
$DIMASO
 70
     1
  9
$DIMSHO
 70
     1
  9
$DIMPOST
  1
\X
  9
$DIMAPOST
  1

  9
$DIMALT
 70
     1
  9
$DIMALTD
 70
     2
  9
$DIMALTF
 40
25.3999999999999986
  9
$DIMLFAC
 40
1.0
  9
$DIMTOFL
 70
     0
  9
$DIMTVP
 40
0.0
  9
$DIMTIX
 70
     0
  9
$DIMSOXD
 70
     0
  9
$DIMSAH
 70
     0
  9
$DIMBLK1
  1

  9
$DIMBLK2
  1

  9
$DIMSTYLE
  2
STANDARD
  9
$DIMCLRD
 70
     0
  9
$DIMCLRE
 70
     0
  9
$DIMCLRT
 70
     0
  9
$DIMTFAC
 40
1.0
  9
$DIMGAP
 40
0.09
  9
$LUNITS
 70
     2
  9
$LUPREC
 70
     4
  9
$SKETCHINC
 40
0.1
  9
$FILLETRAD
 40
0.0
  9
$AUNITS
 70
     0
  9
$AUPREC
 70
     0
  9
$MENU
  1
.
  9
$ELEVATION
 40
0.0
  9
$PELEVATION
 40
0.0
  9
$THICKNESS
 40
0.0
  9
$LIMCHECK
 70
     0
  9
$BLIPMODE
 70
     0
  9
$CHAMFERA
 40
0.0
  9
$CHAMFERB
 40
0.0
  9
$SKPOLY
 70
     0
  9
$TDCREATE
 40
2458060.468368056230247
  9
$TDUPDATE
 40
2459360.037812499795109
  9
$TDINDWG
 40
0.5313959491
  9
$TDUSRTIMER
 40
0.5313959491
  9
$USRTIMER
 70
     1
  9
$ANGBASE
 50
0.0
  9
$ANGDIR
 70
     0
  9
$PDMODE
 70
     0
  9
$PDSIZE
 40
0.3125
  9
$PLINEWID
 40
0.0
  9
$COORDS
 70
     1
  9
$SPLFRAME
 70
     0
  9
$SPLINETYPE
 70
     6
  9
$SPLINESEGS
 70
     8
  9
$ATTDIA
 70
     1
  9
$ATTREQ
 70
     1
  9
$HANDLING
 70
     1
  9
$HANDSEED
  5
22447
  9
$SURFTAB1
 70
     6
  9
$SURFTAB2
 70
     6
  9
$SURFTYPE
 70
     6
  9
$SURFU
 70
     6
  9
$SURFV
 70
     6
  9
$UCSNAME
  2

  9
$UCSORG
 10
0.0
 20
0.0
 30
0.0
  9
$UCSXDIR
 10
1.0
 20
0.0
 30
0.0
  9
$UCSYDIR
 10
0.0
 20
1.0
 30
0.0
  9
$PUCSNAME
  2

  9
$PUCSORG
 10
0.0
 20
0.0
 30
0.0
  9
$PUCSXDIR
 10
1.0
 20
0.0
 30
0.0
  9
$PUCSYDIR
 10
0.0
 20
1.0
 30
0.0
  9
$USERI1
 70
     0
  9
$USERI2
 70
     0
  9
$USERI3
 70
     0
  9
$USERI4
 70
     0
  9
$USERI5
 70
     0
  9
$USERR1
 40
0.0
  9
$USERR2
 40
0.0
  9
$USERR3
 40
0.0
  9
$USERR4
 40
0.0
  9
$USERR5
 40
0.0
  9
$WORLDVIEW
 70
     1
  9
$SHADEDGE
 70
     3
  9
$SHADEDIF
 70
    70
  9
$TILEMODE
 70
     1
  9
$MAXACTVP
 70
    64
  9
$PLIMCHECK
 70
     0
  9
$PEXTMIN
 10
1.0000000000000000E+20
 20
1.0000000000000000E+20
 30
1.0000000000000000E+20
  9
$PEXTMAX
 10
-1.0000000000000000E+20
 20
-1.0000000000000000E+20
 30
-1.0000000000000000E+20
  9
$PLIMMIN
 10
0.0
 20
0.0
  9
$PLIMMAX
 10
12.0
 20
9.0
  9
$UNITMODE
 70
     0
  9
$VISRETAIN
 70
     1
  9
$PLINEGEN
 70
     0
  9
$PSLTSCALE
 70
     1
  0
ENDSEC
  0
SECTION
  2
TABLES
  0
TABLE
  2
VPORT
 70
     1
  0
VPORT
  2
*ACTIVE
 70
     0
 10
0.0
 20
0.0
 11
1.0
 21
1.0
 12
543.6839651905471555
 22
147.641586453198812
 13
0.0
 23
0.0
 14
1.0
 24
1.0
 15
0.0
 25
0.0
 16
0.0
 26
0.0
 36
60.4960186965801583
 17
3911.3653564453120453
 27
132.5796051025390057
 37
0.0
 40
24.7992020061359391
 41
2.3198804185351261
 42
50.0
 43
0.0
 44
0.0
 50
0.0
 51
0.0
 71
     0
 72
   100
 73
     1
 74
     1
 75
     0
 76
     0
 77
     0
 78
     0
  0
ENDTAB
  0
TABLE
  2
LTYPE
 70
     2
  0
LTYPE
  2
CONTINUOUS
 70
     0
  3
Solid line
 72
    65
 73
     0
 40
0.0
  0
LTYPE
  2
PHANTOM2
 70
     0
  3
___ _ _ ___ _ _ ___ _ _ ___ _ _
 72
    65
 73
     6
 40
1.25
 49
0.625
 49
-0.125
 49
0.125
 49
-0.125
 49
0.125
 49
-0.125
  0
ENDTAB
  0
TABLE
  2
LAYER
 70
     2
  0
LAYER
  2
0
 70
     0
 62
   255
  6
CONTINUOUS
  0
LAYER
  2
DEFPOINTS
 70
     0
 62
     7
  6
CONTINUOUS
  0
ENDTAB
  0
TABLE
  2
STYLE
 70
     1
  0
STYLE
  2
STANDARD
 70
     0
 40
0.0
 41
0.8
 50
0.0
 71
     0
 42
0.2
  3
txt
  4

  0
ENDTAB
  0
TABLE
  2
VIEW
 70
     0
  0
ENDTAB
  0
TABLE
  2
UCS
 70
     0
  0
ENDTAB
  0
TABLE
  2
APPID
 70
    11
  0
APPID
  2
ACAD
 70
     0
  0
APPID
  2
ACAD_MLEADERVER
 70
     0
  0
APPID
  2
ACAD_EXEMPT_FROM_CAD_STANDARDS
 70
     0
  0
APPID
  2
ACAD_NAV_VCDISPLAY
 70
     0
  0
APPID
  2
ACAECLAYERSTANDARD
 70
     0
  0
APPID
  2
ACCMTRANSPARENCY
 70
     0
  0
APPID
  2
ACAD_DSTYLE_DIMJAG
 70
     0
  0
APPID
  2
ACAD_DSTYLE_DIMTALN
 70
     0
  0
APPID
  2
ACDBATTR
 70
     0
  0
APPID
  2
ACADANNOTATIVE
 70
     0
  0
APPID
  2
DCO15
 70
     0
  0
ENDTAB
  0
TABLE
  2
DIMSTYLE
 70
     1
  0
DIMSTYLE
  2
STANDARD
 70
     0
  3

  4

  5

  6

  7

 40
1.0
 41
0.1875
 42
0.0625
 43
0.38
 44
0.125
 45
0.0
 46
0.0
 47
0.01
 48
0.01
140
0.15625
141
0.09
142
0.0
143
25.3999999999999986
144
1.0
145
0.0
146
1.0
147
0.09
 71
     1
 72
     0
 73
     1
 74
     1
 75
     0
 76
     0
 77
     0
 78
     4
170
     0
171
     2
172
     0
173
     0
174
     0
175
     0
176
     0
177
     0
178
     0
  0
ENDTAB
  0
ENDSEC
  0
SECTION
  2
BLOCKS
  0
BLOCK
  8
0
  2
$MODEL_SPACE
 70
     0
 10
0.0
 20
0.0
 30
0.0
  3
$MODEL_SPACE
  1

  0
ENDBLK
  5
21
  8
0
  0
BLOCK
 67
     1
  8
0
  2
$PAPER_SPACE
 70
     0
 10
0.0
 20
0.0
 30
0.0
  3
$PAPER_SPACE
  1

  0
ENDBLK
  5
1D
 67
     1
  8
0
  0
ENDSEC
  0
SECTION
  2
ENTITIES
  0
ATTDEF
  5
20106
  8
DEFPOINTS
 10
4455.0493144770698564
 20
271.3831253918510242
 30
0.0
 40
0.001
  1
K-19909T-4
  3

  2
MODELNUMBER
 70
     0
1001
ACDBATTR
1070
     0
1070
     1
  0
ATTDEF
  5
20107
  8
DEFPOINTS
 10
4455.0493110154930037
 20
271.3814585514718942
 30
0.0
 40
0.001
  1
SYMBOL
  3

  2
TRADENAME
 70
     0
1001
ACDBATTR
1070
     0
1070
     1
  0
ATTDEF
  5
20108
  8
DEFPOINTS
 10
4455.0493130778550039
 20
271.3797920585176939
 30
0.0
 40
0.001
  1
BATHROOM SINK FAUCET
  3

  2
PRODUCT
 70
     0
1001
ACDBATTR
1070
     0
1070
     1
  0
LINE
  5
220B9
  8
0
 10
4454.384200101559145
 20
288.9019202071846166
 30
0.0
 11
4454.3655002130590219
 21
288.8831553978845932
 31
0.0
  0
LINE
  5
220BA
  8
0
 10
4454.3965004599576787
 20
288.9171497315845727
 30
0.0
 11
4454.384200101559145
 21
288.9019202071846166
 31
0.0
  0
LINE
  5
220BB
  8
0
 10
4454.4540758495577393
 20
289.0386496852847245
 30
0.0
 11
4454.45186763867423
 21
289.0352542051138016
 31
0.0
  0
LINE
  5
220BC
  8
0
 10
4454.4024106196593493
 20
288.9280323693847095
 30
0.0
 11
4454.3965004599576787
 21
288.9171497315845727
 31
0.0
  0
LINE
  5
220BD
  8
0
 10
4454.2956691688586943
 20
287.136543907484679
 30
0.0
 11
4454.2812334733580428
 21
287.0932368208847265
 31
0.0
  0
LINE
  5
220BE
  8
0
 10
4454.2812334733580428
 20
287.0932368208847265
 30
0.0
 11
4454.2812334733580428
 21
287.0539567703846728
 31
0.0
  0
LINE
  5
220BF
  8
0
 10
4454.7737886447575875
 20
283.7151127245846283
 30
0.0
 11
4454.7239143014576257
 21
283.7151127245846283
 31
0.0
  0
LINE
  5
220C0
  8
0
 10
4454.7737886448076097
 20
283.778780171084577
 30
0.0
 11
4454.7239143014094225
 21
283.778780171084577
 31
0.0
  0
LINE
  5
220C1
  8
0
 10
4454.7202098516590922
 20
283.8740853961605808
 30
0.0
 11
4454.7202098516590922
 21
283.773120752984596
 31
0.0
  0
LINE
  5
220C2
  8
0
 10
4454.7239143014094225
 20
283.7417027328993981
 30
0.0
 11
4454.7239143014576257
 21
283.7151127245846283
 31
0.0
  0
LINE
  5
220C3
  8
0
 10
4454.7737886447575875
 20
283.7151127245846283
 30
0.0
 11
4454.7737886447002893
 21
283.7710628423728849
 31
0.0
  0
LINE
  5
220C4
  8
0
 10
4454.5004608239578374
 20
288.8994202385846961
 30
0.0
 11
4454.51036281605775
 21
288.8373918721845826
 31
0.0
  0
LINE
  5
220C5
  8
0
 10
4454.4894601639589382
 20
288.9451653594845766
 30
0.0
 11
4454.5004608239578374
 21
288.8994202385846961
 31
0.0
  0
LINE
  5
220C6
  8
0
 10
4455.8022308486588372
 20
287.136543907484679
 30
0.0
 11
4455.8166665441576697
 21
287.0932368208847265
 31
0.0
  0
LINE
  5
220C7
  8
0
 10
4455.8166665441576697
 20
287.0932368208847265
 30
0.0
 11
4454.2812334733580428
 21
287.0932368208847265
 31
0.0
  0
LINE
  5
220C8
  8
0
 10
4454.1572156828306106
 20
287.136543907484679
 30
0.0
 11
4455.9406843346860114
 21
287.136543907484679
 31
0.0
  0
LINE
  5
220C9
  8
0
 10
4454.3252589497587905
 20
287.0539516695845919
 30
0.0
 11
4454.3252345811579289
 21
287.0539516761846812
 31
0.0
  0
LINE
  5
220CA
  8
0
 10
4455.9228654699591061
 20
287.0539567703846728
 30
0.0
 11
4454.1750345482587363
 21
287.0539567703846728
 31
0.0
  0
ARC
  5
220CB
  8
0
 10
4455.0001422905379513
 20
283.3295122902741809
 30
0.0
 40
0.4961883342377995
 50
117.1412013499678011
 51
123.8278787165556025
  0
ARC
  5
220CC
  8
0
 10
4454.8298249976387524
 20
283.7895432951485759
 30
0.0
 40
0.059005084347048
 50
190.5101736117572102
 51
198.2522452971653024
  0
ARC
  5
220CD
  8
0
 10
4454.6398803414585927
 20
288.6139622735846046
 30
0.0
 40
0.1165382696
 50
178.2843633738013125
 51
179.7412674946990023
  0
ARC
  5
220CE
  8
0
 10
4454.4803551921586404
 20
289.0174854508845783
 30
0.0
 40
0.0335748318
 50
148.0466648352995946
 51
151.738161512005604
  0
CIRCLE
  5
220CF
  8
0
 10
4455.0489500087578563
 20
287.825520285484572
 30
0.0
 40
0.1377952756
  0
ARC
  5
220D0
  8
0
 10
4453.950781969981108
 20
271.4269605415844921
 30
0.0
 40
0.0423396868048593
 50
227.530685276729514
 51
266.9341479291610995
  0
ARC
  5
220D1
  8
0
 10
4453.9495236120656045
 20
271.4240147733236199
 30
0.0
 40
0.0393314425005794
 50
193.4795845079692072
 51
225.9852513849467073
  0
ARC
  5
220D2
  8
0
 10
4453.9515566485333693
 20
271.4236863153374202
 30
0.0
 40
0.0412395427882727
 50
147.7421063091360907
 51
192.3773406747421006
  0
ARC
  5
220D3
  8
0
 10
4454.1761455247633421
 20
271.2812254656232085
 30
0.0
 40
0.307200457743716
 50
138.1527371485906883
 51
147.6297197536686951
  0
ARC
  5
220D4
  8
0
 10
4450.5602492422658543
 20
274.4548254887175176
 30
0.0
 40
4.503891076448939
 50
318.7664044093525035
 51
320.4490740661606765
  0
ARC
  5
220D5
  8
0
 10
4453.6735531192025519
 20
271.8747186863669185
 30
0.0
 40
0.4604845599763436
 50
321.3169866100982972
 51
338.0891596099273784
  0
ARC
  5
220D6
  8
0
 10
4452.6581872863016542
 20
272.2043097698086171
 30
0.0
 40
1.527248521670149
 50
340.8331303165464874
 51
346.2653462891137224
  0
ARC
  5
220D7
  8
0
 10
4404.125310451328005
 20
279.1048569015094927
 30
0.0
 40
50.1620296224278732
 50
2.8124334529357071
 51
5.568964804092789
  0
ARC
  5
220D8
  8
0
 10
4472.2700881204336838
 20
285.7471959998355828
 30
0.0
 40
18.3057102532111493
 50
181.7286378916247997
 51
185.5625782579641054
  0
ARC
  5
220D9
  8
0
 10
4458.6824400623836482
 20
285.3635410499260274
 30
0.0
 40
4.7127465172704026
 50
177.5686804431398116
 51
182.0496316776294918
  0
ARC
  5
220DA
  8
0
 10
4466.6053145801488427
 20
284.8641023575510189
 30
0.0
 40
12.6507245537896509
 50
170.1843731387835135
 51
176.8309386850636997
  0
ARC
  5
220DB
  8
0
 10
4454.1878644100206657
 20
287.0172503846695236
 30
0.0
 40
0.0482150368685014
 50
148.7172721602723016
 51
175.806894638473608
  0
ARC
  5
220DC
  8
0
 10
4454.1672113284175794
 20
287.0279810726966048
 30
0.0
 40
0.0250408118620416
 50
103.9874294958245997
 51
145.159883171019203
  0
ARC
  5
220DD
  8
0
 10
4454.1748970390763134
 20
286.9968629726806171
 30
0.0
 40
0.0570939632977612
 50
89.862004615467427
 51
103.9234991038643017
  0
ARC
  5
220DE
  8
0
 10
4455.0444105874676097
 20
285.230068687636674
 30
0.0
 40
0.6222439484377679
 50
89.5820095812489541
 51
112.3241923616531039
  0
ARC
  5
220DF
  8
0
 10
4454.9709767827425821
 20
285.4292154638961279
 30
0.0
 40
0.4102023092632344
 50
113.4019139159264
 51
144.7228354298185877
  0
ARC
  5
220E0
  8
0
 10
4455.1495093533758336
 20
285.3262491189183834
 30
0.0
 40
0.6157117169842392
 50
146.4958306706276971
 51
173.1724735467633138
  0
ARC
  5
220E1
  8
0
 10
4455.7466492014773394
 20
285.2314716921302988
 30
0.0
 40
1.2201031993735469
 50
172.0868520081851898
 51
178.5544619942068039
  0
ARC
  5
220E2
  8
0
 10
4455.0026747152260214
 20
285.2577812016821213
 30
0.0
 40
0.4757614185964414
 50
179.4617084440016868
 51
191.268395442624211
  0
ARC
  5
220E3
  8
0
 10
4451.1005591987295702
 20
284.4628684221239041
 30
0.0
 40
3.5065031988632058
 50
10.6402002522611596
 51
11.5477304988478604
  0
ARC
  5
220E4
  8
0
 10
4453.0047185852035909
 20
284.8664519359812743
 30
0.0
 40
1.561216157434125
 50
2.719402445686673
 51
8.9863482564435078
  0
ARC
  5
220E5
  8
0
 10
4458.6478320331252689
 20
284.0660729486712057
 30
0.0
 40
4.0994622042129896
 50
176.882677312552687
 51
182.7756305579580101
  0
ARC
  5
220E6
  8
0
 10
4455.0537827724992894
 20
283.7910480110027152
 30
0.0
 40
0.5411916911915272
 50
90.511649809862007
 51
130.1638804211978879
  0
ARC
  5
220E7
  8
0
 10
4455.1671869208666976
 20
283.7941017153665939
 30
0.0
 40
0.6183858782366065
 50
138.4044733533575027
 51
173.1780105100708056
  0
ARC
  5
220E8
  8
0
 10
4455.0521838889144419
 20
284.0062624830355276
 30
0.0
 40
0.5867208729052937
 50
237.1428489410116072
 51
302.2255437275072723
  0
ARC
  5
220E9
  8
0
 10
4454.962066947454332
 20
283.8558291806562011
 30
0.0
 40
0.4115029251997921
 50
194.5571494720460919
 51
236.3190364225341114
  0
ARC
  5
220EA
  8
0
 10
4455.0409075570760251
 20
283.8543646655546127
 30
0.0
 40
0.4879067142187689
 50
178.4506449837041089
 51
192.0628450494853041
  0
ARC
  5
220EB
  8
0
 10
4455.0441280842396736
 20
284.0698711765750772
 30
0.0
 40
0.2907059148649003
 50
224.7325460512348059
 51
270.9504058915027827
  0
ARC
  5
220EC
  8
0
 10
4455.045320587742026
 20
284.0937746461881943
 30
0.0
 40
0.321545830329174
 50
227.3699983841505059
 51
270.6467349992661866
  0
ARC
  5
220ED
  8
0
 10
4455.0488538734261965
 20
284.0969210521877244
 30
0.0
 40
0.3321498973711101
 50
227.1762030030625965
 51
270.0165833830188831
  0
ARC
  5
220EE
  8
0
 10
4454.916142364377265
 20
283.737041844085411
 30
0.0
 40
0.1483464506350328
 50
137.068724428651592
 51
163.6587826790307929
  0
ARC
  5
220EF
  8
0
 10
4454.9802468454035989
 20
283.6772164983801758
 30
0.0
 40
0.2360302247525974
 50
116.5065407526172976
 51
137.0348584687274069
  0
ARC
  5
220F0
  8
0
 10
4455.0446981264831265
 20
283.5418140192035139
 30
0.0
 40
0.3859740867331788
 50
89.3688181013518772
 51
116.0977593540213064
  0
ARC
  5
220F1
  8
0
 10
4454.8891675852109984
 20
283.7373498784231742
 30
0.0
 40
0.1703675936242216
 50
138.0397924583269003
 51
165.9255926936563981
  0
ARC
  5
220F2
  8
0
 10
4454.9891226131267103
 20
283.6390991684132814
 30
0.0
 40
0.3104494131137377
 50
106.9055467473793044
 51
136.8901461743760137
  0
ARC
  5
220F3
  8
0
 10
4455.0471364823988552
 20
283.4793211896865728
 30
0.0
 40
0.4802779533437292
 50
89.7836509495551951
 51
107.9845595773068965
  0
ARC
  5
220F4
  8
0
 10
4454.9502886892687457
 20
283.7768149795630279
 30
0.0
 40
0.1869744206134605
 50
199.2690014852859122
 51
244.3656226108863052
  0
ARC
  5
220F5
  8
0
 10
4455.0463865011943199
 20
284.0065065306620795
 30
0.0
 40
0.4728548492468132
 50
246.0175826517258884
 51
294.6036604380302037
  0
ARC
  5
220F6
  8
0
 10
4454.9872736346569582
 20
283.8490581018660919
 30
0.0
 40
0.3051355655856065
 50
222.172693223304293
 51
244.1421166799970024
  0
ARC
  5
220F7
  8
0
 10
4454.8884280433640015
 20
283.7562295015371205
 30
0.0
 40
0.1695740564558746
 50
194.0324218934561884
 51
221.3496380964056982
  0
ARC
  5
220F8
  8
0
 10
4455.0487020886330356
 20
284.0591210398819157
 30
0.0
 40
0.5693684414962148
 50
249.3962851145477089
 51
290.6536115651226737
  0
ARC
  5
220F9
  8
0
 10
4454.9699684760626042
 20
283.8568079559727266
 30
0.0
 40
0.3522983158008386
 50
222.5170396301002995
 51
249.8033792192813962
  0
ARC
  5
220FA
  8
0
 10
4454.8491090841962432
 20
283.7455977797719129
 30
0.0
 40
0.1880590523979898
 50
182.0191746397904069
 51
222.427931056592513
  0
ARC
  5
220FB
  8
0
 10
4454.8361746635910094
 20
283.7394649439614795
 30
0.0
 40
0.175008559377337
 50
150.6355752713774905
 51
180.161477266978693
  0
ARC
  5
220FC
  8
0
 10
4454.8957096462791014
 20
283.7045233205736849
 30
0.0
 40
0.2440317098017191
 50
131.792634485738688
 51
150.3400850778814117
  0
ARC
  5
220FD
  8
0
 10
4454.9973165709516252
 20
283.578900790693524
 30
0.0
 40
0.4054838716609759
 50
103.9956697781886987
 51
130.6670577442893943
  0
ARC
  5
220FE
  8
0
 10
4455.0476826153580987
 20
283.4155591409926274
 30
0.0
 40
0.5762336546748223
 50
89.8739810303136295
 51
104.9270792521661946
  0
ARC
  5
220FF
  8
0
 10
4454.8323931724507929
 20
283.7704207103938074
 30
0.0
 40
0.1122158085743458
 50
178.6212639920697995
 51
194.8279519510639091
  0
ARC
  5
22100
  8
0
 10
4455.2739872712190845
 20
283.9833293160062908
 30
0.0
 40
0.5981215628979198
 50
193.8050758411411891
 51
202.4718624710617121
  0
ARC
  5
22101
  8
0
 10
4448.2051353991164433
 20
288.0096419937589189
 30
0.0
 40
6.0157759243554079
 50
351.6549181288353907
 51
354.9845783533589838
  0
ARC
  5
22102
  8
0
 10
4950.9603340899002433
 20
239.875995809566092
 30
0.0
 40
499.0385085356177797
 50
174.3991047265637917
 51
174.5257207416908898
  0
ARC
  5
22103
  8
0
 10
4457.0189844650140003
 20
288.3768584920060221
 30
0.0
 40
2.722380122401979
 50
171.3520537360047911
 51
175.6915162122868992
  0
ARC
  5
22104
  8
0
 10
4455.9930016569978761
 20
288.5226887676103047
 30
0.0
 40
1.686164613333559
 50
169.4916488526606884
 51
171.0089483465596061
  0
ARC
  5
22105
  8
0
 10
4454.4212744573833334
 20
288.8159888212197757
 30
0.0
 40
0.087323333488305
 50
154.8811252781505061
 51
170.6275846964217919
  0
ARC
  5
22106
  8
0
 10
4454.4175337745946308
 20
288.8165379021181138
 30
0.0
 40
0.0837104338513454
 50
140.373829148266509
 51
154.1345329017482868
  0
ARC
  5
22107
  8
0
 10
4454.4601714827322212
 20
288.7816503077478956
 30
0.0
 40
0.1388017745752035
 50
133.004903309040202
 51
140.5067919021225862
  0
ARC
  5
22108
  8
0
 10
4458.8241833671581844
 20
287.0234845642636969
 30
0.0
 40
4.8144965024938191
 50
155.7068356528961033
 51
156.697468534132895
  0
ARC
  5
22109
  8
0
 10
4455.426442336333821
 20
288.5208735734075844
 30
0.0
 40
1.1020788527778169
 50
152.2872557472514927
 51
153.9882952688400053
  0
ARC
  5
2210A
  8
0
 10
4454.5603688544970282
 20
288.9697831886837776
 30
0.0
 40
0.1266522690398711
 50
140.4650302028049111
 51
147.0610793497019131
  0
ARC
  5
2210B
  8
0
 10
4454.4890254796491718
 20
289.0302641847595169
 30
0.0
 40
0.0331534367794886
 50
125.1401190050496979
 51
142.5939315388920079
  0
ARC
  5
2210C
  8
0
 10
4454.4866713288147366
 20
289.0315605551500084
 30
0.0
 40
0.0307609366779792
 50
100.4144817746475979
 51
122.943674919953196
  0
ARC
  5
2210D
  8
0
 10
4454.4902133024279465
 20
289.0097188451421744
 30
0.0
 40
0.0528851381159315
 50
88.7355989853767539
 51
99.9110688418615496
  0
ARC
  5
2210E
  8
0
 10
4454.4892162980486319
 20
288.9870063013418076
 30
0.0
 40
0.0756157757944246
 50
80.045568131206565
 51
88.3600820437579131
  0
ARC
  5
2210F
  8
0
 10
4557.3798535276891926
 20
934.1325544942022816
 30
0.0
 40
653.2231471058986472
 50
260.9386342344471927
 51
260.9431898510579799
  0
ARC
  5
22110
  8
0
 10
4453.6761065400432926
 20
284.5981308593310928
 30
0.0
 40
4.5407643296844631
 50
77.8267990080940422
 51
78.857892011943207
  0
ARC
  5
22111
  8
0
 10
4458.9980984706762683
 20
308.645014066913177
 30
0.0
 40
20.0880826967997308
 50
257.4513967393622238
 51
257.7503847706676083
  0
ARC
  5
22112
  8
0
 10
4460.7956873021375941
 20
319.774574175390228
 30
0.0
 40
31.3514796798725115
 50
258.8555770285299786
 51
258.9799619803097244
  0
ARC
  5
22113
  8
0
 10
4455.9200303911202354
 20
295.9191055018528118
 30
0.0
 40
7.0075399452230238
 50
260.8258718679052777
 51
261.5159629071205245
  0
ARC
  5
22114
  8
0
 10
4455.0486013114586967
 20
290.2907362307556127
 30
0.0
 40
1.312575056988414
 50
262.8919005185863966
 51
270.0152211515224963
  0
ARC
  5
22115
  8
0
 10
4455.0489500091089212
 20
289.5910444841686058
 30
0.0
 40
1.244381975419357
 50
258.7593576190445788
 51
281.2406423809554212
  0
ARC
  5
22116
  8
0
 10
4454.8964913149084168
 20
288.847031107220289
 30
0.0
 40
0.4849430279259734
 50
234.2089649402199996
 51
259.2914480084174897
  0
ARC
  5
22117
  8
0
 10
4454.7080841708193475
 20
288.6091159350975204
 30
0.0
 40
0.1822851739658481
 50
195.3643455837658962
 51
238.5152181910563058
  0
ARC
  5
22118
  8
0
 10
4454.6814303053897675
 20
288.6133267099529007
 30
0.0
 40
0.1580913144905764
 50
179.5789278549787014
 51
199.3986773449628913
  0
ARC
  5
22119
  8
0
 10
4455.0456789911640954
 20
289.7901512936048221
 30
0.0
 40
1.2114075087962579
 50
263.7636315256178818
 51
270.1547090877836013
  0
ARC
  5
2211A
  8
0
 10
4455.0467150695303644
 20
289.7441721951623776
 30
0.0
 40
1.1658286215378899
 50
254.7210262108507948
 51
263.4675417749226085
  0
ARC
  5
2211B
  8
0
 10
4455.1696003528077199
 20
290.1996408018375178
 30
0.0
 40
1.637581606790748
 50
250.9837960133374111
 51
254.7729084802998045
  0
ARC
  5
2211C
  8
0
 10
4454.6828478757915946
 20
288.8317038792829976
 30
0.0
 40
0.1862592043840178
 50
241.5500450658653904
 51
255.4382747617354141
  0
ARC
  5
2211D
  8
0
 10
4454.6313766084613235
 20
288.7370939145735065
 30
0.0
 40
0.0785547171649582
 50
230.2742502192764107
 51
241.6842003817579041
  0
ARC
  5
2211E
  8
0
 10
4454.5845931064768592
 20
288.6812274968668817
 30
0.0
 40
0.005693924490065
 50
196.4800573010676885
 51
233.060559035050602
  0
ARC
  5
2211F
  8
0
 10
4454.5567885797991039
 20
288.6217398480238785
 30
0.0
 40
0.062036204311651
 50
68.8884354190598884
 51
82.3478899675922236
  0
ARC
  5
22120
  8
0
 10
4454.5598116989058326
 20
288.6469256126375171
 30
0.0
 40
0.0366739132071321
 50
81.7893823465339835
 51
101.3109307475087064
  0
ARC
  5
22121
  8
0
 10
4454.5577916539077705
 20
288.6586892080263169
 30
0.0
 40
0.0247447542569933
 50
102.0667727892871
 51
137.9398041720396009
  0
ARC
  5
22122
  8
0
 10
4454.5690986442468784
 20
288.649532118570221
 30
0.0
 40
0.0392816341803301
 50
139.0718522348645081
 51
161.582076007165
  0
ARC
  5
22123
  8
0
 10
4454.719559540467344
 20
288.6013043123211901
 30
0.0
 40
0.1972809115819716
 50
162.0990592957616059
 51
170.1394752963736892
  0
ARC
  5
22124
  8
0
 10
4454.6524114895246385
 20
288.613204749446993
 30
0.0
 40
0.1290870450854617
 50
170.2395695319372066
 51
178.1148046847447972
  0
ARC
  5
22125
  8
0
 10
4452.5492092989707089
 20
288.6111878673854108
 30
0.0
 40
1.9741558624825899
 50
0.1387940679782432
 51
6.5795533744416153
  0
ARC
  5
22126
  8
0
 10
4454.1661514052930215
 20
288.8575694527571045
 30
0.0
 40
0.3349650672912086
 50
15.1595358850109303
 51
28.1652479825163091
  0
ARC
  5
22127
  8
0
 10
4454.285395008134401
 20
288.9465693671867257
 30
0.0
 40
0.1891363295560383
 50
21.4317416385216397
 51
22.4815905052210887
  0
ARC
  5
22128
  8
0
 10
4454.4415410351421087
 20
289.0117857895388056
 30
0.0
 40
0.0199267821924488
 50
20.8942399089661102
 51
33.55231069337961
  0
ARC
  5
22129
  8
0
 10
4454.4556068459851303
 20
289.0209970349085893
 30
0.0
 40
0.0031150884902249
 50
35.3489510089157335
 51
60.5942500572909708
  0
ARC
  5
2212A
  8
0
 10
4454.4534330476108153
 20
289.0121009277925737
 30
0.0
 40
0.0121861875970719
 50
72.3085113451055292
 51
146.4025854557272055
  0
LINE
  5
2212B
  8
0
 10
4455.7136999159583866
 20
288.9019202071846166
 30
0.0
 11
4455.7323998044594191
 21
288.8831553978845932
 31
0.0
  0
LINE
  5
2212C
  8
0
 10
4455.7013995575580338
 20
288.9171497315845727
 30
0.0
 11
4455.7136999159583866
 21
288.9019202071846166
 31
0.0
  0
LINE
  5
2212D
  8
0
 10
4455.6438241679588828
 20
289.0386496852847245
 30
0.0
 11
4455.6460323788433016
 21
289.0352542051138016
 31
0.0
  0
LINE
  5
2212E
  8
0
 10
4455.6954893978590917
 20
288.9280323693847095
 30
0.0
 11
4455.7013995575580338
 21
288.9171497315845727
 31
0.0
  0
LINE
  5
2212F
  8
0
 10
4455.8166665441576697
 20
287.0932368208847265
 30
0.0
 11
4455.8166665441576697
 21
287.0539567703846728
 31
0.0
  0
LINE
  5
22130
  8
0
 10
4455.3241113735593899
 20
283.7151127245846283
 30
0.0
 11
4455.3739857168593517
 21
283.7151127245846283
 31
0.0
  0
LINE
  5
22131
  8
0
 10
4455.3241113735593899
 20
283.778780171084577
 30
0.0
 11
4455.3739857169075549
 21
283.778780171084577
 31
0.0
  0
LINE
  5
22132
  8
0
 10
4455.3776901666587946
 20
283.8740523856944833
 30
0.0
 11
4455.3776901666587946
 21
283.773120752984596
 31
0.0
  0
LINE
  5
22133
  8
0
 10
4455.3739857168202434
 20
283.7417027328665995
 30
0.0
 11
4455.3739857168593517
 21
283.7151127245846283
 31
0.0
  0
LINE
  5
22134
  8
0
 10
4455.3241113735593899
 20
283.7151127245846283
 30
0.0
 11
4455.3241113735657564
 21
283.7710628423822072
 31
0.0
  0
LINE
  5
22135
  8
0
 10
4455.5974391935578751
 20
288.8994202385846961
 30
0.0
 11
4455.5875372014579625
 21
288.8373918721845826
 31
0.0
  0
LINE
  5
22136
  8
0
 10
4455.6084398535576838
 20
288.9451653594845766
 30
0.0
 11
4455.5974391935578751
 21
288.8994202385846961
 31
0.0
  0
LINE
  5
22137
  8
0
 10
4455.772641067758741
 20
287.0539516695845919
 30
0.0
 11
4455.7726654363577836
 21
287.0539516761846812
 31
0.0
  0
ARC
  5
22138
  8
0
 10
4455.0934567130652795
 20
283.3222061099651796
 30
0.0
 40
0.5046522947913662
 50
56.2282573895590829
 51
62.8026624333431513
  0
ARC
  5
22139
  8
0
 10
4454.980967993988088
 20
283.8685029577010255
 30
0.0
 40
0.356709903116998
 50
344.1474011159194788
 51
345.4320073777656717
  0
ARC
  5
2213A
  8
0
 10
4455.4580196760589388
 20
288.6139622735846046
 30
0.0
 40
0.1165382696
 50
0.2587325053010099
 51
1.715636626198688
  0
ARC
  5
2213B
  8
0
 10
4455.6175448253588911
 20
289.0174854508845783
 30
0.0
 40
0.0335748318
 50
28.2618384879944102
 51
31.9533351647003698
  0
ARC
  5
2213C
  8
0
 10
4505.7940383815703171
 20
279.1176806828207759
 30
0.0
 40
49.9830769193685995
 50
174.4258034300497116
 51
177.1417325897901947
  0
ARC
  5
2213D
  8
0
 10
4437.8306278215959537
 20
285.7469692335051832
 30
0.0
 40
18.3028856080556608
 50
354.4372738071310209
 51
358.2718054481724153
  0
ARC
  5
2213E
  8
0
 10
4443.4935154293079904
 20
284.8642356090929866
 30
0.0
 40
12.6497854591326799
 50
3.1686923477079949
 51
9.8157502529214113
  0
ARC
  5
2213F
  8
0
 10
4455.9100356074950469
 20
287.0172503846695236
 30
0.0
 40
0.0482150368685014
 50
4.1931053615263618
 51
31.2827278397277517
  0
ARC
  5
22140
  8
0
 10
4455.9306886890990427
 20
287.0279810726966048
 30
0.0
 40
0.0250408118620416
 50
34.840116828980733
 51
76.0125705041753577
  0
ARC
  5
22141
  8
0
 10
4455.9230029784412181
 20
286.9968629726806171
 30
0.0
 40
0.0570939632977612
 50
76.0765008961356699
 51
90.1379953845326156
  0
ARC
  5
22142
  8
0
 10
4455.053489430105401
 20
285.2300686878535885
 30
0.0
 40
0.6222439482160917
 50
67.6758076354715712
 51
90.417990359500152
  0
ARC
  5
22143
  8
0
 10
4455.1269232347740399
 20
285.4292154638961279
 30
0.0
 40
0.4102023092632344
 50
35.2771645701813625
 51
66.5980860840736284
  0
ARC
  5
22144
  8
0
 10
4454.9483906641407884
 20
285.3262491189183834
 30
0.0
 40
0.6157117169842392
 50
6.827526453236616
 51
33.5041693293723384
  0
ARC
  5
22145
  8
0
 10
4454.3512508160401921
 20
285.2314716921302988
 30
0.0
 40
1.2201031993735469
 50
1.4455380057931391
 51
7.9131479918147827
  0
ARC
  5
22146
  8
0
 10
4455.0952253022906007
 20
285.2577812016821213
 30
0.0
 40
0.4757614185964414
 50
348.7316045573757037
 51
0.5382915559983183
  0
ARC
  5
22147
  8
0
 10
4458.9973408187879613
 20
284.4628684221239041
 30
0.0
 40
3.5065031988632058
 50
168.4522695011521023
 51
169.3597997477388049
  0
ARC
  5
22148
  8
0
 10
4457.0883230259332777
 20
284.8670870930397996
 30
0.0
 40
1.556318179726168
 50
171.0088099163714901
 51
177.2908310260345104
  0
ARC
  5
22149
  8
0
 10
4450.9192010231899985
 20
284.0580386269868995
 30
0.0
 40
4.6299267451613799
 50
357.6421028742951762
 51
2.6975849665498051
  0
ARC
  5
2214A
  8
0
 10
4455.0567553916253019
 20
283.8358081954835939
 30
0.0
 40
0.4964712891524897
 50
41.2029924838425075
 51
90.9008253059509741
  0
ARC
  5
2214B
  8
0
 10
4454.8742684986482345
 20
283.7764572446279203
 30
0.0
 40
0.6770957111167883
 50
7.7322782527966059
 51
34.7962033970715723
  0
ARC
  5
2214C
  8
0
 10
4455.1683538107927234
 20
283.8279927599066923
 30
0.0
 40
0.3739783937776783
 50
301.733495278643602
 51
348.3383381506390037
  0
ARC
  5
2214D
  8
0
 10
4455.0574794194781134
 20
283.8543646655546127
 30
0.0
 40
0.4879067142187689
 50
347.9371549505145822
 51
1.5493550162959151
  0
ARC
  5
2214E
  8
0
 10
4455.053768413707985
 20
284.0698634702279719
 30
0.0
 40
0.2906981512072356
 50
269.0502626542595976
 51
315.2609533004226137
  0
ARC
  5
2214F
  8
0
 10
4455.0525705625168484
 20
284.0937947481154993
 30
0.0
 40
0.3215658310080772
 50
269.3548853984445941
 51
312.6221822245370277
  0
ARC
  5
22150
  8
0
 10
4455.049077498765655
 20
284.0967468981896218
 30
0.0
 40
0.3319757539406751
 50
269.9779965272261961
 51
312.8347747508847192
  0
ARC
  5
22151
  8
0
 10
4455.1815962934360869
 20
283.7370073531631078
 30
0.0
 40
0.1485109974558986
 50
16.3364710640626711
 51
43.4629022829021991
  0
ARC
  5
22152
  8
0
 10
4455.1141403321007601
 20
283.6727330898294781
 30
0.0
 40
0.241685293057172
 50
43.5220772159313114
 51
64.8492733394388097
  0
ARC
  5
22153
  8
0
 10
4455.052745944813978
 20
283.5384526686692084
 30
0.0
 40
0.3893305226775511
 50
65.0693664495227324
 51
90.5586372721357833
  0
ARC
  5
22154
  8
0
 10
4455.2103180754356799
 20
283.7380268367749068
 30
0.0
 40
0.1686651449553253
 50
13.9823355420149404
 51
40.7192128313399877
  0
ARC
  5
22155
  8
0
 10
4455.1090705011247337
 20
283.6404436602937267
 30
0.0
 40
0.3091621258804874
 50
42.1854306825623979
 51
73.663331260804398
  0
ARC
  5
22156
  8
0
 10
4455.0506513269274365
 20
283.4781650808154154
 30
0.0
 40
0.4814336443854826
 50
72.4237780779283469
 51
90.2024755205677167
  0
ARC
  5
22157
  8
0
 10
4455.0487102889719608
 20
283.9618020215206116
 30
0.0
 40
0.3964291449758647
 50
243.1075464515463977
 51
296.9617469044459881
  0
ARC
  5
22158
  8
0
 10
4455.1507673759360841
 20
283.7743665062400851
 30
0.0
 40
0.1831915722259733
 50
295.0904520577299195
 51
341.1281503104654007
  0
ARC
  5
22159
  8
0
 10
4455.1447008476343399
 20
283.8111704231466774
 30
0.0
 40
0.2544490784145478
 50
292.7879163783964032
 51
319.9970473914448803
  0
ARC
  5
2215A
  8
0
 10
4455.2117064973708693
 20
283.7552356754056859
 30
0.0
 40
0.167165774835986
 50
319.9194502908725894
 51
346.1123422256185904
  0
ARC
  5
2215B
  8
0
 10
4455.1274680133919901
 20
283.8590114239228228
 30
0.0
 40
0.3543515285179181
 50
290.1488844504261806
 51
316.0772741524605181
  0
ARC
  5
2215C
  8
0
 10
4455.2462562101636649
 20
283.7463138654538284
 30
0.0
 40
0.1906183016784075
 50
315.7079967561671765
 51
357.794357119489689
  0
ARC
  5
2215D
  8
0
 10
4455.2585895216088829
 20
283.738872054388878
 30
0.0
 40
0.1781437983352337
 50
0.0339742434287553
 51
34.8782933749167228
  0
ARC
  5
2215E
  8
0
 10
4455.1913245235282375
 20
283.6951241500497076
 30
0.0
 40
0.2583553104750825
 50
34.3072047667286526
 51
51.1726614139660114
  0
ARC
  5
2215F
  8
0
 10
4455.0963552736211568
 20
283.5684945951508098
 30
0.0
 40
0.4165831771817781
 50
51.9166087696909102
 51
75.5826915195772955
  0
ARC
  5
22160
  8
0
 10
4455.0502552080215537
 20
283.4160178266723733
 30
0.0
 40
0.5757750545631525
 50
74.9175232993277405
 51
90.1298813705748643
  0
ARC
  5
22161
  8
0
 10
4455.2655068496696913
 20
283.7704207102211171
 30
0.0
 40
0.1122158047754002
 50
345.1720476093374828
 51
1.3787361428170899
  0
ARC
  5
22162
  8
0
 10
4454.844549599459242
 20
283.9756792387158271
 30
0.0
 40
0.576127281555709
 50
337.4470644711252021
 51
341.0132871432239199
  0
ARC
  5
22163
  8
0
 10
4454.8114111384593343
 20
283.9869411065139957
 30
0.0
 40
0.6111268635021088
 50
341.0257007619367187
 51
346.1527815109732273
  0
ARC
  5
22164
  8
0
 10
4461.8927646184019977
 20
288.0096419937589189
 30
0.0
 40
6.0157759243554079
 50
185.0154216466409025
 51
188.3450818711646093
  0
ARC
  5
22165
  8
0
 10
3959.1375659276168335
 20
239.875995809566092
 30
0.0
 40
499.0385085356177797
 50
5.4742792583091369
 51
5.6008952734361301
  0
ARC
  5
22166
  8
0
 10
4453.0789155525017122
 20
288.3768584920060221
 30
0.0
 40
2.722380122401979
 50
4.3084837877131097
 51
8.6479462639951361
  0
ARC
  5
22167
  8
0
 10
4454.1048983605178364
 20
288.5226887676103047
 30
0.0
 40
1.686164613333559
 50
8.9910516534403442
 51
10.5083511473392601
  0
ARC
  5
22168
  8
0
 10
4455.6766255601323792
 20
288.8159888212197757
 30
0.0
 40
0.087323333488305
 50
9.3724153035782027
 51
25.118874721849501
  0
ARC
  5
22169
  8
0
 10
4455.6803662429219912
 20
288.8165379021181138
 30
0.0
 40
0.0837104338513454
 50
25.8654670982516883
 51
39.6261708517335194
  0
ARC
  5
2216A
  8
0
 10
4455.6377285347853103
 20
288.7816503077478956
 30
0.0
 40
0.1388017745752035
 50
39.4932080978774422
 51
46.995096690959727
  0
ARC
  5
2216B
  8
0
 10
4451.2737166503584376
 20
287.0234845642636969
 30
0.0
 40
4.8144965024938191
 50
23.3025314658671014
 51
24.2931643471038399
  0
ARC
  5
2216C
  8
0
 10
4454.671457681182801
 20
288.5208735734075844
 30
0.0
 40
1.1020788527778169
 50
26.0117047311600089
 51
27.7127442527484611
  0
ARC
  5
2216D
  8
0
 10
4455.5375311630195938
 20
288.9697831886837776
 30
0.0
 40
0.1266522690398711
 50
32.9389206502980869
 51
39.5349697971950533
  0
ARC
  5
2216E
  8
0
 10
4455.6088745378683598
 20
289.0302641847595169
 30
0.0
 40
0.0331534367794886
 50
37.4060684611079566
 51
54.8598809949502666
  0
ARC
  5
2216F
  8
0
 10
4455.6112286887009759
 20
289.0315605551500084
 30
0.0
 40
0.0307609366779792
 50
57.0563250800467898
 51
79.585518225352331
  0
ARC
  5
22170
  8
0
 10
4455.6076867150877661
 20
289.0097188451421744
 30
0.0
 40
0.0528851381159315
 50
80.0889311581384646
 51
91.2644010146232318
  0
ARC
  5
22171
  8
0
 10
4455.6086837194688997
 20
288.9870063013418076
 30
0.0
 40
0.0756157757944246
 50
91.6399179562420869
 51
99.9544318687934492
  0
ARC
  5
22172
  8
0
 10
4352.7180464898292485
 20
934.1325544942022816
 30
0.0
 40
653.2231471058986472
 50
279.0568101489420201
 51
279.0613657655526936
  0
ARC
  5
22173
  8
0
 10
4456.4217934774751484
 20
284.5981308593310928
 30
0.0
 40
4.5407643296844631
 50
101.142107988056793
 51
102.173200991905901
  0
ARC
  5
22174
  8
0
 10
4451.0998015468412632
 20
308.645014066913177
 30
0.0
 40
20.0880826967997308
 50
282.2496152293323917
 51
282.5486032606377762
  0
ARC
  5
22175
  8
0
 10
4449.3022127153790279
 20
319.774574175390228
 30
0.0
 40
31.3514796798725115
 50
281.0200380196902756
 51
281.1444229714700214
  0
ARC
  5
22176
  8
0
 10
4454.1778696263982056
 20
295.9191055018528118
 30
0.0
 40
7.0075399452230238
 50
278.4840370928794755
 51
279.1741281320947223
  0
ARC
  5
22177
  8
0
 10
4455.0492987060633823
 20
290.29073623070758
 30
0.0
 40
1.3125750569401791
 50
269.9847788788056278
 51
277.1080994815180816
  0
ARC
  5
22178
  8
0
 10
4455.2014087012594246
 20
288.8470311096064052
 30
0.0
 40
0.4849430306515746
 50
280.7085521773067853
 51
305.7910350243868152
  0
ARC
  5
22179
  8
0
 10
4455.389815846698184
 20
288.6091159350975204
 30
0.0
 40
0.1822851739658481
 50
301.4847818089438078
 51
344.6356544162341038
  0
ARC
  5
2217A
  8
0
 10
4455.4164697121277641
 20
288.6133267099529007
 30
0.0
 40
0.1580913144905764
 50
340.6013226550371087
 51
0.4210721450212873
  0
ARC
  5
2217B
  8
0
 10
4455.0522210264007299
 20
289.7901512929989849
 30
0.0
 40
1.211407508188769
 50
269.8452909429094007
 51
276.2363684751687174
  0
ARC
  5
2217C
  8
0
 10
4455.0511849479880766
 20
289.7441721951623776
 30
0.0
 40
1.1658286215378899
 50
276.5324582250773915
 51
285.2789737891491768
  0
ARC
  5
2217D
  8
0
 10
4454.9282996647098116
 20
290.1996408018375178
 30
0.0
 40
1.637581606790748
 50
285.2270915197001955
 51
289.0162039866626174
  0
ARC
  5
2217E
  8
0
 10
4455.4150521417250275
 20
288.8317038792829976
 30
0.0
 40
0.1862592043840178
 50
284.5617252382646143
 51
298.4499549341346096
  0
ARC
  5
2217F
  8
0
 10
4455.466523409056208
 20
288.7370939145735065
 30
0.0
 40
0.0785547171649582
 50
298.3157996182421243
 51
309.7257497807236177
  0
ARC
  5
22180
  8
0
 10
4455.5133069110397628
 20
288.6812274968668817
 30
0.0
 40
0.005693924490065
 50
306.9394409649494264
 51
343.5199426989321978
  0
ARC
  5
22181
  8
0
 10
4455.5411114377166086
 20
288.6217398480238785
 30
0.0
 40
0.062036204311651
 50
97.6521100324077906
 51
111.1115645809400974
  0
ARC
  5
22182
  8
0
 10
4455.5380883186098799
 20
288.6469256126375171
 30
0.0
 40
0.0366739132071321
 50
78.6890692524912509
 51
98.2106176534660165
  0
ARC
  5
22183
  8
0
 10
4455.5401083636088515
 20
288.6586892080263169
 30
0.0
 40
0.0247447542569933
 50
42.0601958279603281
 51
77.9332272107128432
  0
ARC
  5
22184
  8
0
 10
4455.5288013732706531
 20
288.649532118570221
 30
0.0
 40
0.0392816341803301
 50
18.4179239928380198
 51
40.9281477651355203
  0
ARC
  5
22185
  8
0
 10
4455.378340477051097
 20
288.6013043123211901
 30
0.0
 40
0.1972809115819716
 50
9.8605247036262522
 51
17.9009407042383195
  0
ARC
  5
22186
  8
0
 10
4455.4454885279928931
 20
288.613204749446993
 30
0.0
 40
0.1290870450854617
 50
1.8851953152551899
 51
9.7604304680627418
  0
ARC
  5
22187
  8
0
 10
4457.5486907185468226
 20
288.6111878673854108
 30
0.0
 40
1.9741558624825899
 50
173.4204466255584123
 51
179.8612059320217043
  0
ARC
  5
22188
  8
0
 10
4455.9317486122254195
 20
288.8575694527571045
 30
0.0
 40
0.3349650672912086
 50
151.8347520174837086
 51
164.840464114989004
  0
ARC
  5
22189
  8
0
 10
4455.81250500938404
 20
288.9465693671867257
 30
0.0
 40
0.1891363295560383
 50
157.5184094947788935
 51
158.5682583614783141
  0
ARC
  5
2218A
  8
0
 10
4455.6563589823754228
 20
289.0117857895388056
 30
0.0
 40
0.0199267821924488
 50
146.44768930662039
 51
159.1057600910338863
  0
ARC
  5
2218B
  8
0
 10
4455.6461244230504235
 20
289.0175882762731021
 30
0.0
 40
0.0082315045272032
 50
35.556229577777529
 51
140.724010617403593
  0
LINE
  5
2218C
  8
0
 10
4455.956135147977875
 20
271.8417016954845735
 30
0.0
 11
4454.1417652018089939
 21
271.8417016954845735
 31
0.0
  0
CIRCLE
  5
2218D
  8
0
 10
4454.9780838670576486
 20
287.825520285484572
 30
0.0
 40
0.0492125984000005
  0
CIRCLE
  5
2218E
  8
0
 10
4455.1198161504589734
 20
287.825520285484572
 30
0.0
 40
0.0492125984000005
  0
ARC
  5
2218F
  8
0
 10
4451.4154567915957159
 20
285.3635410499260274
 30
0.0
 40
4.7127465172704026
 50
357.9503683223704797
 51
2.4313195568602111
  0
ARC
  5
22190
  8
0
 10
4456.1476999643509771
 20
271.4270310516990889
 30
0.0
 40
0.0424116726303564
 50
273.1003308716419724
 51
312.434467763793009
  0
ARC
  5
22191
  8
0
 10
4456.1476625851510107
 20
271.4250449700289209
 30
0.0
 40
0.0409938890400786
 50
314.346395980773309
 51
345.5948828778517736
  0
ARC
  5
22192
  8
0
 10
4456.1470866478557582
 20
271.4236863153374202
 30
0.0
 40
0.0412395427882727
 50
347.6226593252578141
 51
32.2578936908638667
  0
ARC
  5
22193
  8
0
 10
4455.8230343770956097
 20
271.1999579254646164
 30
0.0
 40
0.4349897855513087
 50
34.3974997849728794
 51
41.146151461044461
  0
ARC
  5
22194
  8
0
 10
4459.5376510129517555
 20
274.4548254887175176
 30
0.0
 40
4.503891076448939
 50
219.5509259338392098
 51
221.2335955906474965
  0
ARC
  5
22195
  8
0
 10
4456.4243471360150579
 20
271.8747186863669185
 30
0.0
 40
0.4604845599763436
 50
201.9108403900725079
 51
218.6830133899017881
  0
ARC
  5
22196
  8
0
 10
4457.4396740312622569
 20
272.2042972616872021
 30
0.0
 40
1.5272076358000479
 50
193.7345455424982958
 51
199.1669060476245079
  0
ARC
  5
22197
  8
0
 10
4434.9654692704152694
 20
285.217497189198923
 30
0.0
 40
19.6109589870058905
 50
357.2862825319492117
 51
358.4712802926123913
  0
ARC
  5
22198
  8
0
 10
4450.7078700207339352
 20
284.7347936314045
 30
0.0
 40
3.8617904126537188
 50
359.3994318183687255
 51
3.0537724222528571
  0
ARC
  5
22199
  8
0
 10
4463.2009336507662738
 20
284.7264805048624794
 30
0.0
 40
7.6701799442380496
 50
178.399970118045303
 51
183.3674253763205968
  0
LINE
  5
2219A
  8
0
 10
4455.3739857169075549
 20
283.778780171084577
 30
0.0
 11
4455.3739857169075549
 21
283.8053701793846813
 31
0.0
  0
ARC
  5
2219B
  8
0
 10
4455.1990893253778268
 20
283.7689425820424276
 30
0.0
 40
0.17864970646011
 50
1.3401275308048539
 51
11.7654157852235901
  0
ARC
  5
2219C
  8
0
 10
4448.9836206306727036
 20
273.1403547631948072
 30
0.0
 40
5.3191122574173484
 50
345.8684840267408731
 51
353.4953527141402105
  0
ARC
  5
2219D
  8
0
 10
4441.1724488223399021
 20
273.954218961813126
 30
0.0
 40
13.1724193263862599
 50
353.8270355801794835
 51
358.2185799469347103
  0
ARC
  5
2219E
  8
0
 10
4328.5853599667289018
 20
275.6667048724091842
 30
0.0
 40
125.7710437884639987
 50
359.0332765656178253
 51
1.0899672636857261
  0
ARC
  5
2219F
  8
0
 10
4349.1469246961269164
 20
276.6131717090684106
 30
0.0
 40
105.196660389255797
 50
0.7875925512971766
 51
2.698647668647959
  0
ARC
  5
221A0
  8
0
 10
4463.1092496599603692
 20
273.4932996376708729
 30
0.0
 40
7.3413093508013771
 50
181.956475936525095
 51
193.0013029157020981
  0
ARC
  5
221A1
  8
0
 10
4540.0420162082291426
 20
275.5745810709483976
 30
0.0
 40
84.302054526809485
 50
179.024627515004596
 51
181.5850858120689963
  0
ARC
  5
221A2
  8
0
 10
4661.0695384975988418
 20
274.7311163081353129
 30
0.0
 40
205.3300042943681092
 50
178.6142333899258858
 51
179.3641865252922116
  0
ARC
  5
221A3
  8
0
 10
4522.0588314045089646
 20
278.1075951294549782
 30
0.0
 40
66.2782991052184229
 50
176.970759433427105
 51
178.6260591214328031
  0
LINE
  5
221A4
  8
0
 10
4454.8814133092992051
 20
283.8870656883742072
 30
0.0
 11
4454.8748357110089273
 21
283.8796961698847099
 31
0.0
  0
LINE
  5
221A5
  8
0
 10
4454.8748357110089273
 20
283.8669360015845768
 30
0.0
 11
4454.8871077967105521
 21
283.8806856042872937
 31
0.0
  0
LINE
  5
221A6
  8
0
 10
4454.8950851956078623
 20
283.8762762497847234
 30
0.0
 11
4454.8825723743084382
 21
283.8618468325847175
 31
0.0
  0
LINE
  5
221A7
  8
0
 10
4454.928124126210605
 20
283.904510566433828
 30
0.0
 11
4454.9215465300076175
 21
283.8971410502845742
 31
0.0
  0
LINE
  5
221A8
  8
0
 10
4454.8835921371091899
 20
283.8418569152846089
 30
0.0
 11
4454.8871077925750797
 21
283.8457958436310946
 31
0.0
  0
LINE
  5
221A9
  8
0
 10
4454.9215465300076175
 20
283.884380881884681
 30
0.0
 11
4454.9338186137110824
 21
283.898130482232375
 31
0.0
  0
LINE
  5
221AA
  8
0
 10
4454.9421620497460026
 20
283.8937211346847107
 30
0.0
 11
4454.9292831933080379
 21
283.8792917082847111
 31
0.0
  0
LINE
  5
221AB
  8
0
 10
4454.8954512224681821
 20
283.841386489084698
 30
0.0
 11
4454.8904439764091876
 21
283.8357763878846072
 31
0.0
  0
LINE
  5
221AC
  8
0
 10
4454.9742547779251254
 20
283.9213054292163747
 30
0.0
 11
4454.9682573490081268
 21
283.9145859305846784
 31
0.0
  0
LINE
  5
221AD
  8
0
 10
4454.9281241262251569
 20
283.8696208057506851
 30
0.0
 11
4454.9215465300076175
 21
283.8622512895847194
 31
0.0
  0
LINE
  5
221AE
  8
0
 10
4454.9215465300076175
 20
283.8494911212845864
 30
0.0
 11
4454.9338186137138109
 21
283.8632407215349076
 31
0.0
  0
LINE
  5
221AF
  8
0
 10
4454.9682573490081268
 20
283.9018257622846022
 30
0.0
 11
4454.9805294348052485
 21
283.9155753648781797
 31
0.0
  0
LINE
  5
221B0
  8
0
 10
4454.9888728645510128
 20
283.9111660103847044
 30
0.0
 11
4454.9759940123085471
 21
283.8967365885845879
 31
0.0
  0
LINE
  5
221B1
  8
0
 10
4454.9421620497460026
 20
283.8588313740846729
 30
0.0
 11
4454.9292831933080379
 21
283.8444019475845721
 31
0.0
  0
LINE
  5
221B2
  8
0
 10
4454.9748349463534396
 20
283.8870656873141911
 30
0.0
 11
4454.9682573490081268
 21
283.8796961698847099
 31
0.0
  0
LINE
  5
221B3
  8
0
 10
4454.9281241241733369
 20
283.8347310474043752
 30
0.0
 11
4454.926603466808956
 21
283.8330273081846258
 31
0.0
  0
LINE
  5
221B4
  8
0
 10
4454.926603466808956
 20
283.8202671398846064
 30
0.0
 11
4454.9338186115810458
 21
283.828350963234584
 31
0.0
  0
LINE
  5
221B5
  8
0
 10
4454.9682573490081268
 20
283.8669360015845768
 30
0.0
 11
4454.9805294349098403
 21
283.8806856042943991
 31
0.0
  0
LINE
  5
221B6
  8
0
 10
4455.0149681681077709
 20
283.9192706425845927
 30
0.0
 11
4455.0219727131043328
 21
283.927118510763421
 31
0.0
  0
LINE
  5
221B7
  8
0
 10
4454.9710921475680152
 20
283.8599913352459794
 30
0.0
 11
4454.9866689127093196
 21
283.8774445188846016
 31
0.0
  0
LINE
  5
221B8
  8
0
 10
4455.0347345132104238
 20
283.927659483139621
 30
0.0
 11
4455.0227048314091007
 21
283.9141814688845784
 31
0.0
  0
LINE
  5
221B9
  8
0
 10
4454.942162045551413
 20
283.8239416086846063
 30
0.0
 11
4454.9345303258296553
 21
283.8153910561501903
 31
0.0
  0
LINE
  5
221BA
  8
0
 10
4455.0215457643416812
 20
283.9045105663701065
 30
0.0
 11
4455.0149681681077709
 21
283.8971410501847004
 31
0.0
  0
LINE
  5
221BB
  8
0
 10
4454.9748349452929688
 20
283.8521759254260814
 30
0.0
 11
4454.9682573490081268
 21
283.8448064091846845
 31
0.0
  0
LINE
  5
221BC
  8
0
 10
4454.9682573448126277
 20
283.832046240884722
 30
0.0
 11
4454.9805294327834417
 21
283.8457958412586208
 31
0.0
  0
LINE
  5
221BD
  8
0
 10
4455.0149681681077709
 20
283.884380881884681
 30
0.0
 11
4455.0272402517575756
 21
283.8981304822866036
 31
0.0
  0
LINE
  5
221BE
  8
0
 10
4455.0352176569576841
 20
283.8937211300846002
 30
0.0
 11
4455.0227048313090563
 21
283.8792917128845943
 31
0.0
  0
LINE
  5
221BF
  8
0
 10
4454.9885068336088807
 20
283.841386489084698
 30
0.0
 11
4454.9759940123085471
 21
283.8269570718845785
 31
0.0
  0
LINE
  5
221C0
  8
0
 10
4454.9758593187088991
 20
283.8056737055846952
 30
0.0
 11
4454.9805294306706855
 21
283.810906082923907
 31
0.0
  0
LINE
  5
221C1
  8
0
 10
4455.0352176569576841
 20
283.8588313693846885
 30
0.0
 11
4455.0227048313090563
 21
283.8444019521846258
 31
0.0
  0
LINE
  5
221C2
  8
0
 10
4454.9888728645455558
 20
283.8064967283846727
 30
0.0
 11
4454.984860088708956
 21
283.8020008233846738
 31
0.0
  0
LINE
  5
221C3
  8
0
 10
4455.0215457642725596
 20
283.8347310451034105
 30
0.0
 11
4455.0149681681077709
 21
283.8273615288845804
 31
0.0
  0
LINE
  5
221C4
  8
0
 10
4455.0149681681077709
 20
283.8146013605846747
 30
0.0
 11
4455.0272402517621231
 21
283.828350960890873
 31
0.0
  0
LINE
  5
221C5
  8
0
 10
4455.0352176569576841
 20
283.8239416086846063
 30
0.0
 11
4455.0227048313090563
 21
283.8095121914847141
 31
0.0
  0
LINE
  5
221C6
  8
0
 10
4454.8516670154376698
 20
283.8751495535344134
 30
0.0
 11
4454.8516670157678163
 21
283.8669360015849179
 31
0.0
  0
LINE
  5
221C7
  8
0
 10
4454.8748357110089273
 20
283.8796961698847099
 30
0.0
 11
4454.8748357110089273
 21
283.8669360015845768
 31
0.0
  0
LINE
  5
221C8
  8
0
 10
4454.8835921371091899
 20
283.8497347719360278
 30
0.0
 11
4454.8835921371091899
 21
283.8418569152846089
 31
0.0
  0
LINE
  5
221C9
  8
0
 10
4454.8960885654078083
 20
283.8980319215986015
 30
0.0
 11
4454.8960885654078083
 21
283.884380881884681
 31
0.0
  0
LINE
  5
221CA
  8
0
 10
4454.8960885654078083
 20
283.8622512895847194
 30
0.0
 11
4454.8960885654078083
 21
283.8494911212845864
 31
0.0
  0
LINE
  5
221CB
  8
0
 10
4454.9215465300076175
 20
283.8971410502845742
 30
0.0
 11
4454.9215465300076175
 21
283.884380881884681
 31
0.0
  0
LINE
  5
221CC
  8
0
 10
4454.9215465300076175
 20
283.8622512895847194
 30
0.0
 11
4454.9215465300076175
 21
283.8494911212845864
 31
0.0
  0
LINE
  5
221CD
  8
0
 10
4454.926603466808956
 20
283.8330273081846258
 30
0.0
 11
4454.926603466808956
 21
283.8202671398846064
 31
0.0
  0
LINE
  5
221CE
  8
0
 10
4454.9427993844092271
 20
283.9140943463672784
 30
0.0
 11
4454.9427993844092271
 21
283.9018257622846022
 31
0.0
  0
LINE
  5
221CF
  8
0
 10
4454.9427993844092271
 20
283.8796961698847099
 30
0.0
 11
4454.9427993844092271
 21
283.8669360015845768
 31
0.0
  0
LINE
  5
221D0
  8
0
 10
4454.9427993844092271
 20
283.8448064091846845
 30
0.0
 11
4454.9427993844092271
 21
283.832046240884722
 31
0.0
  0
LINE
  5
221D1
  8
0
 10
4454.9682573490081268
 20
283.9145859305846784
 30
0.0
 11
4454.9682573490081268
 21
283.9018257622846022
 31
0.0
  0
LINE
  5
221D2
  8
0
 10
4454.9682573490081268
 20
283.8796961698847099
 30
0.0
 11
4454.9682573490081268
 21
283.8669360015845768
 31
0.0
  0
LINE
  5
221D3
  8
0
 10
4454.9758593187088991
 20
283.8161384602797739
 30
0.0
 11
4454.9758593187088991
 21
283.8056737055846952
 31
0.0
  0
LINE
  5
221D4
  8
0
 10
4454.9895102034088268
 20
283.9238222504973805
 30
0.0
 11
4454.9895102034088268
 21
283.9192706425845927
 31
0.0
  0
LINE
  5
221D5
  8
0
 10
4454.9895102034088268
 20
283.8971410501847004
 30
0.0
 11
4454.9895102034088268
 21
283.884380881884681
 31
0.0
  0
LINE
  5
221D6
  8
0
 10
4454.9895102034088268
 20
283.8273615288845804
 30
0.0
 11
4454.9895102034088268
 21
283.8146013605846747
 31
0.0
  0
LINE
  5
221D7
  8
0
 10
4455.0149681681077709
 20
283.9266414158432781
 30
0.0
 11
4455.0149681681077709
 21
283.9192706425845927
 31
0.0
  0
LINE
  5
221D8
  8
0
 10
4455.0149681681077709
 20
283.8971410501847004
 30
0.0
 11
4455.0149681681077709
 21
283.884380881884681
 31
0.0
  0
LINE
  5
221D9
  8
0
 10
4455.0149681681077709
 20
283.8273615288845804
 30
0.0
 11
4455.0149681681077709
 21
283.8146013605846747
 31
0.0
  0
LINE
  5
221DA
  8
0
 10
4455.0350763878077487
 20
283.7984389294845755
 30
0.0
 11
4455.0350763878077487
 21
283.8111990978846961
 31
0.0
  0
LINE
  5
221DB
  8
0
 10
4455.0362210225093804
 20
283.9145859305846784
 30
0.0
 11
4455.0362210268076524
 21
283.9018257621847283
 31
0.0
  0
LINE
  5
221DC
  8
0
 10
4455.0362210268076524
 20
283.8796961698847099
 30
0.0
 11
4455.0362210268076524
 21
283.8669360015845768
 31
0.0
  0
LINE
  5
221DD
  8
0
 10
4455.0362210268076524
 20
283.8448064091846845
 30
0.0
 11
4455.0362210268076524
 21
283.832046240884722
 31
0.0
  0
LINE
  5
221DE
  8
0
 10
4454.888351902109207
 20
283.8444019475845721
 30
0.0
 11
4454.8754730498658319
 21
283.8588313693846885
 31
0.0
  0
LINE
  5
221DF
  8
0
 10
4454.8837985455365924
 20
283.8632608171528773
 30
0.0
 11
4454.8960885654078083
 21
283.8494911212845864
 31
0.0
  0
LINE
  5
221E0
  8
0
 10
4454.8960885654078083
 20
283.8622512895847194
 30
0.0
 11
4454.8894109456623482
 21
283.8697328717702817
 31
0.0
  0
LINE
  5
221E1
  8
0
 10
4454.9350627211088067
 20
283.8269570671847077
 30
0.0
 11
4454.9221838688681601
 21
283.841386489084698
 31
0.0
  0
LINE
  5
221E2
  8
0
 10
4454.888351902109207
 20
283.8792917128845943
 30
0.0
 11
4454.8785979549393232
 21
283.8902200017045061
 31
0.0
  0
LINE
  5
221E3
  8
0
 10
4454.8872940955652666
 20
283.8942341756649057
 30
0.0
 11
4454.8960885654078083
 21
283.884380881884681
 31
0.0
  0
LINE
  5
221E4
  8
0
 10
4454.9305273007039432
 20
283.8457958412353719
 30
0.0
 11
4454.9427993844092271
 21
283.832046240884722
 31
0.0
  0
LINE
  5
221E5
  8
0
 10
4454.9427993844092271
 20
283.8448064091846845
 30
0.0
 11
4454.9362217881916877
 21
283.8521759254506946
 31
0.0
  0
LINE
  5
221E6
  8
0
 10
4454.9817735402084509
 20
283.8095121868846036
 30
0.0
 11
4454.9688946878659408
 21
283.8239416086846063
 31
0.0
  0
LINE
  5
221E7
  8
0
 10
4454.9350627211088067
 20
283.8618468278846763
 30
0.0
 11
4454.9221838687763011
 21
283.8762762497847234
 31
0.0
  0
LINE
  5
221E8
  8
0
 10
4454.9305273007576034
 20
283.8806856019871816
 30
0.0
 11
4454.9427993844092271
 21
283.8669360015845768
 31
0.0
  0
LINE
  5
221E9
  8
0
 10
4454.9772201836321983
 20
283.8283710565618776
 30
0.0
 11
4454.9895102034088268
 21
283.8146013605846747
 31
0.0
  0
LINE
  5
221EA
  8
0
 10
4454.9895102034088268
 20
283.8273615288845804
 30
0.0
 11
4454.9828325836606382
 21
283.8348431110704269
 31
0.0
  0
LINE
  5
221EB
  8
0
 10
4454.9427993844092271
 20
283.8796961698847099
 30
0.0
 11
4454.9362217881707693
 21
283.887065686073413
 31
0.0
  0
LINE
  5
221EC
  8
0
 10
4455.0239690907092154
 20
283.7971262024847192
 30
0.0
 11
4455.0156055109500812
 21
283.8064967283846727
 31
0.0
  0
LINE
  5
221ED
  8
0
 10
4454.9817735402084509
 20
283.8444019475845721
 30
0.0
 11
4454.9688946836704417
 21
283.8588313740846729
 31
0.0
  0
LINE
  5
221EE
  8
0
 10
4454.9350627211088067
 20
283.8967365885845879
 30
0.0
 11
4454.9244833329557878
 21
283.9085896986683224
 31
0.0
  0
LINE
  5
221EF
  8
0
 10
4454.9340783775687669
 20
283.9115967483563168
 30
0.0
 11
4454.9427993844092271
 21
283.9018257622846022
 31
0.0
  0
LINE
  5
221F0
  8
0
 10
4455.0239310049064443
 20
283.8109261782922204
 30
0.0
 11
4455.0350763878077487
 21
283.7984389294845755
 31
0.0
  0
LINE
  5
221F1
  8
0
 10
4455.0350763878077487
 20
283.8111990978846961
 30
0.0
 11
4455.0295434059589752
 21
283.8173982317301807
 31
0.0
  0
LINE
  5
221F2
  8
0
 10
4455.0284843592089601
 20
283.8269570671847077
 30
0.0
 11
4455.01560550686645
 21
283.841386489084698
 31
0.0
  0
LINE
  5
221F3
  8
0
 10
4454.9817735446076767
 20
283.8792917085846739
 30
0.0
 11
4454.9688946837013646
 21
283.8937211346847107
 31
0.0
  0
LINE
  5
221F4
  8
0
 10
4454.9772381197553841
 20
283.8981304822921174
 30
0.0
 11
4454.9895102034088268
 21
283.884380881884681
 31
0.0
  0
LINE
  5
221F5
  8
0
 10
4455.0239310028200634
 20
283.8458159365869165
 30
0.0
 11
4455.0362210268076524
 21
283.832046240884722
 31
0.0
  0
LINE
  5
221F6
  8
0
 10
4455.0362210268076524
 20
283.8448064091846845
 30
0.0
 11
4455.029543403928983
 21
283.8522879900904741
 31
0.0
  0
LINE
  5
221F7
  8
0
 10
4454.9895102034088268
 20
283.8971410501847004
 30
0.0
 11
4454.9829326071921969
 21
283.9045105664505968
 31
0.0
  0
LINE
  5
221F8
  8
0
 10
4454.9817735401084065
 20
283.9141814735846765
 30
0.0
 11
4454.9752512328286684
 21
283.9214890441804755
 31
0.0
  0
LINE
  5
221F9
  8
0
 10
4455.0178094588090971
 20
283.8774445188846016
 30
0.0
 11
4455.0333798469773683
 21
283.8599997723313777
 31
0.0
  0
LINE
  5
221FA
  8
0
 10
4454.9859253037493545
 20
283.923287151858176
 30
0.0
 11
4454.9895102034088268
 21
283.9192706425845927
 31
0.0
  0
LINE
  5
221FB
  8
0
 10
4455.0239310028200634
 20
283.880705697286885
 30
0.0
 11
4455.0362210268076524
 21
283.8669360015845768
 31
0.0
  0
LINE
  5
221FC
  8
0
 10
4455.0362210268076524
 20
283.8796961698847099
 30
0.0
 11
4455.0295434038844178
 21
283.8871777507389993
 31
0.0
  0
LINE
  5
221FD
  8
0
 10
4455.0284843592089601
 20
283.8967365885845879
 30
0.0
 11
4455.015605506864631
 21
283.9111660103847044
 31
0.0
  0
LINE
  5
221FE
  8
0
 10
4455.0239489387740832
 20
283.915575362512584
 30
0.0
 11
4455.0362210268076524
 21
283.9018257621847283
 31
0.0
  0
LINE
  5
221FF
  8
0
 10
4455.0362210225093804
 20
283.9145859305846784
 30
0.0
 11
4455.0296434262663752
 21
283.9219554467791227
 31
0.0
  0
LINE
  5
22200
  8
0
 10
4455.0159715379086265
 20
283.8064967283846727
 30
0.0
 11
4454.9885068336088807
 21
283.8064967283846727
 31
0.0
  0
LINE
  5
22201
  8
0
 10
4454.9895102034088268
 20
283.8146013605846747
 30
0.0
 11
4455.0149681681077709
 21
283.8146013605846747
 31
0.0
  0
LINE
  5
22202
  8
0
 10
4455.0626823612583394
 20
283.8239416086846063
 30
0.0
 11
4455.0352176569576841
 21
283.8239416086846063
 31
0.0
  0
LINE
  5
22203
  8
0
 10
4454.9692607189090268
 20
283.8239416086846063
 30
0.0
 11
4454.9417960146083715
 21
283.8239416086846063
 31
0.0
  0
LINE
  5
22204
  8
0
 10
4454.9895102034088268
 20
283.8273615288845804
 30
0.0
 11
4455.0149681681077709
 21
283.8273615288845804
 31
0.0
  0
LINE
  5
22205
  8
0
 10
4454.9427993844092271
 20
283.832046240884722
 30
0.0
 11
4454.9682573448126277
 21
283.832046240884722
 31
0.0
  0
LINE
  5
22206
  8
0
 10
4455.0362210268076524
 20
283.832046240884722
 30
0.0
 11
4455.0616789914083711
 21
283.832046240884722
 31
0.0
  0
LINE
  5
22207
  8
0
 10
4455.0159715379086265
 20
283.841386489084698
 30
0.0
 11
4454.9885068336088807
 21
283.841386489084698
 31
0.0
  0
LINE
  5
22208
  8
0
 10
4454.9225498998075636
 20
283.841386489084698
 30
0.0
 11
4454.8950851956078623
 21
283.841386489084698
 31
0.0
  0
LINE
  5
22209
  8
0
 10
4454.9866689127093196
 20
283.8425547628846743
 30
0.0
 11
4455.0178094587081432
 21
283.8425547628846743
 31
0.0
  0
LINE
  5
2220A
  8
0
 10
4454.9427993844092271
 20
283.8448064091846845
 30
0.0
 11
4454.9682573490081268
 21
283.8448064091846845
 31
0.0
  0
LINE
  5
2220B
  8
0
 10
4455.0362210268076524
 20
283.8448064091846845
 30
0.0
 11
4455.0616789914083711
 21
283.8448064091846845
 31
0.0
  0
LINE
  5
2220C
  8
0
 10
4454.8960885654078083
 20
283.8494911212845864
 30
0.0
 11
4454.9215465300076175
 21
283.8494911212845864
 31
0.0
  0
LINE
  5
2220D
  8
0
 10
4455.0626823612583394
 20
283.8588313693846885
 30
0.0
 11
4455.0352176569576841
 21
283.8588313693846885
 31
0.0
  0
LINE
  5
2220E
  8
0
 10
4454.9692607188089823
 20
283.8588313740846729
 30
0.0
 11
4454.9417960146083715
 21
283.8588313740846729
 31
0.0
  0
LINE
  5
2220F
  8
0
 10
4454.8758390808079639
 20
283.8588313693846885
 30
0.0
 11
4454.8572498098092183
 21
283.8588313693846885
 31
0.0
  0
LINE
  5
22210
  8
0
 10
4454.8960885654078083
 20
283.8622512895847194
 30
0.0
 11
4454.9215465300076175
 21
283.8622512895847194
 31
0.0
  0
LINE
  5
22211
  8
0
 10
4454.8398304037009439
 20
283.8669360015845768
 30
0.0
 11
4454.8748357110089273
 21
283.8669360015845768
 31
0.0
  0
LINE
  5
22212
  8
0
 10
4454.9427993844092271
 20
283.8669360015845768
 30
0.0
 11
4454.9682573490081268
 21
283.8669360015845768
 31
0.0
  0
LINE
  5
22213
  8
0
 10
4455.0362210268076524
 20
283.8669360015845768
 30
0.0
 11
4455.0616789914083711
 21
283.8669360015845768
 31
0.0
  0
LINE
  5
22214
  8
0
 10
4454.9225498998075636
 20
283.8762762497847234
 30
0.0
 11
4454.8950851956078623
 21
283.8762762497847234
 31
0.0
  0
LINE
  5
22215
  8
0
 10
4455.0178094588090971
 20
283.8774445188846016
 30
0.0
 11
4454.9866689127093196
 21
283.8774445188846016
 31
0.0
  0
LINE
  5
22216
  8
0
 10
4454.8589527827953134
 20
283.8796961698847099
 30
0.0
 11
4454.8748357110089273
 21
283.8796961698847099
 31
0.0
  0
LINE
  5
22217
  8
0
 10
4454.9427993844092271
 20
283.8796961698847099
 30
0.0
 11
4454.9682573490081268
 21
283.8796961698847099
 31
0.0
  0
LINE
  5
22218
  8
0
 10
4455.0362210268076524
 20
283.8796961698847099
 30
0.0
 11
4455.0616789914083711
 21
283.8796961698847099
 31
0.0
  0
LINE
  5
22219
  8
0
 10
4454.8960885654078083
 20
283.884380881884681
 30
0.0
 11
4454.9215465300076175
 21
283.884380881884681
 31
0.0
  0
LINE
  5
2221A
  8
0
 10
4454.9895102034088268
 20
283.884380881884681
 30
0.0
 11
4455.0149681681077709
 21
283.884380881884681
 31
0.0
  0
LINE
  5
2221B
  8
0
 10
4455.0626823612583394
 20
283.8937211300846002
 30
0.0
 11
4455.0352176569576841
 21
283.8937211300846002
 31
0.0
  0
LINE
  5
2221C
  8
0
 10
4454.9692607188089823
 20
283.8937211346847107
 30
0.0
 11
4454.9417960146083715
 21
283.8937211346847107
 31
0.0
  0
LINE
  5
2221D
  8
0
 10
4454.8939709006317571
 20
283.8971410502845742
 30
0.0
 11
4454.9215465300076175
 21
283.8971410502845742
 31
0.0
  0
LINE
  5
2221E
  8
0
 10
4454.9895102034088268
 20
283.8971410501847004
 30
0.0
 11
4455.0149681681077709
 21
283.8971410501847004
 31
0.0
  0
LINE
  5
2221F
  8
0
 10
4454.9427993844092271
 20
283.9018257622846022
 30
0.0
 11
4454.9682573490081268
 21
283.9018257622846022
 31
0.0
  0
LINE
  5
22220
  8
0
 10
4455.0362210268076524
 20
283.9018257621847283
 30
0.0
 11
4455.0616789914083711
 21
283.9018257621847283
 31
0.0
  0
LINE
  5
22221
  8
0
 10
4455.0159715379086265
 20
283.9111660103847044
 30
0.0
 11
4454.9885068336088807
 21
283.9111660103847044
 31
0.0
  0
LINE
  5
22222
  8
0
 10
4454.9446126744187495
 20
283.9145859305846784
 30
0.0
 11
4454.9682573490081268
 21
283.9145859305846784
 31
0.0
  0
LINE
  5
22223
  8
0
 10
4455.0362210225093804
 20
283.9145859305846784
 30
0.0
 11
4455.0616789871091896
 21
283.9145859305846784
 31
0.0
  0
LINE
  5
22224
  8
0
 10
4454.9895102034088268
 20
283.9192706425845927
 30
0.0
 11
4455.0149681681077709
 21
283.9192706425845927
 31
0.0
  0
ARC
  5
22225
  8
0
 10
4455.04895000570923
 20
284.1759127726782026
 30
0.0
 40
0.364977453886853
 50
267.8215330903087761
 51
272.178466595447901
  0
ARC
  5
22226
  8
0
 10
4455.042079206508788
 20
284.1342676580846955
 30
0.0
 40
0.3226979601
 50
254.0832168476815127
 51
257.6979760956821792
  0
ARC
  5
22227
  8
0
 10
4455.0246448340913048
 20
284.0838920387432154
 30
0.0
 40
0.269342203779547
 50
244.2057228644189877
 51
248.6537621687014052
  0
ARC
  5
22228
  8
0
 10
4454.8583717010651526
 20
283.8638502073746963
 30
0.0
 40
0.0051427011151675
 50
215.2766735503948894
 51
257.3994775392509951
  0
ARC
  5
22229
  8
0
 10
4454.8635128026508028
 20
283.8684444658645134
 30
0.0
 40
0.0120184931559481
 50
201.7821358691712987
 51
219.0050041164151935
  0
ARC
  5
2222A
  8
0
 10
4454.8605100016693541
 20
283.8674343718890896
 30
0.0
 40
0.0088570182690828
 50
183.2256458781994866
 51
202.9226873348268896
  0
ARC
  5
2222B
  8
0
 10
4454.889163558904329
 20
283.8369358313523776
 30
0.0
 40
0.0017273616128368
 50
290.4747459277551229
 51
317.8385347370788736
  0
ARC
  5
2222C
  8
0
 10
4454.8891233211879808
 20
283.8375401789642183
 30
0.0
 40
0.0023141337167315
 50
266.7574891684793101
 51
286.1700058116861101
  0
ARC
  5
2222D
  8
0
 10
4454.889271575652856
 20
283.8387250473833205
 30
0.0
 40
0.0035064265110514
 50
243.7646683819037037
 51
265.4338421968682837
  0
ARC
  5
2222E
  8
0
 10
4454.8911470685152381
 20
283.8421670974574909
 30
0.0
 40
0.0074247149877826
 50
213.3854135025659104
 51
242.5244558007134117
  0
ARC
  5
2222F
  8
0
 10
4454.8917799858381841
 20
283.8428395158115904
 30
0.0
 40
0.0083259335637336
 50
199.3979821514560911
 51
214.8526424071523024
  0
ARC
  5
22230
  8
0
 10
4454.8892205821603056
 20
283.8419904387462225
 30
0.0
 40
0.0056300286158882
 50
181.3589714519468998
 51
199.8983902500847876
  0
ARC
  5
22231
  8
0
 10
4454.8854892379386001
 20
283.850023170217014
 30
0.0
 40
0.010612672560591
 50
334.2599408678403279
 51
357.1263654664310252
  0
ARC
  5
22232
  8
0
 10
4454.8840927801811631
 20
283.8503197724415941
 30
0.0
 40
0.0120041719199816
 50
319.6947813498189817
 51
335.8796067004000747
  0
ARC
  5
22233
  8
0
 10
4454.8927969014348491
 20
283.8487715949739254
 30
0.0
 40
0.0062331242015132
 50
224.5102194202274859
 51
274.1435070234413729
  0
ARC
  5
22234
  8
0
 10
4454.8959067802616119
 20
283.8447088404536771
 30
0.0
 40
0.0034224289564925
 50
219.0058863781673892
 51
256.10998116848981
  0
ARC
  5
22235
  8
0
 10
4455.0292974204776328
 20
283.8026296774701791
 30
0.0
 40
0.0076602469066443
 50
225.9263637930731932
 51
266.285286968315404
  0
ARC
  5
22236
  8
0
 10
4455.0296959608604084
 20
283.8026825671158804
 30
0.0
 40
0.0077488835188826
 50
263.3687205802258973
 51
296.7497756728845957
  0
ARC
  5
22237
  8
0
 10
4455.0318725548149814
 20
283.7986976521979159
 30
0.0
 40
0.0032142624808489
 50
294.0737979165807019
 51
355.3831482148868872
  0
ARC
  5
22238
  8
0
 10
4454.9819817214711293
 20
283.8049076108060831
 30
0.0
 40
0.0040907682709309
 50
264.4258093776965097
 51
314.7185275050375139
  0
ARC
  5
22239
  8
0
 10
4454.9819622013319531
 20
283.8075908161197276
 30
0.0
 40
0.0067651886454687
 50
228.3202523387998895
 51
266.7983722045902937
  0
ARC
  5
2223A
  8
0
 10
4454.9802652807993582
 20
283.8059496951344158
 30
0.0
 40
0.004414597623016
 50
183.5843255962772105
 51
230.606335394875714
  0
ARC
  5
2223B
  8
0
 10
4454.9864253954283413
 20
283.814430040228217
 30
0.0
 40
0.0067694193609239
 50
226.5921745820463968
 51
272.0605089621367938
  0
ARC
  5
2223C
  8
0
 10
4454.9892589454266272
 20
283.809710066611899
 30
0.0
 40
0.0033001840478061
 50
218.2930062913316931
 51
256.8265348278540046
  0
ARC
  5
2223D
  8
0
 10
4454.9772697424596117
 20
283.8155653870805963
 30
0.0
 40
0.0122783643580251
 50
319.951197007478811
 51
355.4968304555453074
  0
ARC
  5
2223E
  8
0
 10
4455.0152529570468687
 20
283.8096570432066983
 30
0.0
 40
0.0032409795168894
 50
282.8099116841348746
 51
322.0740712551340152
  0
ARC
  5
2223F
  8
0
 10
4455.0272419748753236
 20
283.8155788850655199
 30
0.0
 40
0.0123126717914487
 50
184.5536040005277982
 51
219.9966852493959948
  0
ARC
  5
22240
  8
0
 10
4455.0180526168842334
 20
283.8144309642473786
 30
0.0
 40
0.0067703341521912
 50
267.9418037795334726
 51
313.4046869371675257
  0
ARC
  5
22241
  8
0
 10
4455.0331543942029384
 20
283.8319231002636798
 30
0.0
 40
0.0068169429652241
 50
226.7594427201620988
 51
271.8943231173458912
  0
ARC
  5
22242
  8
0
 10
4455.0239563461345824
 20
283.8330200263740721
 30
0.0
 40
0.0123032780261423
 50
319.9893671292721251
 51
355.460379210612416
  0
ARC
  5
22243
  8
0
 10
4455.0358429094339954
 20
283.8269550909420786
 30
0.0
 40
0.0030776640449278
 50
216.8375517989910861
 51
258.2783010081473094
  0
ARC
  5
22244
  8
0
 10
4455.015358429745902
 20
283.844380866355209
 30
0.0
 40
0.0030565007535337
 50
281.5715522039147913
 51
323.3125830790096984
  0
ARC
  5
22245
  8
0
 10
4455.0180975128660066
 20
283.8492017579551998
 30
0.0
 40
0.0066532336998668
 50
267.5185828758757225
 51
313.8277849375998017
  0
ARC
  5
22246
  8
0
 10
4455.0358424090582048
 20
283.8618436273898737
 30
0.0
 40
0.0030763636773235
 50
216.824207956526692
 51
258.2827936947277863
  0
ARC
  5
22247
  8
0
 10
4455.0240853073210019
 20
283.8678569590197185
 30
0.0
 40
0.0121706142029238
 50
319.7903213450964017
 51
355.66024679921901
  0
ARC
  5
22248
  8
0
 10
4455.027258165200692
 20
283.885365031962408
 30
0.0
 40
0.0123293381776117
 50
184.5783233916446022
 51
219.9719018741884895
  0
ARC
  5
22249
  8
0
 10
4455.0181012385983195
 20
283.8840816279472961
 30
0.0
 40
0.0066435195607907
 50
267.482790633179718
 51
313.8636742595850251
  0
ARC
  5
2224A
  8
0
 10
4455.0330836996427024
 20
283.9015152592475033
 30
0.0
 40
0.0066324675454923
 50
226.0955002031016079
 51
272.5582323139194045
  0
ARC
  5
2224B
  8
0
 10
4455.0358429814896226
 20
283.8967347252154809
 30
0.0
 40
0.0030777892037398
 50
216.8384873852326962
 51
258.2774144706518769
  0
ARC
  5
2224C
  8
0
 10
4455.0240515651630631
 20
283.902760538473899
 30
0.0
 40
0.0122053104605025
 50
319.842239683709181
 51
355.6075484782093099
  0
ARC
  5
2224D
  8
0
 10
4455.0271253521823382
 20
283.9202004007868823
 30
0.0
 40
0.0121926853032541
 50
184.3733585247728115
 51
220.1769559666524003
  0
ARC
  5
2224E
  8
0
 10
4455.015349843986769
 20
283.9141739035097203
 30
0.0
 40
0.003071469417815
 50
281.6778828159040131
 51
323.2061415901736723
  0
ARC
  5
2224F
  8
0
 10
4455.0180974440181672
 20
283.9189814756803116
 30
0.0
 40
0.0066534264703353
 50
267.5192861725789726
 51
313.8270144835552173
  0
ARC
  5
22250
  8
0
 10
4454.9891321032973792
 20
283.9141795178164216
 30
0.0
 40
0.0030776921913596
 50
216.837851843815713
 51
258.2780824453467972
  0
ARC
  5
22251
  8
0
 10
4454.9863743642899863
 20
283.9189640519410887
 30
0.0
 40
0.006636312144756
 50
226.109666245416804
 51
272.5439098023401812
  0
ARC
  5
22252
  8
0
 10
4454.977340441702836
 20
283.9202055359594965
 30
0.0
 40
0.0122056186067652
 50
319.8427268968277986
 51
355.607108344728374
  0
ARC
  5
22253
  8
0
 10
4454.9809205740857578
 20
283.9029031805476961
 30
0.0
 40
0.0127089771216125
 50
184.8631532553243062
 51
219.2342670110892868
  0
ARC
  5
22254
  8
0
 10
4454.968528018903271
 20
283.8968979135610766
 30
0.0
 40
0.0032601799309002
 50
282.9877171848859803
 51
321.4200529156514108
  0
ARC
  5
22255
  8
0
 10
4454.9711895082245974
 20
283.9019635569009097
 30
0.0
 40
0.0070996096558559
 50
269.0889805589711159
 51
312.5884773721805914
  0
ARC
  5
22256
  8
0
 10
4454.9864112379464132
 20
283.884172012203976
 30
0.0
 40
0.0067324262276387
 50
226.4601324162966023
 51
272.1934562224262777
  0
ARC
  5
22257
  8
0
 10
4454.977288147309082
 20
283.8853372017999277
 30
0.0
 40
0.0122594128361969
 50
319.9237914447004982
 51
355.5259832894612941
  0
ARC
  5
22258
  8
0
 10
4454.9685420021442042
 20
283.8619919100482889
 30
0.0
 40
0.0032412252654751
 50
282.8113858299244043
 51
321.8860144608980249
  0
ARC
  5
22259
  8
0
 10
4454.9805357906507197
 20
283.8678971236370217
 30
0.0
 40
0.0123160011680175
 50
184.4758265679427893
 51
219.9345373820090117
  0
ARC
  5
2225A
  8
0
 10
4454.9863978729617884
 20
283.8492468609150023
 30
0.0
 40
0.0066975845341001
 50
226.3344305086824875
 51
272.3192951615433799
  0
ARC
  5
2225B
  8
0
 10
4454.9891532615301912
 20
283.844433284999127
 30
0.0
 40
0.0031146162528441
 50
217.0944811732751987
 51
258.0213863676003143
  0
ARC
  5
2225C
  8
0
 10
4454.9686404877102177
 20
283.8269472006564911
 30
0.0
 40
0.003068919979469
 50
281.6598353413313021
 51
323.2241890654900089
  0
ARC
  5
2225D
  8
0
 10
4454.9713879448881926
 20
283.8317535636372781
 30
0.0
 40
0.0066499767077484
 50
267.5066158260879092
 51
313.8397819095491741
  0
ARC
  5
2225E
  8
0
 10
4454.9805336537019684
 20
283.8330248012479728
 30
0.0
 40
0.0123152482848644
 50
184.5574839601692076
 51
219.9928912906057121
  0
ARC
  5
2225F
  8
0
 10
4454.9322445606494512
 20
283.8205564114412027
 30
0.0
 40
0.0056485057978804
 50
182.935518382483707
 51
293.8702755980539223
  0
ARC
  5
22260
  8
0
 10
4454.9397239101936066
 20
283.8318996569724959
 30
0.0
 40
0.0067938117063508
 50
226.678345683323812
 51
271.9754209274784102
  0
ARC
  5
22261
  8
0
 10
4454.9424212306948903
 20
283.8269550245232722
 30
0.0
 40
0.0030775916185315
 50
216.8370168868335099
 51
258.2787131335708182
  0
ARC
  5
22262
  8
0
 10
4454.9306296234708498
 20
283.8329811340325932
 30
0.0
 40
0.0122056178239969
 50
319.8427543007068152
 51
355.6071091308393193
  0
ARC
  5
22263
  8
0
 10
4454.9218297330871792
 20
283.8445492995322184
 30
0.0
 40
0.0032437647933435
 50
282.8274525866190174
 51
322.0565689969147911
  0
ARC
  5
22264
  8
0
 10
4454.9246758063218294
 20
283.8492019533297253
 30
0.0
 40
0.0066534254338642
 50
267.5192831803685181
 51
313.8270182489732747
  0
ARC
  5
22265
  8
0
 10
4454.9337258203977399
 20
283.8504299296395175
 30
0.0
 40
0.0122154195804521
 50
184.4077773807586027
 51
220.1424823047406107
  0
ARC
  5
22266
  8
0
 10
4454.9306296229360669
 20
283.8678708949069005
 30
0.0
 40
0.0122056183704331
 50
319.8427405226582891
 51
355.6071085072528035
  0
ARC
  5
22267
  8
0
 10
4454.9396665010162906
 20
283.866637264556573
 30
0.0
 40
0.0066440253571331
 50
226.1382788207621957
 51
272.5154576603582086
  0
ARC
  5
22268
  8
0
 10
4454.9424212596923098
 20
283.8618448502314209
 30
0.0
 40
0.0030776565601113
 50
216.8377303706550094
 51
258.2784126284768718
  0
ARC
  5
22269
  8
0
 10
4454.921936623955844
 20
283.8792709071860827
 30
0.0
 40
0.0030568088301244
 50
281.5735782233315945
 51
323.3102346510405027
  0
ARC
  5
2226A
  8
0
 10
4454.9246871730665589
 20
283.8840615732892729
 30
0.0
 40
0.0066238217234963
 50
267.4097705280237847
 51
313.9366272075723145
  0
ARC
  5
2226B
  8
0
 10
4454.9337925345689655
 20
283.8853470179369083
 30
0.0
 40
0.0122840566001848
 50
184.5109485233377029
 51
220.0393407264365919
  0
ARC
  5
2226C
  8
0
 10
4454.939710498644672
 20
283.9016436265119978
 30
0.0
 40
0.0067587615178258
 50
226.5542824727372988
 51
272.0989041533434829
  0
ARC
  5
2226D
  8
0
 10
4454.9424214059081351
 20
283.8967349725525082
 30
0.0
 40
0.0030780404434518
 50
216.8407903539751942
 51
258.2771155638953928
  0
ARC
  5
2226E
  8
0
 10
4454.9307681844065883
 20
283.9027039805151276
 30
0.0
 40
0.0120632102169767
 50
319.6238555035201898
 51
355.8250953431190169
  0
ARC
  5
2226F
  8
0
 10
4454.8840569239227989
 20
283.8852591982505942
 30
0.0
 40
0.0120636576742118
 50
319.6250662349020217
 51
355.8247831403327268
  0
ARC
  5
22270
  8
0
 10
4454.8957104644541687
 20
283.8792897560476263
 30
0.0
 40
0.0030776908755468
 50
216.8378453318730124
 51
258.2780933978839926
  0
ARC
  5
22271
  8
0
 10
4454.8929512468366738
 20
283.8840703704394741
 30
0.0
 40
0.0066324610784633
 50
226.0953949576224034
 51
272.5581810902808115
  0
ARC
  5
22272
  8
0
 10
4454.8752259229713673
 20
283.8618258409674127
 30
0.0
 40
0.0030566031134407
 50
281.5721098228361257
 51
323.3117074926499868
  0
ARC
  5
22273
  8
0
 10
4454.8779649747966687
 20
283.8666468380541232
 30
0.0
 40
0.0066534339077033
 50
267.5193942932020832
 51
313.8270976994963917
  0
ARC
  5
22274
  8
0
 10
4454.8870820629890659
 20
283.8679022793074864
 30
0.0
 40
0.0122844137255399
 50
184.5114584107124074
 51
220.0388041829264978
  0
LINE
  5
22275
  8
0
 10
4453.9485174876463134
 20
271.3846814545734105
 30
0.0
 11
4456.1499937818243779
 21
271.3846814545734105
 31
0.0
  0
LINE
  5
22277
  8
0
 10
4455.2164867089004474
 20
283.8870656883742072
 30
0.0
 11
4455.2230643071907252
 21
283.8796961698847099
 31
0.0
  0
LINE
  5
22278
  8
0
 10
4455.2230643071907252
 20
283.8669360015845768
 30
0.0
 11
4455.2107922214891005
 21
283.8806856042872937
 31
0.0
  0
LINE
  5
22279
  8
0
 10
4455.2028148225917903
 20
283.8762762497847234
 30
0.0
 11
4455.2153276438912144
 21
283.8618468325847175
 31
0.0
  0
LINE
  5
2227A
  8
0
 10
4455.169775891989957
 20
283.904510566433828
 30
0.0
 11
4455.1763534881911255
 21
283.8971410502845742
 31
0.0
  0
LINE
  5
2227B
  8
0
 10
4455.2143078810913721
 20
283.8418569152846089
 30
0.0
 11
4455.2107922256236634
 21
283.8457958436310946
 31
0.0
  0
LINE
  5
2227C
  8
0
 10
4455.1763534881911255
 20
283.884380881884681
 30
0.0
 11
4455.1640814044885701
 21
283.898130482232375
 31
0.0
  0
LINE
  5
2227D
  8
0
 10
4455.1557379684527405
 20
283.8937211346847107
 30
0.0
 11
4455.1686168248907052
 21
283.8792917082847111
 31
0.0
  0
LINE
  5
2227E
  8
0
 10
4455.2024487957323799
 20
283.841386489084698
 30
0.0
 11
4455.2074560417913744
 21
283.8357763878846072
 31
0.0
  0
LINE
  5
2227F
  8
0
 10
4455.1236797233259495
 20
283.921266794524513
 30
0.0
 11
4455.1296426691906163
 21
283.9145859305846784
 31
0.0
  0
LINE
  5
22280
  8
0
 10
4455.1697758919735861
 20
283.8696208057506851
 30
0.0
 11
4455.1763534881911255
 21
283.8622512895847194
 31
0.0
  0
LINE
  5
22281
  8
0
 10
4455.1763534881911255
 20
283.8494911212845864
 30
0.0
 11
4455.1640814044849321
 21
283.8632407215349076
 31
0.0
  0
LINE
  5
22282
  8
0
 10
4455.1296426691906163
 20
283.9018257622846022
 30
0.0
 11
4455.1173705833944041
 21
283.9155753648781797
 31
0.0
  0
LINE
  5
22283
  8
0
 10
4455.1090271536486398
 20
283.9111660103847044
 30
0.0
 11
4455.1219060058911055
 21
283.8967365885845879
 31
0.0
  0
LINE
  5
22284
  8
0
 10
4455.15573796845365
 20
283.8588313740846729
 30
0.0
 11
4455.1686168248907052
 21
283.8444019475845721
 31
0.0
  0
LINE
  5
22285
  8
0
 10
4455.1230650718471225
 20
283.8870656873141911
 30
0.0
 11
4455.1296426691906163
 21
283.8796961698847099
 31
0.0
  0
LINE
  5
22286
  8
0
 10
4455.1697758940263157
 20
283.8347310474043752
 30
0.0
 11
4455.1712965513906965
 21
283.8330273081846258
 31
0.0
  0
LINE
  5
22287
  8
0
 10
4455.1712965513906965
 20
283.8202671398846064
 30
0.0
 11
4455.1640814066204257
 21
283.828350963234584
 31
0.0
  0
LINE
  5
22288
  8
0
 10
4455.1296426691906163
 20
283.8669360015845768
 30
0.0
 11
4455.1173705832898122
 21
283.8806856042943991
 31
0.0
  0
LINE
  5
22289
  8
0
 10
4455.0829318500918816
 20
283.9192706425845927
 30
0.0
 11
4455.0759518731329081
 21
283.9270909848182214
 31
0.0
  0
LINE
  5
2228A
  8
0
 10
4455.1268078706325468
 20
283.8599913352459794
 30
0.0
 11
4455.1112311054912425
 21
283.8774445188846016
 31
0.0
  0
LINE
  5
2228B
  8
0
 10
4455.0631799022021369
 20
283.9276433525525931
 30
0.0
 11
4455.0751951867905518
 21
283.9141814688845784
 31
0.0
  0
LINE
  5
2228C
  8
0
 10
4455.1557379726482395
 20
283.8239416086846063
 30
0.0
 11
4455.1633696923690877
 21
283.8153910561501903
 31
0.0
  0
LINE
  5
2228D
  8
0
 10
4455.0763542538570618
 20
283.9045105663701065
 30
0.0
 11
4455.0829318500918816
 21
283.8971410501847004
 31
0.0
  0
LINE
  5
2228E
  8
0
 10
4455.1230650729066838
 20
283.8521759254260814
 30
0.0
 11
4455.1296426691906163
 21
283.8448064091846845
 31
0.0
  0
LINE
  5
2228F
  8
0
 10
4455.1296426733861153
 20
283.832046240884722
 30
0.0
 11
4455.1173705854171203
 21
283.8457958412586208
 31
0.0
  0
LINE
  5
22290
  8
0
 10
4455.0829318500918816
 20
283.884380881884681
 30
0.0
 11
4455.0706597664420769
 21
283.8981304822866036
 31
0.0
  0
LINE
  5
22291
  8
0
 10
4455.062682361241059
 20
283.8937211300846002
 30
0.0
 11
4455.0751951868924152
 21
283.8792917128845943
 31
0.0
  0
LINE
  5
22292
  8
0
 10
4455.1093931845907719
 20
283.841386489084698
 30
0.0
 11
4455.1219060058911055
 21
283.8269570718845785
 31
0.0
  0
LINE
  5
22293
  8
0
 10
4455.122040699491663
 20
283.8056737055846952
 30
0.0
 11
4455.1173705875280575
 21
283.810906082923907
 31
0.0
  0
LINE
  5
22294
  8
0
 10
4455.062682361241059
 20
283.8588313693846885
 30
0.0
 11
4455.0751951868924152
 21
283.8444019521846258
 31
0.0
  0
LINE
  5
22295
  8
0
 10
4455.1090271536522778
 20
283.8064967283846727
 30
0.0
 11
4455.113039929491606
 21
283.8020008233846738
 31
0.0
  0
LINE
  5
22296
  8
0
 10
4455.0763542539280024
 20
283.8347310451034105
 30
0.0
 11
4455.0829318500918816
 21
283.8273615288845804
 31
0.0
  0
LINE
  5
22297
  8
0
 10
4455.0829318500918816
 20
283.8146013605846747
 30
0.0
 11
4455.07065976643662
 21
283.828350960890873
 31
0.0
  0
LINE
  5
22298
  8
0
 10
4455.062682361241059
 20
283.8239416086846063
 30
0.0
 11
4455.0751951868924152
 21
283.8095121914847141
 31
0.0
  0
LINE
  5
22299
  8
0
 10
4455.2462330027601638
 20
283.8751270305438084
 30
0.0
 11
4455.2462330024318362
 21
283.8669360015849179
 31
0.0
  0
LINE
  5
2229A
  8
0
 10
4455.2230643071907252
 20
283.8796961698847099
 30
0.0
 11
4455.2230643071907252
 21
283.8669360015845768
 31
0.0
  0
LINE
  5
2229B
  8
0
 10
4455.2143078810913721
 20
283.8497347719360278
 30
0.0
 11
4455.2143078810913721
 21
283.8418569152846089
 31
0.0
  0
LINE
  5
2229C
  8
0
 10
4455.2018114527909347
 20
283.8981160254622864
 30
0.0
 11
4455.2018114527909347
 21
283.884380881884681
 31
0.0
  0
LINE
  5
2229D
  8
0
 10
4455.2018114527909347
 20
283.8622512895847194
 30
0.0
 11
4455.2018114527909347
 21
283.8494911212845864
 31
0.0
  0
LINE
  5
2229E
  8
0
 10
4455.1763534881911255
 20
283.8971410502845742
 30
0.0
 11
4455.1763534881911255
 21
283.884380881884681
 31
0.0
  0
LINE
  5
2229F
  8
0
 10
4455.1763534881911255
 20
283.8622512895847194
 30
0.0
 11
4455.1763534881911255
 21
283.8494911212845864
 31
0.0
  0
LINE
  5
222A0
  8
0
 10
4455.1712965513906965
 20
283.8330273081846258
 30
0.0
 11
4455.1712965513906965
 21
283.8202671398846064
 31
0.0
  0
LINE
  5
222A1
  8
0
 10
4455.155100633791335
 20
283.9140878288081922
 30
0.0
 11
4455.155100633791335
 21
283.9018257622846022
 31
0.0
  0
LINE
  5
222A2
  8
0
 10
4455.155100633791335
 20
283.8796961698847099
 30
0.0
 11
4455.155100633791335
 21
283.8669360015845768
 31
0.0
  0
LINE
  5
222A3
  8
0
 10
4455.155100633791335
 20
283.8448064091846845
 30
0.0
 11
4455.155100633791335
 21
283.832046240884722
 31
0.0
  0
LINE
  5
222A4
  8
0
 10
4455.1296426691906163
 20
283.9145859305846784
 30
0.0
 11
4455.1296426691906163
 21
283.9018257622846022
 31
0.0
  0
LINE
  5
222A5
  8
0
 10
4455.1296426691906163
 20
283.8796961698847099
 30
0.0
 11
4455.1296426691906163
 21
283.8669360015845768
 31
0.0
  0
LINE
  5
222A6
  8
0
 10
4455.122040699491663
 20
283.8161384602797739
 30
0.0
 11
4455.122040699491663
 21
283.8056737055846952
 31
0.0
  0
LINE
  5
222A7
  8
0
 10
4455.1083898147917353
 20
283.923786310624223
 30
0.0
 11
4455.1083898147917353
 21
283.9192706425845927
 31
0.0
  0
LINE
  5
222A8
  8
0
 10
4455.1083898147917353
 20
283.8971410501847004
 30
0.0
 11
4455.1083898147917353
 21
283.884380881884681
 31
0.0
  0
LINE
  5
222A9
  8
0
 10
4455.1083898147917353
 20
283.8273615288845804
 30
0.0
 11
4455.1083898147917353
 21
283.8146013605846747
 31
0.0
  0
LINE
  5
222AA
  8
0
 10
4455.0829318500918816
 20
283.9266112277799721
 30
0.0
 11
4455.0829318500918816
 21
283.9192706425845927
 31
0.0
  0
LINE
  5
222AB
  8
0
 10
4455.0829318500918816
 20
283.8971410501847004
 30
0.0
 11
4455.0829318500918816
 21
283.884380881884681
 31
0.0
  0
LINE
  5
222AC
  8
0
 10
4455.0829318500918816
 20
283.8273615288845804
 30
0.0
 11
4455.0829318500918816
 21
283.8146013605846747
 31
0.0
  0
LINE
  5
222AD
  8
0
 10
4455.0628236303919039
 20
283.7984389294845755
 30
0.0
 11
4455.0628236303919039
 21
283.8111990978846961
 31
0.0
  0
LINE
  5
222AE
  8
0
 10
4455.0616789956911816
 20
283.9145859305846784
 30
0.0
 11
4455.0616789913901812
 21
283.9018257621847283
 31
0.0
  0
LINE
  5
222AF
  8
0
 10
4455.0616789913901812
 20
283.8796961698847099
 30
0.0
 11
4455.0616789913901812
 21
283.8669360015845768
 31
0.0
  0
LINE
  5
222B0
  8
0
 10
4455.0616789913901812
 20
283.8448064091846845
 30
0.0
 11
4455.0616789913901812
 21
283.832046240884722
 31
0.0
  0
LINE
  5
222B1
  8
0
 10
4455.209548116091355
 20
283.8444019475845721
 30
0.0
 11
4455.2224269683329112
 21
283.8588313693846885
 31
0.0
  0
LINE
  5
222B2
  8
0
 10
4455.2141014726621506
 20
283.8632608171528773
 30
0.0
 11
4455.2018114527909347
 21
283.8494911212845864
 31
0.0
  0
LINE
  5
222B3
  8
0
 10
4455.2018114527909347
 20
283.8622512895847194
 30
0.0
 11
4455.2084890725382138
 21
283.8697328717702817
 31
0.0
  0
LINE
  5
222B4
  8
0
 10
4455.1628372970908458
 20
283.8269570671847077
 30
0.0
 11
4455.1757161493333115
 21
283.841386489084698
 31
0.0
  0
LINE
  5
222B5
  8
0
 10
4455.209548116091355
 20
283.8792917128845943
 30
0.0
 11
4455.2193769152081586
 21
283.8903038655687965
 31
0.0
  0
LINE
  5
222B6
  8
0
 10
4455.2106759988328122
 20
283.8943126887971857
 30
0.0
 11
4455.2018114527909347
 21
283.884380881884681
 31
0.0
  0
LINE
  5
222B7
  8
0
 10
4455.1673727174957094
 20
283.8457958412353719
 30
0.0
 11
4455.155100633791335
 21
283.832046240884722
 31
0.0
  0
LINE
  5
222B8
  8
0
 10
4455.155100633791335
 20
283.8448064091846845
 30
0.0
 11
4455.1616782300079649
 21
283.8521759254506946
 31
0.0
  0
LINE
  5
222B9
  8
0
 10
4455.1161264779912017
 20
283.8095121868846036
 30
0.0
 11
4455.1290053303337118
 21
283.8239416086846063
 31
0.0
  0
LINE
  5
222BA
  8
0
 10
4455.1628372970908458
 20
283.8618468278846763
 30
0.0
 11
4455.175716149422442
 21
283.8762762497847234
 31
0.0
  0
LINE
  5
222BB
  8
0
 10
4455.1673727174411397
 20
283.8806856019871816
 30
0.0
 11
4455.155100633791335
 21
283.8669360015845768
 31
0.0
  0
LINE
  5
222BC
  8
0
 10
4455.1206798345683637
 20
283.8283710565618776
 30
0.0
 11
4455.1083898147917353
 21
283.8146013605846747
 31
0.0
  0
LINE
  5
222BD
  8
0
 10
4455.1083898147917353
 20
283.8273615288845804
 30
0.0
 11
4455.1150674345390144
 21
283.8348431110704269
 31
0.0
  0
LINE
  5
222BE
  8
0
 10
4455.155100633791335
 20
283.8796961698847099
 30
0.0
 11
4455.1616782300288833
 21
283.887065686073413
 31
0.0
  0
LINE
  5
222BF
  8
0
 10
4455.0739309274922562
 20
283.7971262024847192
 30
0.0
 11
4455.0822945072495713
 21
283.8064967283846727
 31
0.0
  0
LINE
  5
222C0
  8
0
 10
4455.1161264779912017
 20
283.8444019475845721
 30
0.0
 11
4455.1290053345301203
 21
283.8588313740846729
 31
0.0
  0
LINE
  5
222C1
  8
0
 10
4455.1628372970908458
 20
283.8967365885845879
 30
0.0
 11
4455.1734310741903755
 21
283.9086058199940794
 31
0.0
  0
LINE
  5
222C2
  8
0
 10
4455.1638253649889521
 20
283.9116009211131768
 30
0.0
 11
4455.155100633791335
 21
283.9018257622846022
 31
0.0
  0
LINE
  5
222C3
  8
0
 10
4455.0739690132941178
 20
283.8109261782922204
 30
0.0
 11
4455.0628236303919039
 21
283.7984389294845755
 31
0.0
  0
LINE
  5
222C4
  8
0
 10
4455.0628236303919039
 20
283.8111990978846961
 30
0.0
 11
4455.0683566122415868
 21
283.8173982317301807
 31
0.0
  0
LINE
  5
222C5
  8
0
 10
4455.069415658991602
 20
283.8269570671847077
 30
0.0
 11
4455.0822945113332025
 21
283.841386489084698
 31
0.0
  0
LINE
  5
222C6
  8
0
 10
4455.1161264735910663
 20
283.8792917085846739
 30
0.0
 11
4455.129005334500107
 21
283.8937211346847107
 31
0.0
  0
LINE
  5
222C7
  8
0
 10
4455.1206618984460874
 20
283.8981304822921174
 30
0.0
 11
4455.1083898147917353
 21
283.884380881884681
 31
0.0
  0
LINE
  5
222C8
  8
0
 10
4455.0739690153795891
 20
283.8458159365869165
 30
0.0
 11
4455.0616789913901812
 21
283.832046240884722
 31
0.0
  0
LINE
  5
222C9
  8
0
 10
4455.0616789913901812
 20
283.8448064091846845
 30
0.0
 11
4455.068356614271579
 21
283.8522879900904741
 31
0.0
  0
LINE
  5
222CA
  8
0
 10
4455.1083898147917353
 20
283.8971410501847004
 30
0.0
 11
4455.1149674110092747
 21
283.9045105664505968
 31
0.0
  0
LINE
  5
222CB
  8
0
 10
4455.1161264780912461
 20
283.9141814735846765
 30
0.0
 11
4455.1226237204109566
 21
283.9214609614854226
 31
0.0
  0
LINE
  5
222CC
  8
0
 10
4455.0800905593905554
 20
283.8774445188846016
 30
0.0
 11
4455.0645201712222843
 21
283.8599997723313777
 31
0.0
  0
LINE
  5
222CD
  8
0
 10
4455.1119468059114297
 20
283.9232558832264885
 30
0.0
 11
4455.1083898147917353
 21
283.9192706425845927
 31
0.0
  0
LINE
  5
222CE
  8
0
 10
4455.0739690153795891
 20
283.880705697286885
 30
0.0
 11
4455.0616789913901812
 21
283.8669360015845768
 31
0.0
  0
LINE
  5
222CF
  8
0
 10
4455.0616789913901812
 20
283.8796961698847099
 30
0.0
 11
4455.0683566143161443
 21
283.8871777507389993
 31
0.0
  0
LINE
  5
222D0
  8
0
 10
4455.069415658991602
 20
283.8967365885845879
 30
0.0
 11
4455.0822945113350215
 21
283.9111660103847044
 31
0.0
  0
LINE
  5
222D1
  8
0
 10
4455.0739510794255693
 20
283.915575362512584
 30
0.0
 11
4455.0616789913901812
 21
283.9018257621847283
 31
0.0
  0
LINE
  5
222D2
  8
0
 10
4455.0616789956911816
 20
283.9145859305846784
 30
0.0
 11
4455.0682565919332774
 21
283.9219554467791227
 31
0.0
  0
LINE
  5
222D3
  8
0
 10
4455.0819284802919356
 20
283.8064967283846727
 30
0.0
 11
4455.1093931845907719
 21
283.8064967283846727
 31
0.0
  0
LINE
  5
222D4
  8
0
 10
4455.1083898147917353
 20
283.8146013605846747
 30
0.0
 11
4455.0829318500918816
 21
283.8146013605846747
 31
0.0
  0
LINE
  5
222D5
  8
0
 10
4455.1286392992906258
 20
283.8239416086846063
 30
0.0
 11
4455.1561040035912811
 21
283.8239416086846063
 31
0.0
  0
LINE
  5
222D6
  8
0
 10
4455.1083898147917353
 20
283.8273615288845804
 30
0.0
 11
4455.0829318500918816
 21
283.8273615288845804
 31
0.0
  0
LINE
  5
222D7
  8
0
 10
4455.155100633791335
 20
283.832046240884722
 30
0.0
 11
4455.1296426733861153
 21
283.832046240884722
 31
0.0
  0
LINE
  5
222D8
  8
0
 10
4455.0819284802919356
 20
283.841386489084698
 30
0.0
 11
4455.1093931845907719
 21
283.841386489084698
 31
0.0
  0
LINE
  5
222D9
  8
0
 10
4455.1753501183902699
 20
283.841386489084698
 30
0.0
 11
4455.2028148225917903
 21
283.841386489084698
 31
0.0
  0
LINE
  5
222DA
  8
0
 10
4455.1112311054912425
 20
283.8425547628846743
 30
0.0
 11
4455.0800905594924188
 21
283.8425547628846743
 31
0.0
  0
LINE
  5
222DB
  8
0
 10
4455.155100633791335
 20
283.8448064091846845
 30
0.0
 11
4455.1296426691906163
 21
283.8448064091846845
 31
0.0
  0
LINE
  5
222DC
  8
0
 10
4455.2018114527909347
 20
283.8494911212845864
 30
0.0
 11
4455.1763534881911255
 21
283.8494911212845864
 31
0.0
  0
LINE
  5
222DD
  8
0
 10
4455.1286392993906702
 20
283.8588313740846729
 30
0.0
 11
4455.1561040035912811
 21
283.8588313740846729
 31
0.0
  0
LINE
  5
222DE
  8
0
 10
4455.2220609373916886
 20
283.8588313693846885
 30
0.0
 11
4455.2406502083904343
 21
283.8588313693846885
 31
0.0
  0
LINE
  5
222DF
  8
0
 10
4455.2018114527909347
 20
283.8622512895847194
 30
0.0
 11
4455.1763534881911255
 21
283.8622512895847194
 31
0.0
  0
LINE
  5
222E0
  8
0
 10
4455.2580048862682816
 20
283.8669360015845768
 30
0.0
 11
4455.2230643071907252
 21
283.8669360015845768
 31
0.0
  0
LINE
  5
222E1
  8
0
 10
4455.155100633791335
 20
283.8669360015845768
 30
0.0
 11
4455.1296426691906163
 21
283.8669360015845768
 31
0.0
  0
LINE
  5
222E2
  8
0
 10
4455.1753501183902699
 20
283.8762762497847234
 30
0.0
 11
4455.2028148225917903
 21
283.8762762497847234
 31
0.0
  0
LINE
  5
222E3
  8
0
 10
4455.0800905593905554
 20
283.8774445188846016
 30
0.0
 11
4455.1112311054912425
 21
283.8774445188846016
 31
0.0
  0
LINE
  5
222E4
  8
0
 10
4455.2389524483960486
 20
283.8796961698847099
 30
0.0
 11
4455.2230643071907252
 21
283.8796961698847099
 31
0.0
  0
LINE
  5
222E5
  8
0
 10
4455.155100633791335
 20
283.8796961698847099
 30
0.0
 11
4455.1296426691906163
 21
283.8796961698847099
 31
0.0
  0
LINE
  5
222E6
  8
0
 10
4455.2018114527909347
 20
283.884380881884681
 30
0.0
 11
4455.1763534881911255
 21
283.884380881884681
 31
0.0
  0
LINE
  5
222E7
  8
0
 10
4455.1083898147917353
 20
283.884380881884681
 30
0.0
 11
4455.0829318500918816
 21
283.884380881884681
 31
0.0
  0
LINE
  5
222E8
  8
0
 10
4455.1286392993906702
 20
283.8937211346847107
 30
0.0
 11
4455.1561040035912811
 21
283.8937211346847107
 31
0.0
  0
LINE
  5
222E9
  8
0
 10
4455.2041424466970057
 20
283.8971410502845742
 30
0.0
 11
4455.1763534881911255
 21
283.8971410502845742
 31
0.0
  0
LINE
  5
222EA
  8
0
 10
4455.1083898147917353
 20
283.8971410501847004
 30
0.0
 11
4455.0829318500918816
 21
283.8971410501847004
 31
0.0
  0
LINE
  5
222EB
  8
0
 10
4455.155100633791335
 20
283.9018257622846022
 30
0.0
 11
4455.1296426691906163
 21
283.9018257622846022
 31
0.0
  0
LINE
  5
222EC
  8
0
 10
4455.0819284802919356
 20
283.9111660103847044
 30
0.0
 11
4455.1093931845907719
 21
283.9111660103847044
 31
0.0
  0
LINE
  5
222ED
  8
0
 10
4455.1532547761125898
 20
283.9145859305846784
 30
0.0
 11
4455.1296426691906163
 21
283.9145859305846784
 31
0.0
  0
LINE
  5
222EE
  8
0
 10
4455.1083898147917353
 20
283.9192706425845927
 30
0.0
 11
4455.0829318500918816
 21
283.9192706425845927
 31
0.0
  0
ARC
  5
222EF
  8
0
 10
4455.055820811691774
 20
284.1342676580846955
 30
0.0
 40
0.3226979601
 50
282.3020239043178208
 51
285.9167831523184873
  0
ARC
  5
222F0
  8
0
 10
4455.0732551841092572
 20
284.0838920387432154
 30
0.0
 40
0.269342203779547
 50
291.3462378312985948
 51
295.7942771355810123
  0
ARC
  5
222F1
  8
0
 10
4455.2395283171354095
 20
283.8638502073746963
 30
0.0
 40
0.0051427011151675
 50
282.6005224607490049
 51
324.7233264496049969
  0
ARC
  5
222F2
  8
0
 10
4455.2343872155488498
 20
283.8684444658645134
 30
0.0
 40
0.0120184931559481
 50
320.9949958835848065
 51
338.2178641308286728
  0
ARC
  5
222F3
  8
0
 10
4455.2373900165302985
 20
283.8674343718890896
 30
0.0
 40
0.0088570182690828
 50
337.0773126651731104
 51
356.7743541218005134
  0
ARC
  5
222F4
  8
0
 10
4455.2087364592962331
 20
283.8369358313523776
 30
0.0
 40
0.0017273616128368
 50
222.1614652629212117
 51
249.5252540722447918
  0
ARC
  5
222F5
  8
0
 10
4455.2087766970116718
 20
283.8375401789642183
 30
0.0
 40
0.0023141337167315
 50
253.8299941883138047
 51
273.2425108315208035
  0
ARC
  5
222F6
  8
0
 10
4455.2086284425467966
 20
283.8387250473833205
 30
0.0
 40
0.0035064265110514
 50
274.5661578031317163
 51
296.2353316180962111
  0
ARC
  5
222F7
  8
0
 10
4455.206752949685324
 20
283.8421670974574909
 30
0.0
 40
0.0074247149877826
 50
297.4755441992866167
 51
326.6145864974340043
  0
ARC
  5
222F8
  8
0
 10
4455.2061200323632875
 20
283.8428395158115904
 30
0.0
 40
0.0083259335637336
 50
325.1473575928476976
 51
340.6020178485438805
  0
ARC
  5
222F9
  8
0
 10
4455.2086794360393469
 20
283.8419904387462225
 30
0.0
 40
0.0056300286158882
 50
340.1016097499152124
 51
358.6410285480531002
  0
ARC
  5
222FA
  8
0
 10
4455.2124107802610524
 20
283.850023170217014
 30
0.0
 40
0.010612672560591
 50
182.8736345335688895
 51
205.7400591321597005
  0
ARC
  5
222FB
  8
0
 10
4455.2138072380203084
 20
283.8503197724415941
 30
0.0
 40
0.0120041719199816
 50
204.1203932995998969
 51
220.3052186501809899
  0
ARC
  5
222FC
  8
0
 10
4455.2051031167657129
 20
283.8487715949739254
 30
0.0
 40
0.0062331242015132
 50
265.8564929765586271
 51
315.4897805797749015
  0
ARC
  5
222FD
  8
0
 10
4455.2019932379371312
 20
283.8447088404536771
 30
0.0
 40
0.0034224289564925
 50
283.89001883151019
 51
320.9941136218325823
  0
ARC
  5
222FE
  8
0
 10
4455.0686025977220197
 20
283.8026296774701791
 30
0.0
 40
0.0076602469066443
 50
273.714713031684596
 51
314.0736362069267784
  0
ARC
  5
222FF
  8
0
 10
4455.0682040573392442
 20
283.8026825671158804
 30
0.0
 40
0.0077488835188826
 50
243.2502243271154043
 51
276.6312794197737048
  0
ARC
  5
22300
  8
0
 10
4455.0660274633846711
 20
283.7986976521979159
 30
0.0
 40
0.0032142624808489
 50
184.6168517851131128
 51
245.9262020834192981
  0
ARC
  5
22301
  8
0
 10
4455.1159182967294328
 20
283.8049076108060831
 30
0.0
 40
0.0040907682709309
 50
225.2814724949624861
 51
275.574190622303604
  0
ARC
  5
22302
  8
0
 10
4455.1159378168658804
 20
283.8075908161197276
 30
0.0
 40
0.0067651886454687
 50
273.20162779540982
 51
311.6797476612001105
  0
ARC
  5
22303
  8
0
 10
4455.1176347374002944
 20
283.8059496951344158
 30
0.0
 40
0.004414597623016
 50
309.393664605124286
 51
356.4156744037226758
  0
ARC
  5
22304
  8
0
 10
4455.1114746227731302
 20
283.814430040228217
 30
0.0
 40
0.0067694193609239
 50
267.9394910378630925
 51
313.4078254179535747
  0
ARC
  5
22305
  8
0
 10
4455.1086410727739349
 20
283.809710066611899
 30
0.0
 40
0.0033001840478061
 50
283.1734651721459954
 51
321.7069937086682785
  0
ARC
  5
22306
  8
0
 10
4455.1206302757400408
 20
283.8155653870805963
 30
0.0
 40
0.0122783643580251
 50
184.5031695444546074
 51
220.048802992521189
  0
ARC
  5
22307
  8
0
 10
4455.0826470611527839
 20
283.8096570432066983
 30
0.0
 40
0.0032409795168894
 50
217.9259287448660132
 51
257.1900883158651254
  0
ARC
  5
22308
  8
0
 10
4455.0706580433243289
 20
283.8155788850655199
 30
0.0
 40
0.0123126717914487
 50
320.0033147506039768
 51
355.4463959994722018
  0
ARC
  5
22309
  8
0
 10
4455.0798474013136001
 20
283.8144309642473786
 30
0.0
 40
0.0067703341521912
 50
226.5953130628325027
 51
272.0581962204665274
  0
ARC
  5
2230A
  8
0
 10
4455.0647456239958046
 20
283.8319231002636798
 30
0.0
 40
0.0068169429652241
 50
268.1056768826539951
 51
313.2405572798377875
  0
ARC
  5
2230B
  8
0
 10
4455.0739436720641606
 20
283.8330200263740721
 30
0.0
 40
0.0123032780261423
 50
184.5396207893874987
 51
220.0106328707277896
  0
ARC
  5
2230C
  8
0
 10
4455.0620571087665667
 20
283.8269550909420786
 30
0.0
 40
0.0030776640449278
 50
281.7216989918526906
 51
323.1624482010088855
  0
ARC
  5
2230D
  8
0
 10
4455.0825415884528411
 20
283.844380866355209
 30
0.0
 40
0.0030565007535337
 50
216.6874169209901879
 51
258.4284477960852087
  0
ARC
  5
2230E
  8
0
 10
4455.0798025053327365
 20
283.8492017579551998
 30
0.0
 40
0.0066532336998668
 50
226.1722150624001983
 51
272.4814171241242775
  0
ARC
  5
2230F
  8
0
 10
4455.0620576091432667
 20
283.8618436273898737
 30
0.0
 40
0.0030763636773235
 50
281.7172063052721001
 51
323.1757920434732796
  0
ARC
  5
22310
  8
0
 10
4455.0738147108777412
 20
283.8678569590197185
 30
0.0
 40
0.0121706142029238
 50
184.3397532007809048
 51
220.209678654903712
  0
ARC
  5
22311
  8
0
 10
4455.07064185299987
 20
283.885365031962408
 30
0.0
 40
0.0123293381776117
 50
320.0280981258114252
 51
355.4216766083554262
  0
ARC
  5
22312
  8
0
 10
4455.0797987796022426
 20
283.8840816279472961
 30
0.0
 40
0.0066435195607907
 50
226.1363257404150033
 51
272.5172093668202251
  0
ARC
  5
22313
  8
0
 10
4455.0648163185560406
 20
283.9015152592475033
 30
0.0
 40
0.0066324675454923
 50
267.4417676860804818
 51
313.9044997968983921
  0
ARC
  5
22314
  8
0
 10
4455.0620570367100299
 20
283.8967347252154809
 30
0.0
 40
0.0030777892037398
 50
281.7225855293481231
 51
323.1615126147672754
  0
ARC
  5
22315
  8
0
 10
4455.07384845303568
 20
283.902760538473899
 30
0.0
 40
0.0122053104605025
 50
184.3924515217906901
 51
220.1577603162907906
  0
ARC
  5
22316
  8
0
 10
4455.0707746660182238
 20
283.9202004007868823
 30
0.0
 40
0.0121926853032541
 50
319.8230440333476281
 51
355.6266414752271885
  0
ARC
  5
22317
  8
0
 10
4455.0825501742128836
 20
283.9141739035097203
 30
0.0
 40
0.003071469417815
 50
216.7938584098262993
 51
258.3221171840959869
  0
ARC
  5
22318
  8
0
 10
4455.0798025741805759
 20
283.9189814756803116
 30
0.0
 40
0.0066534264703353
 50
226.1729855164448111
 51
272.4807138274210274
  0
ARC
  5
22319
  8
0
 10
4455.1087679149031828
 20
283.9141795178164216
 30
0.0
 40
0.0030776921913596
 50
281.7219175546532028
 51
323.162148156184287
  0
ARC
  5
2231A
  8
0
 10
4455.1115256539105758
 20
283.9189640519410887
 30
0.0
 40
0.006636312144756
 50
267.4560901976598188
 51
313.8903337545833097
  0
ARC
  5
2231B
  8
0
 10
4455.1205595764959071
 20
283.9202055359594965
 30
0.0
 40
0.0122056186067652
 50
184.3928916552715123
 51
220.1572731031722867
  0
ARC
  5
2231C
  8
0
 10
4455.1169794441129852
 20
283.9029031805476961
 30
0.0
 40
0.0127089771216125
 50
320.7657329889105995
 51
355.1368467446757222
  0
ARC
  5
2231D
  8
0
 10
4455.129371999297291
 20
283.8968979135610766
 30
0.0
 40
0.0032601799309002
 50
218.5799470843485039
 51
257.0122828151140197
  0
ARC
  5
2231E
  8
0
 10
4455.1267105099750552
 20
283.9019635569009097
 30
0.0
 40
0.0070996096558559
 50
227.4115226278194086
 51
270.9110194410288841
  0
ARC
  5
2231F
  8
0
 10
4455.1114887802541489
 20
283.884172012203976
 30
0.0
 40
0.0067324262276387
 50
267.8065437775737223
 51
313.5398675837034261
  0
ARC
  5
22320
  8
0
 10
4455.1206118708905706
 20
283.8853372017999277
 30
0.0
 40
0.0122594128361969
 50
184.4740167105387059
 51
220.0762085552995018
  0
ARC
  5
22321
  8
0
 10
4455.1293580160572674
 20
283.8619919100482889
 30
0.0
 40
0.0032412252654751
 50
218.1139855391020035
 51
257.1886141700755957
  0
ARC
  5
22322
  8
0
 10
4455.1173642275489328
 20
283.8678971236370217
 30
0.0
 40
0.0123160011680175
 50
320.0654626179909883
 51
355.5241734320571823
  0
ARC
  5
22323
  8
0
 10
4455.1115021452378642
 20
283.8492468609150023
 30
0.0
 40
0.0066975845341001
 50
267.6807048384566201
 51
313.6655694913175125
  0
ARC
  5
22324
  8
0
 10
4455.1087467566685518
 20
283.844433284999127
 30
0.0
 40
0.0031146162528441
 50
281.9786136323996857
 51
322.9055188267248013
  0
ARC
  5
22325
  8
0
 10
4455.1292595304894348
 20
283.8269472006564911
 30
0.0
 40
0.003068919979469
 50
216.7758109345099911
 51
258.3401646586686979
  0
ARC
  5
22326
  8
0
 10
4455.1265120733105505
 20
283.8317535636372781
 30
0.0
 40
0.0066499767077484
 50
226.1602180904507975
 51
272.4933841739119771
  0
ARC
  5
22327
  8
0
 10
4455.1173663644976841
 20
283.8330248012479728
 30
0.0
 40
0.0123152482848644
 50
320.0071087093941742
 51
355.4425160398308208
  0
ARC
  5
22328
  8
0
 10
4455.1656554575511109
 20
283.8205564114412027
 30
0.0
 40
0.0056485057978804
 50
246.1297244019461061
 51
357.0644816175163214
  0
ARC
  5
22329
  8
0
 10
4455.158176108006046
 20
283.8318996569724959
 30
0.0
 40
0.0067938117063508
 50
268.0245790725217034
 51
313.321654316676188
  0
ARC
  5
2232A
  8
0
 10
4455.1554787875056718
 20
283.8269550245232722
 30
0.0
 40
0.0030775916185315
 50
281.7212868664291818
 51
323.1629831131666037
  0
ARC
  5
2232B
  8
0
 10
4455.1672703947288028
 20
283.8329811340325932
 30
0.0
 40
0.0122056178239969
 50
184.3928908691607091
 51
220.1572456992932132
  0
ARC
  5
2232C
  8
0
 10
4455.1760702851133829
 20
283.8445492995322184
 30
0.0
 40
0.0032437647933435
 50
217.9434310030852942
 51
257.1725474133809257
  0
ARC
  5
2232D
  8
0
 10
4455.1732242118778231
 20
283.8492019533297253
 30
0.0
 40
0.0066534254338642
 50
226.1729817510266969
 51
272.4807168196314819
  0
ARC
  5
2232E
  8
0
 10
4455.1641741978010032
 20
283.8504299296395175
 30
0.0
 40
0.0122154195804521
 50
319.8575176952593893
 51
355.5922226192412836
  0
ARC
  5
2232F
  8
0
 10
4455.1672703952626762
 20
283.8678708949069005
 30
0.0
 40
0.0122056183704331
 50
184.3928914927471965
 51
220.1572594773415972
  0
ARC
  5
22330
  8
0
 10
4455.1582335171842715
 20
283.866637264556573
 30
0.0
 40
0.0066440253571331
 50
267.4845423396417914
 51
313.8617211792376906
  0
ARC
  5
22331
  8
0
 10
4455.1554787585073427
 20
283.8618448502314209
 30
0.0
 40
0.0030776565601113
 50
281.7215873715230146
 51
323.162269629345019
  0
ARC
  5
22332
  8
0
 10
4455.1759633942438086
 20
283.8792709071860827
 30
0.0
 40
0.0030568088301244
 50
216.6897653489594973
 51
258.4264217766682918
  0
ARC
  5
22333
  8
0
 10
4455.1732128451330937
 20
283.8840615732892729
 30
0.0
 40
0.0066238217234963
 50
226.0633727924277139
 51
272.5902294719762153
  0
ARC
  5
22334
  8
0
 10
4455.1641074836306871
 20
283.8853470179369083
 30
0.0
 40
0.0122840566001848
 50
319.9606592735634081
 51
355.4890514766622118
  0
ARC
  5
22335
  8
0
 10
4455.1581895195531615
 20
283.9016436265119978
 30
0.0
 40
0.0067587615178258
 50
267.9010958466565171
 51
313.4457175272626728
  0
ARC
  5
22336
  8
0
 10
4455.155478612290608
 20
283.8967349725525082
 30
0.0
 40
0.0030780404434518
 50
281.7228844361046072
 51
323.1592096460249195
  0
ARC
  5
22337
  8
0
 10
4455.1671318337930643
 20
283.9027039805151276
 30
0.0
 40
0.0120632102169767
 50
184.1749046568810115
 51
220.3761444964796965
  0
ARC
  5
22338
  8
0
 10
4455.2138430942759442
 20
283.8852591982505942
 30
0.0
 40
0.0120636576742118
 50
184.1752168596671879
 51
220.374933765097893
  0
ARC
  5
22339
  8
0
 10
4455.2021895537463934
 20
283.8792897560476263
 30
0.0
 40
0.0030776908755468
 50
281.7219066021160074
 51
323.1621546681270161
  0
ARC
  5
2233A
  8
0
 10
4455.2049487713620692
 20
283.8840703704394741
 30
0.0
 40
0.0066324610784633
 50
267.4418189097191885
 51
313.9046050423776251
  0
ARC
  5
2233B
  8
0
 10
4455.2226740952291948
 20
283.8618258409674127
 30
0.0
 40
0.0030566031134407
 50
216.6882925073500132
 51
258.4278901771638743
  0
ARC
  5
2233C
  8
0
 10
4455.2199350434029839
 20
283.8666468380541232
 30
0.0
 40
0.0066534339077033
 50
226.1729023005034946
 51
272.4806057067979168
  0
ARC
  5
2233D
  8
0
 10
4455.2108179552105867
 20
283.8679022793074864
 30
0.0
 40
0.0122844137255399
 50
319.9611958170734738
 51
355.4885415892875926
  0
LINE
  5
2233E
  8
0
 10
4454.7239143014094225
 20
283.778780171084577
 30
0.0
 11
4454.7239143015076479
 21
283.805370179484612
 31
0.0
  0
ARC
  5
2233F
  8
0
 10
4454.8948470422337778
 20
283.7695653259871733
 30
0.0
 40
0.1746424615770217
 50
168.1694454668543983
 51
179.5204330256952971
  0
ENDSEC
  0
EOF
