  0
SECTION
  2
HEADER
  9
$ACADVER
  1
AC1009
  9
$INSBASE
 10
4456.131421857571695
 20
270.3628463720453965
 30
0.0
  9
$EXTMIN
 10
4451.8346228978771251
 20
270.358251204806777
 30
0.0
  9
$EXTMAX
 10
4457.8424940756713113
 20
278.3890628708680879
 30
0.0
  9
$LIMMIN
 10
0.0
 20
0.0
  9
$LIMMAX
 10
11.6929133858000007
 20
8.2677165353999982
  9
$ORTHOMODE
 70
     0
  9
$REGENMODE
 70
     1
  9
$FILLMODE
 70
     1
  9
$QTEXTMODE
 70
     0
  9
$MIRRTEXT
 70
     0
  9
$DRAGMODE
 70
     2
  9
$LTSCALE
 40
0.6431102362
  9
$OSMODE
 70
   695
  9
$ATTMODE
 70
     1
  9
$TEXTSIZE
 40
0.2
  9
$TRACEWID
 40
0.05
  9
$TEXTSTYLE
  7
STANDARD
  9
$CLAYER
  8
0
  9
$CELTYPE
  6
BYLAYER
  9
$CECOLOR
 62
   256
  9
$DIMSCALE
 40
1.0
  9
$DIMASZ
 40
0.1875
  9
$DIMEXO
 40
0.0625
  9
$DIMDLI
 40
0.4443307087
  9
$DIMRND
 40
0.0
  9
$DIMDLE
 40
0.0
  9
$DIMEXE
 40
0.125
  9
$DIMTP
 40
0.01
  9
$DIMTM
 40
0.01
  9
$DIMTXT
 40
2.0
  9
$DIMCEN
 40
0.1052362205
  9
$DIMTSZ
 40
0.0
  9
$DIMTOL
 70
     1
  9
$DIMLIM
 70
     0
  9
$DIMTIH
 70
     1
  9
$DIMTOH
 70
     1
  9
$DIMSE1
 70
     0
  9
$DIMSE2
 70
     0
  9
$DIMTAD
 70
     0
  9
$DIMZIN
 70
     0
  9
$DIMBLK
  1

  9
$DIMASO
 70
     1
  9
$DIMSHO
 70
     1
  9
$DIMPOST
  1
\X
  9
$DIMAPOST
  1

  9
$DIMALT
 70
     1
  9
$DIMALTD
 70
     2
  9
$DIMALTF
 40
25.3999999999999986
  9
$DIMLFAC
 40
1.0
  9
$DIMTOFL
 70
     0
  9
$DIMTVP
 40
0.0
  9
$DIMTIX
 70
     0
  9
$DIMSOXD
 70
     0
  9
$DIMSAH
 70
     0
  9
$DIMBLK1
  1

  9
$DIMBLK2
  1

  9
$DIMSTYLE
  2
STANDARD
  9
$DIMCLRD
 70
     0
  9
$DIMCLRE
 70
     0
  9
$DIMCLRT
 70
     0
  9
$DIMTFAC
 40
1.0
  9
$DIMGAP
 40
0.09
  9
$LUNITS
 70
     2
  9
$LUPREC
 70
     4
  9
$SKETCHINC
 40
0.1
  9
$FILLETRAD
 40
0.0
  9
$AUNITS
 70
     0
  9
$AUPREC
 70
     0
  9
$MENU
  1
.
  9
$ELEVATION
 40
0.0
  9
$PELEVATION
 40
0.0
  9
$THICKNESS
 40
0.0
  9
$LIMCHECK
 70
     0
  9
$BLIPMODE
 70
     0
  9
$CHAMFERA
 40
0.0
  9
$CHAMFERB
 40
0.0
  9
$SKPOLY
 70
     0
  9
$TDCREATE
 40
2458060.468368056230247
  9
$TDUPDATE
 40
2459358.1142476848326623
  9
$TDINDWG
 40
0.5231204860999999
  9
$TDUSRTIMER
 40
0.5231204860999999
  9
$USRTIMER
 70
     1
  9
$ANGBASE
 50
0.0
  9
$ANGDIR
 70
     0
  9
$PDMODE
 70
     0
  9
$PDSIZE
 40
0.3125
  9
$PLINEWID
 40
0.0
  9
$COORDS
 70
     1
  9
$SPLFRAME
 70
     0
  9
$SPLINETYPE
 70
     6
  9
$SPLINESEGS
 70
     8
  9
$ATTDIA
 70
     1
  9
$ATTREQ
 70
     1
  9
$HANDLING
 70
     1
  9
$HANDSEED
  5
21378
  9
$SURFTAB1
 70
     6
  9
$SURFTAB2
 70
     6
  9
$SURFTYPE
 70
     6
  9
$SURFU
 70
     6
  9
$SURFV
 70
     6
  9
$UCSNAME
  2

  9
$UCSORG
 10
0.0
 20
0.0
 30
0.0
  9
$UCSXDIR
 10
1.0
 20
0.0
 30
0.0
  9
$UCSYDIR
 10
0.0
 20
1.0
 30
0.0
  9
$PUCSNAME
  2

  9
$PUCSORG
 10
0.0
 20
0.0
 30
0.0
  9
$PUCSXDIR
 10
1.0
 20
0.0
 30
0.0
  9
$PUCSYDIR
 10
0.0
 20
1.0
 30
0.0
  9
$USERI1
 70
     0
  9
$USERI2
 70
     0
  9
$USERI3
 70
     0
  9
$USERI4
 70
     0
  9
$USERI5
 70
     0
  9
$USERR1
 40
0.0
  9
$USERR2
 40
0.0
  9
$USERR3
 40
0.0
  9
$USERR4
 40
0.0
  9
$USERR5
 40
0.0
  9
$WORLDVIEW
 70
     1
  9
$SHADEDGE
 70
     3
  9
$SHADEDIF
 70
    70
  9
$TILEMODE
 70
     1
  9
$MAXACTVP
 70
    64
  9
$PLIMCHECK
 70
     0
  9
$PEXTMIN
 10
1.0000000000000000E+20
 20
1.0000000000000000E+20
 30
1.0000000000000000E+20
  9
$PEXTMAX
 10
-1.0000000000000000E+20
 20
-1.0000000000000000E+20
 30
-1.0000000000000000E+20
  9
$PLIMMIN
 10
0.0
 20
0.0
  9
$PLIMMAX
 10
12.0
 20
9.0
  9
$UNITMODE
 70
     0
  9
$VISRETAIN
 70
     1
  9
$PLINEGEN
 70
     0
  9
$PSLTSCALE
 70
     1
  0
ENDSEC
  0
SECTION
  2
TABLES
  0
TABLE
  2
VPORT
 70
     1
  0
VPORT
  2
*ACTIVE
 70
     0
 10
0.0
 20
0.0
 11
1.0
 21
1.0
 12
543.4732020195456244
 22
141.7940519258654035
 13
0.0
 23
0.0
 14
1.0
 24
1.0
 15
0.0
 25
0.0
 16
0.0
 26
0.0
 36
60.4960186965801583
 17
3911.3653564453120453
 27
132.5796051025390057
 37
0.0
 40
10.5336879483913606
 41
2.3233532934131729
 42
50.0
 43
0.0
 44
0.0
 50
0.0
 51
0.0
 71
     0
 72
   100
 73
     1
 74
     1
 75
     0
 76
     0
 77
     0
 78
     0
  0
ENDTAB
  0
TABLE
  2
LTYPE
 70
     2
  0
LTYPE
  2
CONTINUOUS
 70
     0
  3
Solid line
 72
    65
 73
     0
 40
0.0
  0
LTYPE
  2
PHANTOM2
 70
     0
  3
___ _ _ ___ _ _ ___ _ _ ___ _ _
 72
    65
 73
     6
 40
1.25
 49
0.625
 49
-0.125
 49
0.125
 49
-0.125
 49
0.125
 49
-0.125
  0
ENDTAB
  0
TABLE
  2
LAYER
 70
     2
  0
LAYER
  2
0
 70
     0
 62
   255
  6
CONTINUOUS
  0
LAYER
  2
DEFPOINTS
 70
     0
 62
     7
  6
CONTINUOUS
  0
ENDTAB
  0
TABLE
  2
STYLE
 70
     1
  0
STYLE
  2
STANDARD
 70
     0
 40
0.0
 41
0.8
 50
0.0
 71
     0
 42
0.2
  3
txt
  4

  0
ENDTAB
  0
TABLE
  2
VIEW
 70
     0
  0
ENDTAB
  0
TABLE
  2
UCS
 70
     0
  0
ENDTAB
  0
TABLE
  2
APPID
 70
    11
  0
APPID
  2
ACAD
 70
     0
  0
APPID
  2
ACAD_MLEADERVER
 70
     0
  0
APPID
  2
ACAD_EXEMPT_FROM_CAD_STANDARDS
 70
     0
  0
APPID
  2
ACAD_NAV_VCDISPLAY
 70
     0
  0
APPID
  2
ACAECLAYERSTANDARD
 70
     0
  0
APPID
  2
ACCMTRANSPARENCY
 70
     0
  0
APPID
  2
ACAD_DSTYLE_DIMJAG
 70
     0
  0
APPID
  2
ACAD_DSTYLE_DIMTALN
 70
     0
  0
APPID
  2
ACDBATTR
 70
     0
  0
APPID
  2
ACADANNOTATIVE
 70
     0
  0
APPID
  2
DCO15
 70
     0
  0
ENDTAB
  0
TABLE
  2
DIMSTYLE
 70
     1
  0
DIMSTYLE
  2
STANDARD
 70
     0
  3

  4

  5

  6

  7

 40
1.0
 41
0.1875
 42
0.0625
 43
0.38
 44
0.125
 45
0.0
 46
0.0
 47
0.01
 48
0.01
140
0.15625
141
0.09
142
0.0
143
25.3999999999999986
144
1.0
145
0.0
146
1.0
147
0.09
 71
     1
 72
     0
 73
     1
 74
     1
 75
     0
 76
     0
 77
     0
 78
     4
170
     0
171
     2
172
     0
173
     0
174
     0
175
     0
176
     0
177
     0
178
     0
  0
ENDTAB
  0
ENDSEC
  0
SECTION
  2
BLOCKS
  0
BLOCK
  8
0
  2
$MODEL_SPACE
 70
     0
 10
0.0
 20
0.0
 30
0.0
  3
$MODEL_SPACE
  1

  0
ENDBLK
  5
21
  8
0
  0
BLOCK
 67
     1
  8
0
  2
$PAPER_SPACE
 70
     0
 10
0.0
 20
0.0
 30
0.0
  3
$PAPER_SPACE
  1

  0
ENDBLK
  5
1D
 67
     1
  8
0
  0
ENDSEC
  0
SECTION
  2
ENTITIES
  0
ATTDEF
  5
20106
  8
DEFPOINTS
 10
4456.1314787388091645
 20
270.361584538140221
 30
0.0
 40
0.001
  1
K-19480T
  3

  2
MODELNUMBER
 70
     0
1001
ACDBATTR
1070
     0
1070
     1
  0
ATTDEF
  5
20107
  8
DEFPOINTS
 10
4456.1313529291510349
 20
270.3599176977609773
 30
0.0
 40
0.001
  1
SYMBOL
  3

  2
TRADENAME
 70
     0
1001
ACDBATTR
1070
     0
1070
     1
  0
ATTDEF
  5
20108
  8
DEFPOINTS
 10
4456.1314787388091645
 20
270.358251204806777
 30
0.0
 40
0.001
  1
BATHROOM SINK FAUCET
  3

  2
PRODUCT
 70
     0
1001
ACDBATTR
1070
     0
1070
     1
  0
LINE
  5
21175
  8
0
 10
4457.1230082393713019
 20
270.3628463720453965
 30
0.0
 11
4455.1398354757720881
 21
270.3628463720453965
 31
0.0
  0
LINE
  5
21176
  8
0
 10
4456.8693785905707045
 20
270.7919093641453969
 30
0.0
 11
4456.8906697797456218
 21
270.7919093641453969
 31
0.0
  0
LINE
  5
21177
  8
0
 10
4456.8898335419708019
 20
270.8312794429454016
 30
0.0
 11
4456.8685046909713492
 21
270.8312794429454016
 31
0.0
  0
LINE
  5
21178
  8
0
 10
4456.8699726169716087
 20
270.8612794429453743
 30
0.0
 11
4456.8913181001289558
 21
270.8612794429453743
 31
0.0
  0
LINE
  5
21179
  8
0
 10
4456.9153420098346032
 20
271.1512794429453947
 30
0.0
 11
4456.8932373807710974
 21
271.1512794429453947
 31
0.0
  0
LINE
  5
2117A
  8
0
 10
4457.2967443129718959
 20
272.3641534674454192
 30
0.0
 11
4457.8424940756713113
 21
272.3641534674454192
 31
0.0
  0
LINE
  5
2117B
  8
0
 10
4457.8424940756713113
 20
272.4940747272453905
 30
0.0
 11
4457.3407562413713094
 21
272.4940747272453905
 31
0.0
  0
LINE
  5
2117C
  8
0
 10
4452.017402602970833
 20
274.2592697586454165
 30
0.0
 11
4453.0372497614716849
 21
273.4395149018454276
 31
0.0
  0
LINE
  5
2117D
  8
0
 10
4456.1019607161742897
 20
276.4652085767453968
 30
0.0
 11
4456.9500574913708988
 21
276.8606825962453968
 31
0.0
  0
LINE
  5
2117E
  8
0
 10
4455.3618032364711325
 20
276.4219014901453875
 30
0.0
 11
4455.376238931971784
 21
276.4652085767453968
 31
0.0
  0
LINE
  5
2117F
  8
0
 10
4455.1972012861706389
 20
272.8307119962454976
 30
0.0
 11
4455.2817618013714309
 21
272.0347027856454929
 31
0.0
  0
LINE
  5
21180
  8
0
 10
4455.2121969371710293
 20
277.2049379749080913
 30
0.0
 11
4455.2121969371710293
 21
277.1049723563453995
 31
0.0
  0
LINE
  5
21181
  8
0
 10
4455.1141913064711844
 20
273.4079886568454185
 30
0.0
 11
4455.1972012861706389
 21
272.8307119962454976
 31
0.0
  0
LINE
  5
21182
  8
0
 10
4455.2240079608718588
 20
277.1049723563453995
 30
0.0
 11
4455.2240079608718588
 21
277.16953686275059
 31
0.0
  0
LINE
  5
21183
  8
0
 10
4455.3618032364711325
 20
276.3826214396456749
 30
0.0
 11
4455.3618032364711325
 21
276.4219014901453875
 31
0.0
  0
LINE
  5
21184
  8
0
 10
4455.2255113047258419
 20
277.1148191096453957
 30
0.0
 11
4455.2375141870297739
 21
277.0473374566042821
 31
0.0
  0
LINE
  5
21185
  8
0
 10
4455.1084869570722731
 20
277.4234153093455006
 30
0.0
 11
4455.1655947982717407
 21
277.2919802303454162
 31
0.0
  0
LINE
  5
21186
  8
0
 10
4456.8972363072716689
 20
276.4219014901453875
 30
0.0
 11
4455.3618032364711325
 21
276.4219014901453875
 31
0.0
  0
LINE
  5
21187
  8
0
 10
4456.8972363072716689
 20
276.3826214396459022
 30
0.0
 11
4456.8972363072716689
 21
276.4219014901453875
 31
0.0
  0
LINE
  5
21188
  8
0
 10
4455.2338731525705953
 20
276.4652085767453968
 30
0.0
 11
4456.1019607161742897
 21
276.4652085767453968
 31
0.0
  0
LINE
  5
21189
  8
0
 10
4456.8972363072716689
 20
276.4219014901453875
 30
0.0
 11
4456.7777575348709433
 21
276.7803378074453917
 31
0.0
  0
LINE
  5
2118A
  8
0
 10
4457.8424940756713113
 20
272.3641534674454192
 30
0.0
 11
4457.8424940756713113
 21
272.4940747272453905
 31
0.0
  0
LINE
  5
2118B
  8
0
 10
4456.947140312890042
 20
271.6308453637843741
 30
0.0
 11
4457.185756995570955
 21
272.2864393111453865
 31
0.0
  0
LINE
  5
2118C
  8
0
 10
4455.2121969371710293
 20
277.1049723563453995
 30
0.0
 11
4455.2240079608718588
 21
277.1049723563453995
 31
0.0
  0
LINE
  5
2118D
  8
0
 10
4455.2240079608718588
 20
277.1148191096453957
 30
0.0
 11
4455.2350389875527981
 21
277.1148191096453957
 31
0.0
  0
LINE
  5
2118E
  8
0
 10
4454.0064887387707131
 20
278.0114625542453837
 30
0.0
 11
4453.8626426952723705
 21
278.0045231160453909
 31
0.0
  0
LINE
  5
2118F
  8
0
 10
4454.2442816145712641
 20
278.0054044793453727
 30
0.0
 11
4454.4890820716709641
 21
277.9595652843453877
 31
0.0
  0
LINE
  5
21190
  8
0
 10
4456.6770652686718677
 20
278.1025384290454099
 30
0.0
 11
4456.6466189546708847
 21
278.1028964730454049
 31
0.0
  0
ARC
  5
21191
  8
0
 10
4457.3407562409865932
 20
272.0216337830465818
 30
0.0
 40
0.4724409441988531
 50
89.9999999532571451
 51
133.5434637941604024
  0
ARC
  5
21192
  8
0
 10
4457.2967443129718959
 20
272.2460432312454941
 30
0.0
 40
0.1181102362
 50
90.0
 51
159.9999999999926104
  0
ARC
  5
21193
  8
0
 10
4454.856625275470833
 20
277.0666577755454227
 30
0.0
 40
0.3815155883
 50
13.3994930858033197
 51
18.7387368696087684
  0
ARC
  5
21194
  8
0
 10
4454.8567377013041551
 20
277.0666502186699063
 30
0.0
 40
0.3814115518547052
 50
18.7452374276026887
 51
21.2580110867522087
  0
ARC
  5
21195
  8
0
 10
4454.8654023635717749
 20
277.0687121450454242
 30
0.0
 40
0.3725013543
 50
8.1219572891009815
 51
13.4049612985967705
  0
ARC
  5
21196
  8
0
 10
4456.6436906236758659
 20
278.057196087134173
 30
0.0
 40
0.0751575193401231
 50
10.0263629458006704
 51
14.01607092512352
  0
ARC
  5
21197
  8
0
 10
4455.2638701655723708
 20
277.1541849547454035
 30
0.0
 40
0.0713582677
 50
145.2897955739790916
 51
223.6028189727032043
  0
ARC
  5
21198
  8
0
 10
4469.3296458611712296
 20
278.1647334748453773
 30
0.0
 40
12.4149322686999994
 50
188.4099042293011905
 51
189.2830337074047122
  0
ARC
  5
21199
  8
0
 10
4525.7918392225710704
 20
265.2994817737454127
 30
0.0
 40
69.1246367387000049
 50
175.1437708002011959
 51
175.3849685227428949
  0
ARC
  5
2119A
  8
0
 10
4510.0057860628721755
 20
266.6499241709454964
 30
0.0
 40
53.290930218299998
 50
174.6663894145993936
 51
175.1545914515986055
  0
ARC
  5
2119B
  8
0
 10
4484.2641133115166667
 20
268.8080783592477019
 30
0.0
 40
27.4608424614587001
 50
175.1050668534064982
 51
175.7120893008795974
  0
LINE
  5
2119C
  8
0
 10
4455.1655947982717407
 20
277.2919802303454162
 30
0.0
 11
4455.1735516450717114
 21
277.2801492029453811
 31
0.0
  0
ARC
  5
2119D
  8
0
 10
4455.1549246644390223
 20
270.368617800205584
 30
0.0
 40
0.0161552777025508
 50
175.9196312975552985
 51
200.9312347402471914
  0
ARC
  5
2119E
  8
0
 10
4455.1933504025073489
 20
270.366258344051289
 30
0.0
 40
0.0546528299547887
 50
163.8908869474155097
 51
176.3187807153605888
  0
ARC
  5
2119F
  8
0
 10
4455.3629873214304098
 20
270.3138590941417192
 30
0.0
 40
0.2321911185583522
 50
152.8083852974627916
 51
163.0831933746308948
  0
ARC
  5
211A0
  8
0
 10
4455.3781156640488916
 20
270.3124864071602929
 30
0.0
 40
0.2463405730757471
 50
136.2117352311946945
 51
154.1324346365854865
  0
ARC
  5
211A1
  8
0
 10
4448.0654696247747779
 20
277.598425539212883
 30
0.0
 40
10.0764823652937494
 50
315.0777585675911041
 51
315.6509562827868081
  0
ARC
  5
211A2
  8
0
 10
4454.9343709592740197
 20
270.8849611052650062
 30
0.0
 40
0.4716712305123389
 50
315.5550592730448898
 51
328.1116547797582825
  0
ARC
  5
211A3
  8
0
 10
4455.0120705089393596
 20
270.8370056238325105
 30
0.0
 40
0.3803650707695762
 50
328.0622466900197196
 51
355.1143548305208242
  0
ARC
  5
211A4
  8
0
 10
4454.972054824766019
 20
270.8260579463893123
 30
0.0
 40
0.4195472979766052
 50
357.0697995308029817
 51
7.3501771953117387
  0
ARC
  5
211A5
  8
0
 10
4557.432770618932409
 20
280.8621938651348273
 30
0.0
 40
102.5317180252230997
 50
184.9390073899351989
 51
185.5871529792150909
  0
ARC
  5
211A6
  8
0
 10
4453.813894741925651
 20
273.248669863985981
 30
0.0
 40
1.310020470651567
 50
6.9853467756351169
 51
25.8913278118189503
  0
ARC
  5
211A7
  8
0
 10
4454.4103064296486991
 20
273.5034437838468762
 30
0.0
 40
0.6629593268137546
 50
28.59151126762724
 51
80.2155573102720609
  0
ARC
  5
211A8
  8
0
 10
4454.4481571815258576
 20
273.5114834427089932
 30
0.0
 40
0.6495988229777705
 50
83.3866105081936126
 51
105.5734143434297039
  0
ARC
  5
211A9
  8
0
 10
4454.4648487916465456
 20
273.4890871195228215
 30
0.0
 40
0.6757291384042647
 50
106.4269533974099033
 51
115.2665690522738942
  0
ARC
  5
211AA
  8
0
 10
4460.3652625301783701
 20
262.6635337489664153
 30
0.0
 40
13.0037818421055302
 50
118.4196464896270982
 51
124.0587177595673012
  0
ARC
  5
211AB
  8
0
 10
4453.0619062305959233
 20
273.4700573282127039
 30
0.0
 40
0.0392527868830893
 50
231.0865525574290871
 51
301.8084715091665089
  0
ARC
  5
211AC
  8
0
 10
4452.0431087736260451
 20
274.2895388738619999
 30
0.0
 40
0.0397117935341591
 50
118.4474047981667013
 51
229.6602830479207
  0
ARC
  5
211AD
  8
0
 10
4266.7384942206354026
 20
638.6937781274680219
 30
0.0
 40
408.7735228148947044
 50
296.9538232705231167
 51
297.2170940357160021
  0
ARC
  5
211AE
  8
0
 10
4447.8757020653556538
 20
286.5810801236366956
 30
0.0
 40
12.8013099303054503
 50
297.0457749804955938
 51
301.415591109173306
  0
ARC
  5
211AF
  8
0
 10
4453.0911534063561703
 20
278.0555736681423014
 30
0.0
 40
2.8070633067307629
 50
301.2714449627172257
 51
310.4429804305867719
  0
ARC
  5
211B0
  8
0
 10
4454.0979669014432147
 20
276.8427214260448181
 30
0.0
 40
1.2310801349138101
 50
311.3984656638655224
 51
336.80413924809028
  0
ARC
  5
211B1
  8
0
 10
4455.2868408094273036
 20
276.3382403663154037
 30
0.0
 40
0.0605649342103837
 50
150.5740340734398899
 51
161.1292851800517099
  0
ARC
  5
211B2
  8
0
 10
4455.259838665211646
 20
276.3539149308296032
 30
0.0
 40
0.0293479548386843
 50
127.4589469032153062
 51
151.3282158998200941
  0
ARC
  5
211B3
  8
0
 10
4455.2574922842422893
 20
276.3549539978887992
 30
0.0
 40
0.0271240316260464
 50
101.0706599212213064
 51
124.8586256995793065
  0
ARC
  5
211B4
  8
0
 10
4455.2687396319715845
 20
276.2967690922599786
 30
0.0
 40
0.0863859957061631
 50
96.3718765970368167
 51
100.9813954456814002
  0
ARC
  5
211B5
  8
0
 10
4457.0340425831445827
 20
270.3583241130988881
 30
0.0
 40
0.0931389181570586
 50
13.3447276495227491
 51
22.5091583421026797
  0
ARC
  5
211B6
  8
0
 10
4456.8724759772057951
 20
270.2907226727944021
 30
0.0
 40
0.2682777157773455
 50
22.6370283744274303
 51
28.7991470757617591
  0
ARC
  5
211B7
  8
0
 10
4456.8152944753219344
 20
270.2551759765561883
 30
0.0
 40
0.3355302956044209
 50
29.4144838533213893
 51
42.5281903783961823
  0
ARC
  5
211B8
  8
0
 10
4454.4697643274957954
 20
268.0954635861847919
 30
0.0
 40
3.523925772332452
 50
42.6277132969313186
 51
44.2498601887738872
  0
ARC
  5
211B9
  8
0
 10
4457.3446935278943783
 20
270.8917130879771094
 30
0.0
 40
0.4865978976253687
 50
211.5591859336458072
 51
223.8813744876038072
  0
ARC
  5
211BA
  8
0
 10
4457.0934338622846553
 20
270.3719833597053253
 30
0.0
 40
0.0322012897520944
 50
355.2894729457041763
 51
14.0878393180073402
  0
ARC
  5
211BB
  8
0
 10
4457.113605960532368
 20
270.370227669023393
 30
0.0
 40
0.0119535096292644
 50
321.866170675533624
 51
355.7361819249724135
  0
ARC
  5
211BC
  8
0
 10
4457.236555266717005
 20
270.8217855108169942
 30
0.0
 40
0.3578671330995351
 50
197.6727594918237116
 51
211.080793392544507
  0
ARC
  5
211BD
  8
0
 10
4457.2185150309342134
 20
270.8151675664146865
 30
0.0
 40
0.3386702279313402
 50
183.937891283386989
 51
197.5325169829235961
  0
ARC
  5
211BE
  8
0
 10
4457.2933386728982441
 20
270.8201561488198195
 30
0.0
 40
0.4036584179181929
 50
178.4209458684580909
 51
184.0126632677782936
  0
ARC
  5
211BF
  8
0
 10
4457.2844909102159363
 20
270.8208183713762196
 30
0.0
 40
0.4161177340852115
 50
178.5594499980055048
 51
183.9837269178538861
  0
ARC
  5
211C0
  8
0
 10
4457.5315550855157198
 20
270.8132401214946867
 30
0.0
 40
0.6519717991460344
 50
175.7744382806739907
 51
178.4144883109624118
  0
ARC
  5
211C1
  8
0
 10
4482.0166952646686696
 20
268.9898589666506723
 30
0.0
 40
25.2162621044303812
 50
175.082839043231786
 51
175.7438906474235125
  0
ARC
  5
211C2
  8
0
 10
4467.593816807316216
 20
271.0111000657116733
 30
0.0
 40
10.6646989930059899
 50
172.7114951802265068
 51
176.8153575815233864
  0
ARC
  5
211C3
  8
0
 10
4421.9232909863194436
 20
276.7183090305265978
 30
0.0
 40
35.361103463904243
 50
352.9268740860475759
 51
354.5898477792741232
  0
ARC
  5
211C4
  8
0
 10
4440.4273427747875758
 20
275.0812613573268095
 30
0.0
 40
16.7855268038717504
 50
354.1976645044210272
 51
358.0954782980065261
  0
ARC
  5
211C5
  8
0
 10
4449.2045691829516727
 20
274.6626983621707723
 30
0.0
 40
8.0002406369454082
 50
359.0024020657754136
 51
5.8015621706302367
  0
ARC
  5
211C6
  8
0
 10
4445.4104859121043773
 20
274.3496942371331784
 30
0.0
 40
11.80675022157887
 50
5.4515857797119276
 51
8.8299619622723853
  0
ARC
  5
211C7
  8
0
 10
4456.9983444746330861
 20
276.3457127157101922
 30
0.0
 40
0.0499742703151118
 50
3.771103201092846
 51
28.8066095516768002
  0
ARC
  5
211C8
  8
0
 10
4457.018012576359979
 20
276.3526191470102162
 30
0.0
 40
0.0296109703964512
 50
35.4494640560951666
 51
79.3239901648674248
  0
ARC
  5
211C9
  8
0
 10
4457.0132254731843204
 20
276.3240005993811792
 30
0.0
 40
0.058624024368951
 50
79.9079562484228774
 51
89.4028335107801695
  0
ARC
  5
211CA
  8
0
 10
4444.2934665642387699
 20
275.0565381170865749
 30
0.0
 40
12.7845309338445006
 50
8.1126223964748032
 51
13.6348675643538808
  0
ARC
  5
211CB
  8
0
 10
4456.675866459120698
 20
278.066685573555219
 30
0.0
 40
0.04166533733467
 50
12.0710145858490705
 51
39.0926220538019891
  0
ARC
  5
211CC
  8
0
 10
4456.6891893872416404
 20
278.0773584445490201
 30
0.0
 40
0.0245952711990685
 50
39.3665941316245735
 51
82.8227834522608646
  0
ARC
  5
211CD
  8
0
 10
4456.6777374551129469
 20
277.9667556443714034
 30
0.0
 40
0.1357844484778823
 50
83.8593336250643944
 51
90.2836378091044196
  0
ARC
  5
211CE
  8
0
 10
4458.4354140092782472
 20
291.5823114566638878
 30
0.0
 40
13.6067421453575097
 50
257.9884617289250173
 51
260.2605505914202126
  0
ARC
  5
211CF
  8
0
 10
4457.1320584987788607
 20
282.9622184286349125
 30
0.0
 40
4.8934853679078936
 50
258.2266527444079998
 51
261.6474737753995896
  0
ARC
  5
211D0
  8
0
 10
4456.6622460657308693
 20
279.7421682996787808
 30
0.0
 40
1.6393463112454041
 50
261.5452110565702242
 51
269.4538182296964237
  0
ARC
  5
211D1
  8
0
 10
4454.5796032915686737
 20
273.9274069104886848
 30
0.0
 40
4.4651076722213343
 50
76.7404379529063618
 51
85.2675105447575845
  0
ARC
  5
211D2
  8
0
 10
4454.4764534074165567
 20
270.4300431681724035
 30
0.0
 40
7.9612254843465671
 50
86.6044259842008444
 51
91.3487732859724417
  0
ARC
  5
211D3
  8
0
 10
4454.7428046893601277
 20
268.4273090627136753
 30
0.0
 40
9.9720822245442449
 50
92.6079488272116578
 51
101.3042775640195998
  0
ARC
  5
211D4
  8
0
 10
4455.7583904398761661
 20
262.9234785887894077
 30
0.0
 40
15.5684341096648708
 50
100.9989112315322046
 51
104.2596408105783041
  0
ARC
  5
211D5
  8
0
 10
4451.9940163565815965
 20
277.785751225060892
 30
0.0
 40
0.2371747909301636
 50
107.2636605727314958
 51
115.4769111120617993
  0
ARC
  5
211D6
  8
0
 10
4451.9194424621919097
 20
277.9382364272443056
 30
0.0
 40
0.0674619008455745
 50
114.0064931586233001
 51
138.1659146374927047
  0
ARC
  5
211D7
  8
0
 10
4451.8968437910370994
 20
277.9584746489226177
 30
0.0
 40
0.0371256933990993
 50
138.1756580032761974
 51
164.6325416498121967
  0
ARC
  5
211D8
  8
0
 10
4450.939905871391602
 20
278.2037809066757745
 30
0.0
 40
0.9507592742587293
 50
340.780457660377408
 51
345.6607526880608248
  0
ARC
  5
211D9
  8
0
 10
4451.8677765941802136
 20
277.8768442641974161
 30
0.0
 40
0.0331811592041814
 50
155.1248514689376066
 51
177.6687168807339958
  0
ARC
  5
211DA
  8
0
 10
4452.7605386014320175
 20
277.8573225291186191
 30
0.0
 40
0.9261509098307522
 50
178.7086903515715903
 51
182.5776652094758958
  0
ARC
  5
211DB
  8
0
 10
4453.6387566230678203
 20
277.8961747818879076
 30
0.0
 40
1.805227784332577
 50
182.555966693000812
 51
185.9206321849650863
  0
ARC
  5
211DC
  8
0
 10
4451.9051005877199714
 20
277.7141204032388941
 30
0.0
 40
0.062081467270496
 50
183.8386543673765061
 51
201.6987897933680074
  0
ARC
  5
211DD
  8
0
 10
4451.8707901081888849
 20
277.7008189891424195
 30
0.0
 40
0.0252864312727814
 50
202.4389212538144136
 51
244.1315894029492881
  0
ARC
  5
211DE
  8
0
 10
4451.8731132798911858
 20
277.7092577643766731
 30
0.0
 40
0.0339305863666897
 50
246.8200102751368945
 51
275.3247063943775856
  0
ARC
  5
211DF
  8
0
 10
4451.8665259407098347
 20
277.78233457753322
 30
0.0
 40
0.1073035922242093
 50
275.2058411516165961
 51
283.6168295045300169
  0
ARC
  5
211E0
  8
0
 10
4357.9602590216272802
 20
720.9050741397211368
 30
0.0
 40
453.0709984960226961
 50
281.9654533072214804
 51
282.0217175503981935
  0
ARC
  5
211E1
  8
0
 10
4455.0207959259432755
 20
265.5905864537309071
 30
0.0
 40
12.4742499893803096
 50
96.8284307116284424
 51
102.4712278533853009
  0
ARC
  5
211E2
  8
0
 10
4454.3205589482486175
 20
270.8330958449251966
 30
0.0
 40
7.1860320344198314
 50
93.6535402729968638
 51
96.2547242423045901
  0
ARC
  5
211E3
  8
0
 10
4454.0741215620655566
 20
275.9962229479049256
 30
0.0
 40
2.0163741889218572
 50
85.159101929815705
 51
91.9221642150062763
  0
ARC
  5
211E4
  8
0
 10
4454.2992600323086663
 20
277.1540746729859279
 30
0.0
 40
0.8275551532170634
 50
41.3932491682060402
 51
76.7396097025768427
  0
ARC
  5
211E5
  8
0
 10
4453.7857950834722942
 20
276.7293564512269768
 30
0.0
 40
1.4937307290866491
 50
27.6874376298854799
 51
40.5916989366075711
  0
ARC
  5
211E6
  8
0
 10
4451.5539280561069972
 20
276.0800740763443173
 30
0.0
 40
3.8176588218886991
 50
16.9775388972496302
 51
18.0756560964336792
  0
ARC
  5
211E7
  8
0
 10
4454.8223558017325558
 20
277.0521625032229736
 30
0.0
 40
0.4187080792487529
 50
21.3997963189323812
 51
32.9905265675989696
  0
ARC
  5
211E8
  8
0
 10
4454.8525088648630117
 20
277.0670018397851209
 30
0.0
 40
0.3855071802983566
 50
357.0761236450015872
 51
8.1028662793642106
  0
ARC
  5
211E9
  8
0
 10
4454.9554113313997732
 20
277.0594024068676049
 30
0.0
 40
0.2823607341304672
 50
351.2379004370384905
 51
357.5510714910794832
  0
ARC
  5
211EA
  8
0
 10
4453.5791682453000249
 20
276.7426115421695272
 30
0.0
 40
1.677796392704761
 50
350.4831483769697797
 51
9.3913655979639774
  0
LINE
  5
211EC
  8
0
 10
4456.871352664036749
 20
270.8797319825454224
 30
0.0
 11
4455.3881546121747306
 21
270.8797319825454224
 31
0.0
  0
LINE
  5
211ED
  8
0
 10
4455.2591524163963186
 20
276.3826214396456749
 30
0.0
 11
4457.0138364722706683
 21
276.3826214396459022
 31
0.0
  0
ENDSEC
  0
EOF
