  0
SECTION
  2
HEADER
  9
$ACADVER
  1
AC1009
  9
$INSBASE
 10
4462.2814843372179894
 20
274.5494749360851188
 30
0.0
  9
$EXTMIN
 10
4461.2022276403549768
 20
270.2523728596851242
 30
0.0
  9
$EXTMAX
 10
4463.360741186260384
 20
276.2605471541850761
 30
0.0
  9
$LIMMIN
 10
0.0
 20
0.0
  9
$LIMMAX
 10
11.6929133858000007
 20
8.2677165353999982
  9
$ORTHOMODE
 70
     0
  9
$REGENMODE
 70
     1
  9
$FILLMODE
 70
     1
  9
$QTEXTMODE
 70
     0
  9
$MIRRTEXT
 70
     0
  9
$DRAGMODE
 70
     2
  9
$LTSCALE
 40
0.6431102362
  9
$OSMODE
 70
   695
  9
$ATTMODE
 70
     1
  9
$TEXTSIZE
 40
0.2
  9
$TRACEWID
 40
0.05
  9
$TEXTSTYLE
  7
STANDARD
  9
$CLAYER
  8
0
  9
$CELTYPE
  6
BYLAYER
  9
$CECOLOR
 62
   256
  9
$DIMSCALE
 40
1.0
  9
$DIMASZ
 40
0.1875
  9
$DIMEXO
 40
0.0625
  9
$DIMDLI
 40
0.4443307087
  9
$DIMRND
 40
0.0
  9
$DIMDLE
 40
0.0
  9
$DIMEXE
 40
0.125
  9
$DIMTP
 40
0.01
  9
$DIMTM
 40
0.01
  9
$DIMTXT
 40
2.0
  9
$DIMCEN
 40
0.1052362205
  9
$DIMTSZ
 40
0.0
  9
$DIMTOL
 70
     1
  9
$DIMLIM
 70
     0
  9
$DIMTIH
 70
     1
  9
$DIMTOH
 70
     1
  9
$DIMSE1
 70
     0
  9
$DIMSE2
 70
     0
  9
$DIMTAD
 70
     0
  9
$DIMZIN
 70
     0
  9
$DIMBLK
  1

  9
$DIMASO
 70
     1
  9
$DIMSHO
 70
     1
  9
$DIMPOST
  1
\X
  9
$DIMAPOST
  1

  9
$DIMALT
 70
     1
  9
$DIMALTD
 70
     2
  9
$DIMALTF
 40
25.3999999999999986
  9
$DIMLFAC
 40
1.0
  9
$DIMTOFL
 70
     0
  9
$DIMTVP
 40
0.0
  9
$DIMTIX
 70
     0
  9
$DIMSOXD
 70
     0
  9
$DIMSAH
 70
     0
  9
$DIMBLK1
  1

  9
$DIMBLK2
  1

  9
$DIMSTYLE
  2
STANDARD
  9
$DIMCLRD
 70
     0
  9
$DIMCLRE
 70
     0
  9
$DIMCLRT
 70
     0
  9
$DIMTFAC
 40
1.0
  9
$DIMGAP
 40
0.09
  9
$LUNITS
 70
     2
  9
$LUPREC
 70
     4
  9
$SKETCHINC
 40
0.1
  9
$FILLETRAD
 40
0.0
  9
$AUNITS
 70
     0
  9
$AUPREC
 70
     0
  9
$MENU
  1
.
  9
$ELEVATION
 40
0.0
  9
$PELEVATION
 40
0.0
  9
$THICKNESS
 40
0.0
  9
$LIMCHECK
 70
     0
  9
$BLIPMODE
 70
     0
  9
$CHAMFERA
 40
0.0
  9
$CHAMFERB
 40
0.0
  9
$SKPOLY
 70
     0
  9
$TDCREATE
 40
2458060.468368056230247
  9
$TDUPDATE
 40
2459358.1125231478363276
  9
$TDINDWG
 40
0.522483912
  9
$TDUSRTIMER
 40
0.522483912
  9
$USRTIMER
 70
     1
  9
$ANGBASE
 50
0.0
  9
$ANGDIR
 70
     0
  9
$PDMODE
 70
     0
  9
$PDSIZE
 40
0.3125
  9
$PLINEWID
 40
0.0
  9
$COORDS
 70
     1
  9
$SPLFRAME
 70
     0
  9
$SPLINETYPE
 70
     6
  9
$SPLINESEGS
 70
     8
  9
$ATTDIA
 70
     1
  9
$ATTREQ
 70
     1
  9
$HANDLING
 70
     1
  9
$HANDSEED
  5
2125F
  9
$SURFTAB1
 70
     6
  9
$SURFTAB2
 70
     6
  9
$SURFTYPE
 70
     6
  9
$SURFU
 70
     6
  9
$SURFV
 70
     6
  9
$UCSNAME
  2

  9
$UCSORG
 10
0.0
 20
0.0
 30
0.0
  9
$UCSXDIR
 10
1.0
 20
0.0
 30
0.0
  9
$UCSYDIR
 10
0.0
 20
1.0
 30
0.0
  9
$PUCSNAME
  2

  9
$PUCSORG
 10
0.0
 20
0.0
 30
0.0
  9
$PUCSXDIR
 10
1.0
 20
0.0
 30
0.0
  9
$PUCSYDIR
 10
0.0
 20
1.0
 30
0.0
  9
$USERI1
 70
     0
  9
$USERI2
 70
     0
  9
$USERI3
 70
     0
  9
$USERI4
 70
     0
  9
$USERI5
 70
     0
  9
$USERR1
 40
0.0
  9
$USERR2
 40
0.0
  9
$USERR3
 40
0.0
  9
$USERR4
 40
0.0
  9
$USERR5
 40
0.0
  9
$WORLDVIEW
 70
     1
  9
$SHADEDGE
 70
     3
  9
$SHADEDIF
 70
    70
  9
$TILEMODE
 70
     1
  9
$MAXACTVP
 70
    64
  9
$PLIMCHECK
 70
     0
  9
$PEXTMIN
 10
1.0000000000000000E+20
 20
1.0000000000000000E+20
 30
1.0000000000000000E+20
  9
$PEXTMAX
 10
-1.0000000000000000E+20
 20
-1.0000000000000000E+20
 30
-1.0000000000000000E+20
  9
$PLIMMIN
 10
0.0
 20
0.0
  9
$PLIMMAX
 10
12.0
 20
9.0
  9
$UNITMODE
 70
     0
  9
$VISRETAIN
 70
     1
  9
$PLINEGEN
 70
     0
  9
$PSLTSCALE
 70
     1
  0
ENDSEC
  0
SECTION
  2
TABLES
  0
TABLE
  2
VPORT
 70
     1
  0
VPORT
  2
*ACTIVE
 70
     0
 10
0.0
 20
0.0
 11
1.0
 21
1.0
 12
550.9161279087296634
 22
140.6768548869482061
 13
0.0
 23
0.0
 14
1.0
 24
1.0
 15
0.0
 25
0.0
 16
0.0
 26
0.0
 36
60.4960186965801583
 17
3911.3653564453120453
 27
132.5796051025390057
 37
0.0
 40
9.4022538872448251
 41
2.3233532934131729
 42
50.0
 43
0.0
 44
0.0
 50
0.0
 51
0.0
 71
     0
 72
   100
 73
     1
 74
     1
 75
     0
 76
     0
 77
     0
 78
     0
  0
ENDTAB
  0
TABLE
  2
LTYPE
 70
     2
  0
LTYPE
  2
CONTINUOUS
 70
     0
  3
Solid line
 72
    65
 73
     0
 40
0.0
  0
LTYPE
  2
PHANTOM2
 70
     0
  3
___ _ _ ___ _ _ ___ _ _ ___ _ _
 72
    65
 73
     6
 40
1.25
 49
0.625
 49
-0.125
 49
0.125
 49
-0.125
 49
0.125
 49
-0.125
  0
ENDTAB
  0
TABLE
  2
LAYER
 70
     2
  0
LAYER
  2
0
 70
     0
 62
   255
  6
CONTINUOUS
  0
LAYER
  2
DEFPOINTS
 70
     0
 62
     7
  6
CONTINUOUS
  0
ENDTAB
  0
TABLE
  2
STYLE
 70
     1
  0
STYLE
  2
STANDARD
 70
     0
 40
0.0
 41
0.8
 50
0.0
 71
     0
 42
0.2
  3
txt
  4

  0
ENDTAB
  0
TABLE
  2
VIEW
 70
     0
  0
ENDTAB
  0
TABLE
  2
UCS
 70
     0
  0
ENDTAB
  0
TABLE
  2
APPID
 70
    11
  0
APPID
  2
ACAD
 70
     0
  0
APPID
  2
ACAD_MLEADERVER
 70
     0
  0
APPID
  2
ACAD_EXEMPT_FROM_CAD_STANDARDS
 70
     0
  0
APPID
  2
ACAD_NAV_VCDISPLAY
 70
     0
  0
APPID
  2
ACAECLAYERSTANDARD
 70
     0
  0
APPID
  2
ACCMTRANSPARENCY
 70
     0
  0
APPID
  2
ACAD_DSTYLE_DIMJAG
 70
     0
  0
APPID
  2
ACAD_DSTYLE_DIMTALN
 70
     0
  0
APPID
  2
ACDBATTR
 70
     0
  0
APPID
  2
ACADANNOTATIVE
 70
     0
  0
APPID
  2
DCO15
 70
     0
  0
ENDTAB
  0
TABLE
  2
DIMSTYLE
 70
     1
  0
DIMSTYLE
  2
STANDARD
 70
     0
  3

  4

  5

  6

  7

 40
1.0
 41
0.1875
 42
0.0625
 43
0.38
 44
0.125
 45
0.0
 46
0.0
 47
0.01
 48
0.01
140
0.15625
141
0.09
142
0.0
143
25.3999999999999986
144
1.0
145
0.0
146
1.0
147
0.09
 71
     1
 72
     0
 73
     1
 74
     1
 75
     0
 76
     0
 77
     0
 78
     4
170
     0
171
     2
172
     0
173
     0
174
     0
175
     0
176
     0
177
     0
178
     0
  0
ENDTAB
  0
ENDSEC
  0
SECTION
  2
BLOCKS
  0
BLOCK
  8
0
  2
$MODEL_SPACE
 70
     0
 10
0.0
 20
0.0
 30
0.0
  3
$MODEL_SPACE
  1

  0
ENDBLK
  5
21
  8
0
  0
BLOCK
 67
     1
  8
0
  2
$PAPER_SPACE
 70
     0
 10
0.0
 20
0.0
 30
0.0
  3
$PAPER_SPACE
  1

  0
ENDBLK
  5
1D
 67
     1
  8
0
  0
ENDSEC
  0
SECTION
  2
ENTITIES
  0
ATTDEF
  5
20106
  8
DEFPOINTS
 10
4462.2815405508908952
 20
274.5484542623934203
 30
0.0
 40
0.001
  1
K-19480T
  3

  2
MODELNUMBER
 70
     0
1001
ACDBATTR
1070
     0
1070
     1
  0
ATTDEF
  5
20107
  8
DEFPOINTS
 10
4462.2814147412345847
 20
274.5467874220142903
 30
0.0
 40
0.001
  1
SYMBOL
  3

  2
TRADENAME
 70
     0
1001
ACDBATTR
1070
     0
1070
     1
  0
ATTDEF
  5
20108
  8
DEFPOINTS
 10
4462.2815405508908952
 20
274.5451209290599763
 30
0.0
 40
0.001
  1
BATHROOM SINK FAUCET
  3

  2
PRODUCT
 70
     0
1001
ACDBATTR
1070
     0
1070
     1
  0
LINE
  5
21106
  8
0
 10
4461.8260688842401578
 20
270.2785400258850927
 30
0.0
 11
4461.9481728178398043
 21
270.2669618548850963
 31
0.0
  0
LINE
  5
21107
  8
0
 10
4461.6604668245399807
 20
273.0275138652851865
 30
0.0
 11
4461.6905471198851956
 21
272.8868433217484721
 31
0.0
  0
LINE
  5
21108
  8
0
 10
4461.7304126804410771
 20
271.6197612872850868
 30
0.0
 11
4461.7424813748402812
 21
271.2117550445851748
 31
0.0
  0
LINE
  5
21109
  8
0
 10
4462.1636248426711973
 20
275.6168635886253924
 30
0.0
 11
4462.1636244974388319
 21
276.2605471541850761
 31
0.0
  0
LINE
  5
2110A
  8
0
 10
4462.3993430623404493
 20
276.2605471541850761
 30
0.0
 11
4462.3993430590044227
 21
275.61686367399858
 31
0.0
  0
LINE
  5
2110B
  8
0
 10
4462.3993430623404493
 20
276.2605471541850761
 30
0.0
 11
4462.1636244974388319
 21
276.2605471541850761
 31
0.0
  0
ARC
  5
2110C
  8
0
 10
4452.8146426036400953
 20
275.7617078066850809
 30
0.0
 40
9.3489823439999995
 50
359.7125055977992929
 51
359.9887048437361159
  0
ARC
  5
2110D
  8
0
 10
4462.5150873513830447
 20
274.782313888660326
 30
0.0
 40
1.221092041406002
 50
217.1079085278774983
 51
222.7836875225239055
  0
ARC
  5
2110E
  8
0
 10
4462.3922833855403951
 20
274.6615354729851788
 30
0.0
 40
1.0489397786000001
 50
212.1220133844257134
 51
222.4980288700834024
  0
ARC
  5
2110F
  8
0
 10
4462.2861741956048718
 20
274.3927745013587014
 30
0.0
 40
0.7429937020232305
 50
90.3616538282977757
 51
119.8196064322065979
  0
ARC
  5
21110
  8
0
 10
4462.2617345589451361
 20
274.4172329781687267
 30
0.0
 40
0.7096781164247675
 50
119.0896443143498971
 51
142.1150473676028128
  0
ARC
  5
21111
  8
0
 10
4462.2032863582226128
 20
274.4553179791233219
 30
0.0
 40
0.6401875616533933
 50
141.5929654142967991
 51
167.9009597706831869
  0
ARC
  5
21112
  8
0
 10
4462.2495822805467469
 20
274.4688893660375015
 30
0.0
 40
0.682996994909317
 50
169.8285545618510923
 51
187.3673852859110127
  0
ARC
  5
21113
  8
0
 10
4463.9810824623582448
 20
274.7037276667664969
 30
0.0
 40
2.430340326146712
 50
187.6235875268365021
 51
190.9555662533711029
  0
ARC
  5
21114
  8
0
 10
4458.3568418599297729
 20
273.5978424248564238
 30
0.0
 40
3.301611669675979
 50
8.6900860934226891
 51
11.2480932917826095
  0
ARC
  5
21115
  8
0
 10
4459.4525707626689837
 20
273.744597402491479
 30
0.0
 40
2.1963840226118552
 50
359.4437184083391799
 51
9.2244270488773648
  0
ARC
  5
21116
  8
0
 10
4462.2790473450450008
 20
274.4298869789865876
 30
0.0
 40
0.9382267529302142
 50
89.8511707228091581
 51
109.3099221728006967
  0
ARC
  5
21117
  8
0
 10
4462.2496283842865523
 20
274.5076624005386066
 30
0.0
 40
0.8551009368445374
 50
109.1728738996199013
 51
139.6834513115665004
  0
ARC
  5
21118
  8
0
 10
4462.2720072064021224
 20
274.4970910670393209
 30
0.0
 40
0.8790275696517399
 50
140.1018429596018962
 51
167.0666141052010119
  0
ARC
  5
21119
  8
0
 10
4462.1388974242108816
 20
274.5042224801284192
 30
0.0
 40
0.7480473416891569
 50
165.3167961426609907
 51
185.9953758178743044
  0
ARC
  5
2111A
  8
0
 10
4462.1661622470574002
 20
274.5061942536506194
 30
0.0
 40
0.775369490187781
 50
185.9298478800035923
 51
206.2982871281097061
  0
ARC
  5
2111B
  8
0
 10
4462.1933525928925519
 20
274.527319269605016
 30
0.0
 40
0.8091342992401332
 50
206.7863267113291954
 51
216.4510940604064047
  0
ARC
  5
2111C
  8
0
 10
4462.2823580204685641
 20
274.5237393437204787
 30
0.0
 40
0.9425257608527717
 50
90.0531036460706957
 51
108.4489253067143011
  0
ARC
  5
2111D
  8
0
 10
4462.2687350545766094
 20
274.5640216534940805
 30
0.0
 40
0.9000026193471015
 50
108.4377766962436027
 51
130.3616026211068117
  0
ARC
  5
2111E
  8
0
 10
4462.2194891359631583
 20
274.6108716048531164
 30
0.0
 40
0.832443121603254
 50
129.8671627031260982
 51
153.4110262245364993
  0
ARC
  5
2111F
  8
0
 10
4462.2946125785401819
 20
274.5629349947050741
 30
0.0
 40
0.9211237131444551
 50
152.8361094257666082
 51
169.8843651711814005
  0
ARC
  5
21120
  8
0
 10
4462.3598968120832069
 20
274.5504775120153909
 30
0.0
 40
0.9875814188454149
 50
169.8380905734715896
 51
184.5532032264167128
  0
ARC
  5
21121
  8
0
 10
4462.1906876942266535
 20
274.5357832327259757
 30
0.0
 40
0.8177407177071376
 50
184.4680536003361055
 51
198.2235405018357142
  0
ARC
  5
21122
  8
0
 10
4462.1511928327117857
 20
274.5285800239610126
 30
0.0
 40
0.7779936553590892
 50
198.6292658533164115
 51
218.3740682500975083
  0
ARC
  5
21123
  8
0
 10
4462.2868296706756155
 20
274.5014044315686874
 30
0.0
 40
1.1222426478732379
 50
90.272898397396574
 51
117.2141996481737038
  0
ARC
  5
21124
  8
0
 10
4462.2780682169050124
 20
274.5521010100013086
 30
0.0
 40
1.0732616411922009
 50
118.0359729057396976
 51
160.7824487280932999
  0
ARC
  5
21125
  8
0
 10
4462.2627952010670924
 20
274.5469897426945067
 30
0.0
 40
1.0605678848226361
 50
160.2501107205322057
 51
199.8394762264478004
  0
ARC
  5
21126
  8
0
 10
4473.9201333029868692
 20
278.8596438242392992
 30
0.0
 40
13.4900379130217303
 50
200.2656819344674091
 51
202.6100114774287135
  0
ARC
  5
21127
  8
0
 10
4456.8385262688743751
 20
271.9527980174440245
 30
0.0
 40
4.937812124578266
 50
15.8381373041921503
 51
20.3916806651309095
  0
ARC
  5
21128
  8
0
 10
4456.7006859334751425
 20
271.8724234686217187
 30
0.0
 40
5.0925102171569208
 50
13.1100073370406598
 51
16.2848486230230591
  0
ARC
  5
21129
  8
0
 10
4457.8626715186783258
 20
273.3462056853769013
 30
0.0
 40
3.804909587279631
 50
5.687361062126584
 51
9.1751280305507574
  0
ARC
  5
2112A
  8
0
 10
4453.2116759164973701
 20
272.8834275460631034
 30
0.0
 40
8.4788718914227026
 50
0.0230820253378362
 51
5.6845586033096058
  0
ARC
  5
2112B
  8
0
 10
4524.8635944772759103
 20
274.240256775451428
 30
0.0
 40
63.1875433957971993
 50
181.2273116684405068
 51
182.3768356171603102
  0
ARC
  5
2112C
  8
0
 10
4425.4816149425878393
 20
270.2133163613610805
 30
0.0
 40
36.2746097735277218
 50
0.2082806086958485
 51
1.5772340124252411
  0
ARC
  5
2112D
  8
0
 10
4461.8131696947102682
 20
270.3389485917734874
 30
0.0
 40
0.0575232676015507
 50
173.7801358752633973
 51
252.0317101345050048
  0
ARC
  5
2112E
  8
0
 10
4461.8353552736562051
 20
270.4139001839989191
 30
0.0
 40
0.1356783307421525
 50
252.8840649207238869
 51
266.0753701843653971
  0
ARC
  5
2112F
  8
0
 10
4462.2759022983536852
 20
273.9396829440019019
 30
0.0
 40
3.687314308658856
 50
264.9008070428199062
 51
270.0867285600427863
  0
ARC
  5
21130
  8
0
 10
4462.2767944382840142
 20
274.3927745025753211
 30
0.0
 40
0.7429937020232305
 50
88.840812534995294
 51
89.6383313093142817
  0
LINE
  5
21131
  8
0
 10
4462.736899942375203
 20
270.2785400258850927
 30
0.0
 11
4462.6147960087746469
 21
270.2669618548850963
 31
0.0
  0
LINE
  5
21132
  8
0
 10
4462.9025020020762895
 20
273.0275138652851865
 30
0.0
 11
4462.8724217067292557
 21
272.8868433217484721
 31
0.0
  0
LINE
  5
21133
  8
0
 10
4462.8325561461751931
 20
271.6197612872850868
 30
0.0
 11
4462.82048745177417
 21
271.2117550445851748
 31
0.0
  0
ARC
  5
21134
  8
0
 10
4462.047881475232316
 20
274.782313888660326
 30
0.0
 40
1.221092041406002
 50
317.2163124774760945
 51
322.892091472122388
  0
ARC
  5
21135
  8
0
 10
4462.1706854410749656
 20
274.6615354729851788
 30
0.0
 40
1.0489397786000001
 50
317.5019711299166261
 51
327.8779866155742866
  0
ARC
  5
21136
  8
0
 10
4462.2767946310095795
 20
274.3927745013587014
 30
0.0
 40
0.7429937020232305
 50
60.1803935677934092
 51
89.6383461717021959
  0
ARC
  5
21137
  8
0
 10
4462.3012342676693152
 20
274.4172329781687267
 30
0.0
 40
0.7096781164247675
 50
37.8849526323971375
 51
60.9103556856500816
  0
ARC
  5
21138
  8
0
 10
4462.3596824683918385
 20
274.4553179791233219
 30
0.0
 40
0.6401875616533933
 50
12.09904022931679
 51
38.4070345857031725
  0
ARC
  5
21139
  8
0
 10
4462.3133865460677043
 20
274.4688893660375015
 30
0.0
 40
0.682996994909317
 50
352.6326147140890157
 51
10.1714454381488402
  0
ARC
  5
2113A
  8
0
 10
4460.5818863642571159
 20
274.7037276667664969
 30
0.0
 40
2.430340326146712
 50
349.0444337466287834
 51
352.3764124731633842
  0
ARC
  5
2113B
  8
0
 10
4466.2061269666846783
 20
273.5978424248564238
 30
0.0
 40
3.301611669675979
 50
168.7519067082174047
 51
171.3099139065772931
  0
ARC
  5
2113C
  8
0
 10
4465.1103980639463771
 20
273.744597402491479
 30
0.0
 40
2.1963840226118552
 50
170.7755729511225979
 51
180.5562815916607917
  0
ARC
  5
2113D
  8
0
 10
4462.2839214815703599
 20
274.4298869789865876
 30
0.0
 40
0.9382267529302142
 50
70.6900778271992607
 51
90.1488292771908561
  0
ARC
  5
2113E
  8
0
 10
4462.3133404423269894
 20
274.5076624005386066
 30
0.0
 40
0.8551009368445374
 50
40.3165486884334499
 51
70.8271261003800987
  0
ARC
  5
2113F
  8
0
 10
4462.2909616202132383
 20
274.4970910670393209
 30
0.0
 40
0.8790275696517399
 50
12.9333858947990006
 51
39.8981570403980115
  0
ARC
  5
21140
  8
0
 10
4462.4240714024026602
 20
274.5042224801284192
 30
0.0
 40
0.7480473416891569
 50
354.004624182125724
 51
14.6832038573389507
  0
ARC
  5
21141
  8
0
 10
4462.396806579557051
 20
274.5061942536506194
 30
0.0
 40
0.775369490187781
 50
333.7017128718903223
 51
354.070152119996294
  0
ARC
  5
21142
  8
0
 10
4462.3696162337209898
 20
274.527319269605016
 30
0.0
 40
0.8091342992401332
 50
323.5489059395936238
 51
333.2136732886708046
  0
ARC
  5
21143
  8
0
 10
4462.2806108061449777
 20
274.5237393437204787
 30
0.0
 40
0.9425257608527717
 50
71.5510746932857415
 51
89.9468963539293185
  0
ARC
  5
21144
  8
0
 10
4462.2942337720369324
 20
274.5640216534940805
 30
0.0
 40
0.9000026193471015
 50
49.6383973788931883
 51
71.5622233037564257
  0
ARC
  5
21145
  8
0
 10
4462.3434796906531119
 20
274.6108716048531164
 30
0.0
 40
0.832443121603254
 50
26.5889737754635398
 51
50.1328372968738591
  0
ARC
  5
21146
  8
0
 10
4462.2683562480751789
 20
274.5629349947050741
 30
0.0
 40
0.9211237131444551
 50
10.1156348288185693
 51
27.1638905742334096
  0
ARC
  5
21147
  8
0
 10
4462.2030720145321538
 20
274.5504775120153909
 30
0.0
 40
0.9875814188454149
 50
355.4467967735831735
 51
10.1619094265283891
  0
ARC
  5
21148
  8
0
 10
4462.3722811323868882
 20
274.5357832327259757
 30
0.0
 40
0.8177407177071376
 50
341.7764594981641721
 51
355.5319463996639229
  0
ARC
  5
21149
  8
0
 10
4462.411775993901756
 20
274.5285800239610126
 30
0.0
 40
0.7779936553590892
 50
321.6259317499025201
 51
341.3707341466836169
  0
ARC
  5
2114A
  8
0
 10
4462.2761391559379263
 20
274.5014044315686874
 30
0.0
 40
1.1222426478732379
 50
62.7858003518263104
 51
89.727101602603426
  0
ARC
  5
2114B
  8
0
 10
4462.2849006097103484
 20
274.5521010100013086
 30
0.0
 40
1.0732616411922009
 50
19.2175512719066504
 51
61.9640270942602527
  0
ARC
  5
2114C
  8
0
 10
4462.3001736255482683
 20
274.5469897426945067
 30
0.0
 40
1.0605678848226361
 50
340.1605237735523133
 51
19.7498892794678085
  0
ARC
  5
2114D
  8
0
 10
4450.6428355236266725
 20
278.8596438242392992
 30
0.0
 40
13.4900379130217303
 50
337.3899885225712865
 51
339.7343180655325909
  0
ARC
  5
2114E
  8
0
 10
4467.7244425577409856
 20
271.9527980174440245
 30
0.0
 40
4.937812124578266
 50
159.6083193348690941
 51
164.1618626958077982
  0
ARC
  5
2114F
  8
0
 10
4467.8622828931411277
 20
271.8724234686217187
 30
0.0
 40
5.0925102171569208
 50
163.7151513769769053
 51
166.8899926629592869
  0
ARC
  5
21150
  8
0
 10
4466.7002973079361254
 20
273.3462056853769013
 30
0.0
 40
3.804909587279631
 50
170.8248719694491911
 51
174.3126389378734018
  0
ARC
  5
21151
  8
0
 10
4471.3512929101170812
 20
272.8834275460631034
 30
0.0
 40
8.4788718914227026
 50
174.3154413966904031
 51
179.9769179746620864
  0
ARC
  5
21152
  8
0
 10
4399.6993743493394504
 20
274.240256775451428
 30
0.0
 40
63.1875433957971993
 50
357.6231643828397182
 51
358.7726883315593795
  0
ARC
  5
21153
  8
0
 10
4499.0813538840257024
 20
270.2133163613610805
 30
0.0
 40
36.2746097735277218
 50
178.4227659875747065
 51
179.791719391304099
  0
ARC
  5
21154
  8
0
 10
4462.7497991319050925
 20
270.3389485917734874
 30
0.0
 40
0.0575232676015507
 50
287.9682898654950236
 51
6.219864124736624
  0
ARC
  5
21155
  8
0
 10
4462.7276135529591556
 20
270.4139001839989191
 30
0.0
 40
0.1356783307421525
 50
273.9246298156346029
 51
287.1159350792760847
  0
ARC
  5
21156
  8
0
 10
4462.2870665282607661
 20
273.9396829440019019
 30
0.0
 40
3.687314308658856
 50
269.9132714399571
 51
275.0991929571799801
  0
ARC
  5
21157
  8
0
 10
4462.2861743883313466
 20
274.3927745025753211
 30
0.0
 40
0.7429937020232305
 50
90.3616686906857041
 51
91.1591874650047203
  0
ENDSEC
  0
EOF
