  0
SECTION
  2
HEADER
  9
$ACADVER
  1
AC1009
  9
$INSBASE
 10
4435.0937998633016832
 20
19.7292919440507504
 30
0.0
  9
$EXTMIN
 10
4407.2765348405146142
 20
19.726765354620369
 30
-0.0000000000112498
  9
$EXTMAX
 10
4435.1226962743930926
 20
50.0782558971166267
 30
0.0000000000002956
  9
$LIMMIN
 10
0.0
 20
0.0
  9
$LIMMAX
 10
11.6929133858000007
 20
8.2677165353999982
  9
$ORTHOMODE
 70
     0
  9
$REGENMODE
 70
     1
  9
$FILLMODE
 70
     1
  9
$QTEXTMODE
 70
     0
  9
$MIRRTEXT
 70
     0
  9
$DRAGMODE
 70
     2
  9
$LTSCALE
 40
0.6431102362
  9
$OSMODE
 70
  4095
  9
$ATTMODE
 70
     1
  9
$TEXTSIZE
 40
0.2
  9
$TRACEWID
 40
0.05
  9
$TEXTSTYLE
  7
STANDARD
  9
$CLAYER
  8
0
  9
$CELTYPE
  6
BYLAYER
  9
$CECOLOR
 62
   256
  9
$DIMSCALE
 40
1.0
  9
$DIMASZ
 40
0.1875
  9
$DIMEXO
 40
0.0625
  9
$DIMDLI
 40
0.4443307087
  9
$DIMRND
 40
0.0
  9
$DIMDLE
 40
0.0
  9
$DIMEXE
 40
0.125
  9
$DIMTP
 40
0.01
  9
$DIMTM
 40
0.01
  9
$DIMTXT
 40
2.0
  9
$DIMCEN
 40
0.1052362205
  9
$DIMTSZ
 40
0.0
  9
$DIMTOL
 70
     1
  9
$DIMLIM
 70
     0
  9
$DIMTIH
 70
     1
  9
$DIMTOH
 70
     1
  9
$DIMSE1
 70
     0
  9
$DIMSE2
 70
     0
  9
$DIMTAD
 70
     0
  9
$DIMZIN
 70
     0
  9
$DIMBLK
  1

  9
$DIMASO
 70
     1
  9
$DIMSHO
 70
     1
  9
$DIMPOST
  1
\X
  9
$DIMAPOST
  1

  9
$DIMALT
 70
     1
  9
$DIMALTD
 70
     2
  9
$DIMALTF
 40
25.3999999999999986
  9
$DIMLFAC
 40
1.0
  9
$DIMTOFL
 70
     0
  9
$DIMTVP
 40
0.0
  9
$DIMTIX
 70
     0
  9
$DIMSOXD
 70
     0
  9
$DIMSAH
 70
     0
  9
$DIMBLK1
  1

  9
$DIMBLK2
  1

  9
$DIMSTYLE
  2
STANDARD
  9
$DIMCLRD
 70
     0
  9
$DIMCLRE
 70
     0
  9
$DIMCLRT
 70
     0
  9
$DIMTFAC
 40
1.0
  9
$DIMGAP
 40
0.09
  9
$LUNITS
 70
     2
  9
$LUPREC
 70
     4
  9
$SKETCHINC
 40
0.1
  9
$FILLETRAD
 40
0.0
  9
$AUNITS
 70
     0
  9
$AUPREC
 70
     0
  9
$MENU
  1
.
  9
$ELEVATION
 40
0.0
  9
$PELEVATION
 40
0.0
  9
$THICKNESS
 40
0.0
  9
$LIMCHECK
 70
     0
  9
$BLIPMODE
 70
     0
  9
$CHAMFERA
 40
0.0
  9
$CHAMFERB
 40
0.0
  9
$SKPOLY
 70
     0
  9
$TDCREATE
 40
2458060.468368056230247
  9
$TDUPDATE
 40
2459161.6673611109144986
  9
$TDINDWG
 40
0.4391042824
  9
$TDUSRTIMER
 40
0.4391042824
  9
$USRTIMER
 70
     1
  9
$ANGBASE
 50
0.0
  9
$ANGDIR
 70
     0
  9
$PDMODE
 70
     0
  9
$PDSIZE
 40
0.3125
  9
$PLINEWID
 40
0.0
  9
$COORDS
 70
     1
  9
$SPLFRAME
 70
     0
  9
$SPLINETYPE
 70
     6
  9
$SPLINESEGS
 70
     8
  9
$ATTDIA
 70
     1
  9
$ATTREQ
 70
     1
  9
$HANDLING
 70
     1
  9
$HANDSEED
  5
1247B
  9
$SURFTAB1
 70
     6
  9
$SURFTAB2
 70
     6
  9
$SURFTYPE
 70
     6
  9
$SURFU
 70
     6
  9
$SURFV
 70
     6
  9
$UCSNAME
  2

  9
$UCSORG
 10
0.0
 20
0.0
 30
0.0
  9
$UCSXDIR
 10
1.0
 20
0.0
 30
0.0
  9
$UCSYDIR
 10
0.0
 20
1.0
 30
0.0
  9
$PUCSNAME
  2

  9
$PUCSORG
 10
0.0
 20
0.0
 30
0.0
  9
$PUCSXDIR
 10
1.0
 20
0.0
 30
0.0
  9
$PUCSYDIR
 10
0.0
 20
1.0
 30
0.0
  9
$USERI1
 70
     0
  9
$USERI2
 70
     0
  9
$USERI3
 70
     0
  9
$USERI4
 70
     0
  9
$USERI5
 70
     0
  9
$USERR1
 40
0.0
  9
$USERR2
 40
0.0
  9
$USERR3
 40
0.0
  9
$USERR4
 40
0.0
  9
$USERR5
 40
0.0
  9
$WORLDVIEW
 70
     1
  9
$SHADEDGE
 70
     3
  9
$SHADEDIF
 70
    70
  9
$TILEMODE
 70
     1
  9
$MAXACTVP
 70
    64
  9
$PLIMCHECK
 70
     0
  9
$PEXTMIN
 10
1.0000000000000000E+20
 20
1.0000000000000000E+20
 30
1.0000000000000000E+20
  9
$PEXTMAX
 10
-1.0000000000000000E+20
 20
-1.0000000000000000E+20
 30
-1.0000000000000000E+20
  9
$PLIMMIN
 10
0.0
 20
0.0
  9
$PLIMMAX
 10
12.0
 20
9.0
  9
$UNITMODE
 70
     0
  9
$VISRETAIN
 70
     1
  9
$PLINEGEN
 70
     0
  9
$PSLTSCALE
 70
     1
  0
ENDSEC
  0
SECTION
  2
TABLES
  0
TABLE
  2
VPORT
 70
     1
  0
VPORT
  2
*ACTIVE
 70
     0
 10
0.0
 20
0.0
 11
1.0
 21
1.0
 12
628.8417054012043081
 22
-85.2781458072369674
 13
0.0
 23
0.0
 14
1.0
 24
1.0
 15
0.0
 25
0.0
 16
0.0
 26
0.0
 36
5.1040778033513332
 17
3792.35791015625
 27
120.1806564331053977
 37
0.0
 40
30.7381337341204208
 41
2.887234042553191
 42
50.0
 43
0.0
 44
0.0
 50
0.0
 51
0.0
 71
     0
 72
   100
 73
     1
 74
     1
 75
     0
 76
     0
 77
     0
 78
     0
  0
ENDTAB
  0
TABLE
  2
LTYPE
 70
     2
  0
LTYPE
  2
CONTINUOUS
 70
     0
  3
Solid line
 72
    65
 73
     0
 40
0.0
  0
LTYPE
  2
PHANTOM2
 70
     0
  3
___ _ _ ___ _ _ ___ _ _ ___ _ _
 72
    65
 73
     6
 40
1.25
 49
0.625
 49
-0.125
 49
0.125
 49
-0.125
 49
0.125
 49
-0.125
  0
ENDTAB
  0
TABLE
  2
LAYER
 70
     2
  0
LAYER
  2
0
 70
     0
 62
   255
  6
CONTINUOUS
  0
LAYER
  2
DEFPOINTS
 70
     0
 62
     7
  6
CONTINUOUS
  0
ENDTAB
  0
TABLE
  2
STYLE
 70
     1
  0
STYLE
  2
STANDARD
 70
     0
 40
0.0
 41
0.8
 50
0.0
 71
     0
 42
0.2
  3
txt
  4

  0
ENDTAB
  0
TABLE
  2
VIEW
 70
     0
  0
ENDTAB
  0
TABLE
  2
UCS
 70
     0
  0
ENDTAB
  0
TABLE
  2
APPID
 70
     9
  0
APPID
  2
ACAD
 70
     0
  0
APPID
  2
ACAD_MLEADERVER
 70
     0
  0
APPID
  2
ACAD_EXEMPT_FROM_CAD_STANDARDS
 70
     0
  0
APPID
  2
ACAD_NAV_VCDISPLAY
 70
     0
  0
APPID
  2
ACAECLAYERSTANDARD
 70
     0
  0
APPID
  2
ACCMTRANSPARENCY
 70
     0
  0
APPID
  2
ACAD_DSTYLE_DIMJAG
 70
     0
  0
APPID
  2
ACAD_DSTYLE_DIMTALN
 70
     0
  0
APPID
  2
ACDBATTR
 70
     0
  0
ENDTAB
  0
TABLE
  2
DIMSTYLE
 70
     1
  0
DIMSTYLE
  2
STANDARD
 70
     0
  3

  4

  5

  6

  7

 40
1.0
 41
0.1875
 42
0.0625
 43
0.38
 44
0.125
 45
0.0
 46
0.0
 47
0.01
 48
0.01
140
0.15625
141
0.09
142
0.0
143
25.3999999999999986
144
1.0
145
0.0
146
1.0
147
0.09
 71
     1
 72
     0
 73
     1
 74
     1
 75
     0
 76
     0
 77
     0
 78
     4
170
     0
171
     2
172
     0
173
     0
174
     0
175
     0
176
     0
177
     0
178
     0
  0
ENDTAB
  0
ENDSEC
  0
SECTION
  2
BLOCKS
  0
BLOCK
  8
0
  2
$MODEL_SPACE
 70
     0
 10
0.0
 20
0.0
 30
0.0
  3
$MODEL_SPACE
  1

  0
ENDBLK
  5
21
  8
0
  0
BLOCK
 67
     1
  8
0
  2
$PAPER_SPACE
 70
     0
 10
0.0
 20
0.0
 30
0.0
  3
$PAPER_SPACE
  1

  0
ENDBLK
  5
1D
 67
     1
  8
0
  0
ENDSEC
  0
SECTION
  2
ENTITIES
  0
ATTDEF
  5
3930
  8
DEFPOINTS
 10
4435.0902110119950521
 20
19.7345813893466016
 30
0.0
 40
0.001
  1
K-1939IN-S
  3

  2
MODELNUMBER
 70
     0
1001
ACDBATTR
1070
     0
1070
     1
  0
ATTDEF
  5
3931
  8
DEFPOINTS
 10
4435.0902110119950521
 20
19.7329147226799293
 30
0.0
 40
0.001
  1
BRIVE
  3

  2
TRADENAME
 70
     0
1001
ACDBATTR
1070
     0
1070
     1
  0
ATTDEF
  5
3932
  8
DEFPOINTS
 10
4435.0902110119950521
 20
19.7312480560132713
 30
0.0
 40
0.001
  1
TOILET
  3

  2
PRODUCT
 70
     0
1001
ACDBATTR
1070
     0
1070
     1
  0
ARC
  5
12308
  8
0
 10
4409.1682382791595955
 20
35.7718902197331374
 30
0.0
 40
1.59860857948729
 50
139.1789182867314025
 51
171.1481929291117012
  0
ARC
  5
12309
  8
0
 10
4408.9470052302549448
 20
35.9206620304568034
 30
0.0
 40
1.334322095501344
 50
111.2806092288693947
 51
137.8031564857294029
  0
ARC
  5
1230A
  8
0
 10
4409.3253942554965761
 20
34.779249410471742
 30
0.0
 40
2.535987428206441
 50
93.295254986501476
 51
109.8871251803033005
  0
ARC
  5
1230B
  8
0
 10
4426.8655263272175944
 20
-148.6274678020753015
 30
0.0
 40
186.7777323293422
 50
94.8276644360724816
 51
95.4334532145027765
  0
ARC
  5
1230C
  8
0
 10
4416.9834520756094207
 20
-32.413036063413827
 30
0.0
 40
70.1439561309535407
 50
90.3527175044767148
 51
94.7733218808978677
  0
ARC
  5
1230D
  8
0
 10
4418.7759024278057041
 20
-61.7836383533186932
 30
0.0
 40
99.5380838390430256
 50
89.0629262975327265
 51
91.2804274350871339
  0
ARC
  5
1230E
  8
0
 10
4422.8638209973705671
 20
-1048.9689138015089611
 30
0.0
 40
1086.712831488493066
 50
89.8785610379113535
 51
90.1297032985944355
  0
ARC
  5
1230F
  8
0
 10
4425.1667995533898647
 20
37.5913770933428495
 30
0.0
 40
0.1501
 50
4.887107137611884
 51
89.8785610379113535
  0
ARC
  5
12310
  8
0
 10
4393.9249684814376451
 20
34.9200890219810773
 30
0.0
 40
31.5059254346561488
 50
3.6027245254979472
 51
4.887107137611884
  0
ARC
  5
12311
  8
0
 10
4531.9775168641826895
 20
44.2000699384856475
 30
0.0
 40
106.8585412794645038
 50
183.9173040345118011
 51
184.370082135511808
  0
ARC
  5
12312
  8
0
 10
4425.0334033238641496
 20
36.0273397447537889
 30
0.0
 40
0.3974
 50
283.7878424189565862
 51
4.3700821355126003
  0
ARC
  5
12313
  8
0
 10
4425.2994611197682389
 20
35.5757504643075819
 30
0.0
 40
0.1574799520000027
 50
359.999907441529615
 51
89.5653963412723755
  0
LINE
  5
12314
  8
0
 10
4424.2653260340066481
 20
35.4296637818129483
 30
0.0
 11
4425.1281146276196523
 21
35.6413908764549134
 31
0.0
  0
ARC
  5
12315
  8
0
 10
4424.1712246188626523
 20
35.8125510208689235
 30
0.0
 40
0.3942812627602539
 50
270.0
 51
283.8078025125843169
  0
LINE
  5
12316
  8
0
 10
4424.1712246188626523
 20
35.4182697580095578
 30
0.0
 11
4407.5676361255682423
 21
35.4182697580075825
 31
0.0
  0
LINE
  5
12317
  8
0
 10
4407.9574966521686292
 20
35.2676345435638225
 30
0.0
 11
4421.1972944231665679
 21
35.2804703854075825
 31
0.0
  0
LINE
  5
12318
  8
0
 10
4421.1972944231665679
 20
35.2804703854075825
 30
0.0
 11
4433.5504991588823032
 21
35.2804739426398299
 31
0.0
  0
ARC
  5
12319
  8
0
 10
4415.459660952988088
 20
35.282457826929928
 30
0.0
 40
7.6921163119689684
 50
181.8709841324246099
 51
193.6598567628657861
  0
ARC
  5
1231A
  8
0
 10
4411.9283712494989231
 20
34.0064311477295718
 30
0.0
 40
3.9370923517168088
 50
199.838009587640812
 51
228.5164610143669961
  0
ARC
  5
1231B
  8
0
 10
4415.4896139029870028
 20
35.2940042707230219
 30
0.0
 40
7.7239499282077828
 50
193.6906133146802915
 51
199.8573903481054117
  0
ARC
  5
1231C
  8
0
 10
4419.0277089367737062
 20
42.0400779050527689
 30
0.0
 40
14.6581031838166602
 50
228.5285224089662108
 51
238.8284754515877921
  0
ARC
  5
1231D
  8
0
 10
4419.0414740447986333
 20
42.061364100519441
 30
0.0
 40
14.6834409775044605
 50
238.8255100753488023
 51
244.9069724451923094
  0
ARC
  5
1231E
  8
0
 10
4412.024217518262958
 20
26.9706900982414197
 30
0.0
 40
1.9594370038412749
 50
347.8078383948782744
 51
66.2177063669846859
  0
LINE
  5
1231F
  8
0
 10
4412.4920443885912391
 20
19.7292919440508285
 30
0.0
 11
4413.9394590199672166
 21
26.5568744845075813
 31
0.0
  0
LINE
  5
12320
  8
0
 10
4412.4920443885912391
 20
19.7292919440508285
 30
0.0
 11
4430.0893366784912359
 21
19.7292919440508285
 31
0.0
  0
ARC
  5
12321
  8
0
 10
4425.4774334704152352
 20
35.0219438876284812
 30
0.0
 40
8.2348386681714736
 50
359.7467575634324248
 51
0.677465769745957
  0
ARC
  5
12322
  8
0
 10
4433.554139181717801
 20
35.1229173840827329
 30
0.0
 40
0.1575986005982549
 50
358.6885549076757798
 51
91.3234666583671952
  0
ARC
  5
12323
  8
0
 10
4408.0020631408779082
 20
35.0413455961984823
 30
0.0
 40
0.2306357726278132
 50
101.1415305864455974
 51
182.491972120187512
  0
ARC
  5
12324
  8
0
 10
4407.5676361255682423
 20
35.4970099155075829
 30
0.0
 40
0.0787401574999992
 50
168.9999999617282072
 51
270.0
  0
LINE
  5
12325
  8
0
 10
4407.4903426465680241
 20
35.5120342459075928
 30
0.0
 11
4407.5886696920269969
 21
36.017883042698287
 31
0.0
  0
LINE
  5
12326
  8
0
 10
4425.4569410717667779
 20
35.5757502099065803
 30
0.0
 11
4425.4569406583650562
 21
35.3198445612075815
 31
0.0
  0
ARC
  5
12327
  8
0
 10
4425.4373206409618433
 20
35.3197799529657175
 30
0.0
 40
0.0196205371804161
 50
269.8116433546247208
 51
0.1886689562027873
  0
LINE
  5
12328
  8
0
 10
4425.4372561396676247
 20
35.3001595218075934
 30
0.0
 11
4423.9163048785667343
 21
35.3001595218075934
 31
0.0
  0
LINE
  5
12329
  8
0
 10
4423.9758933362682001
 20
35.3001595218075934
 30
0.0
 11
4423.9758933362682001
 21
35.2804744824075911
 31
0.0
  0
LINE
  5
1232A
  8
0
 10
4425.3978213053669606
 20
35.3001595218075934
 30
0.0
 11
4425.3978213053669606
 21
35.2804744824075911
 31
0.0
  0
LINE
  5
1232B
  8
0
 10
4423.8966199464666715
 20
35.4182697580075825
 30
0.0
 11
4423.8966199464666715
 21
35.3198445612075815
 31
0.0
  0
ARC
  5
1232C
  8
0
 10
4423.916305549541903
 20
35.3198451248785403
 30
0.0
 40
0.0196856030823991
 50
180.0016405881484047
 51
269.9980471008603899
  0
ARC
  5
1232D
  8
0
 10
4420.9806849720880564
 20
35.4182697614425734
 30
0.0
 40
0.0787401644381219
 50
269.9829098834363208
 51
353.2436710503286008
  0
LINE
  5
1232E
  8
0
 10
4421.0600501073213309
 20
35.4182697580075825
 30
0.0
 11
4421.0588783228540706
 21
35.4090062101488883
 31
0.0
  0
LINE
  5
1232F
  8
0
 10
4420.9806614855660882
 20
35.3395296005075821
 30
0.0
 11
4412.2492077956912908
 21
35.3395296006075768
 31
0.0
  0
ARC
  5
12330
  8
0
 10
4409.7906903137973131
 20
35.419286860588187
 30
0.0
 40
0.0797581969571143
 50
180.7306743008599881
 51
270.277724847107379
  0
ARC
  5
12331
  8
0
 10
4411.6195232816053249
 20
35.9736071061783704
 30
0.0
 40
0.6861171668228571
 50
234.036514086680512
 51
247.5410377061793099
  0
ARC
  5
12332
  8
0
 10
4411.5585865762532194
 20
35.8338140611705001
 30
0.0
 40
0.5336557509997176
 50
247.8535669373802079
 51
267.8475352920808064
  0
LINE
  5
12333
  8
0
 10
4409.7910769172513028
 20
35.3395296006075768
 30
0.0
 11
4411.3574116955624049
 21
35.3395296006075483
 31
0.0
  0
ARC
  5
12334
  8
0
 10
4411.9794465329241575
 20
35.9872882971392301
 30
0.0
 40
0.7016854478340611
 50
292.6094487716530921
 51
305.8129993989064133
  0
ARC
  5
12335
  8
0
 10
4412.0479050806252417
 20
35.8344635780134695
 30
0.0
 40
0.534305553960809
 50
272.1519725195134924
 51
292.1328734563048783
  0
ARC
  5
12336
  8
0
 10
4419.2612862181667879
 20
35.9682702382519395
 30
0.0
 40
0.5894435142101762
 50
248.9208195891276034
 51
291.079180410872425
  0
ARC
  5
12337
  8
0
 10
4419.8162642612278432
 20
20.9467430168601112
 30
0.0
 40
0.2071792181148556
 50
178.3308429611394956
 51
272.6050833377171898
  0
ARC
  5
12338
  8
0
 10
4412.8296368219516808
 20
31614.8523899312203866
 30
0.0
 40
31594.1133866059790307
 50
270.0126872938907923
 51
270.020034790779107
  0
ARC
  5
12339
  8
0
 10
4423.7238299642312995
 20
5.2305774992717309
 30
0.0
 40
15.5111160777568209
 50
86.1833229887613754
 51
89.4332907031091651
  0
LINE
  5
1233A
  8
0
 10
4419.6091729523714093
 20
20.9527777674180804
 30
0.0
 11
4419.6092081671185952
 21
27.3280824546473085
 31
0.0
  0
ARC
  5
1233B
  8
0
 10
4421.8744015550573749
 20
27.3372591463158194
 30
0.0
 40
2.2652119760474729
 50
152.5830654801158914
 51
180.2321138799566995
  0
LINE
  5
1233C
  8
0
 10
4419.8636197097675904
 20
28.3803035687076992
 30
0.0
 11
4422.1725176329682654
 21
32.0185194584075816
 31
0.0
  0
ARC
  5
1233D
  8
0
 10
4419.9201524457521373
 20
23.7410878782265087
 30
0.0
 40
0.4073582460837116
 50
271.5357154462254812
 51
1.325093889991807
  0
ARC
  5
1233E
  8
0
 10
4419.9240352120650641
 20
23.648640271307471
 30
0.0
 40
0.3148429161184176
 50
180.0374523338587949
 51
271.2802538847236065
  0
ARC
  5
1233F
  8
0
 10
4425.3517441433041313
 20
23.8665768527763085
 30
0.0
 40
5.0256828777720211
 50
166.3213019686884877
 51
181.3233704365933079
  0
ARC
  5
12340
  8
0
 10
4425.3517441482681534
 20
23.8665768519076096
 30
0.0
 40
5.0256828827998792
 50
142.3526975707198119
 51
166.3213019724456956
  0
ARC
  5
12341
  8
0
 10
4425.3518610550900121
 20
23.8663819497195888
 30
0.0
 40
5.0258944947004336
 50
95.2028449549336671
 51
142.3517523394652926
  0
ARC
  5
12342
  8
0
 10
4425.1082350089964166
 20
23.9545802555905105
 30
0.0
 40
4.1293272686285603
 50
145.0219714773234045
 51
181.609383807238089
  0
ARC
  5
12343
  8
0
 10
4425.1099892760703369
 20
23.9523578642145907
 30
0.0
 40
4.1320387594002446
 50
93.2083313568199969
 51
145.0106662052913862
  0
ARC
  5
12344
  8
0
 10
4406.0819964606398571
 20
294.3202469064435718
 30
0.0
 40
266.9050277084987215
 50
274.0383873485977801
 51
274.6516962999086786
  0
ARC
  5
12345
  8
0
 10
4419.7465601158492063
 20
23.8038965639618993
 30
0.0
 40
1.2344646027984481
 50
274.9683416625146037
 51
1.6112273555838379
  0
ARC
  5
12346
  8
0
 10
4419.8060252074055825
 20
23.6528233171267601
 30
0.0
 40
1.079795996390206
 50
259.4964374786874828
 51
272.5183787274476117
  0
ARC
  5
12347
  8
0
 10
4424.3283533654657731
 20
26.269954072808261
 30
0.0
 40
7.1709782749151039
 50
96.2368010722489942
 51
105.1826379152393969
  0
ARC
  5
12348
  8
0
 10
4423.8371004849732344
 20
32.0429906418609107
 30
0.0
 40
1.3857128869501301
 50
87.7635816045473831
 51
101.9865184278966979
  0
ARC
  5
12349
  8
0
 10
4422.0396564516986473
 20
32.1030880303459867
 30
0.0
 40
0.1574926564892813
 50
327.5225011944247058
 51
87.8306574033848051
  0
ARC
  5
1234A
  8
0
 10
4420.9298447185701662
 20
53.0712063460295767
 30
0.0
 40
20.7385617113228591
 50
260.8528578833573874
 51
266.0089131875835733
  0
ARC
  5
1234B
  8
0
 10
4427.866936636210994
 20
180.7065007389111031
 30
0.0
 40
148.5601307260214128
 50
266.7661336563708119
 51
267.7542938371532841
  0
ARC
  5
1234C
  8
0
 10
4423.3729244418627786
 20
34.0203108278171982
 30
0.0
 40
0.4879241921286959
 50
230.6278596307560065
 51
251.4820165385528981
  0
ARC
  5
1234D
  8
0
 10
4423.4925585486998898
 20
33.2921971568840718
 30
0.0
 40
0.1738851942250575
 50
65.4868164360253928
 51
78.6102973283679631
  0
ARC
  5
1234E
  8
0
 10
4423.55476587413159
 20
33.4364550304651971
 30
0.0
 40
0.0298728812241127
 50
300.1317477568921959
 51
344.1175198723918243
  0
ARC
  5
1234F
  8
0
 10
4423.5484322249094475
 20
33.4120067676125814
 30
0.0
 40
0.0417076520890488
 50
38.0908347807921572
 51
67.0369063117751693
  0
ARC
  5
12350
  8
0
 10
4423.5705172073512585
 20
33.4301978148322121
 30
0.0
 40
0.0131220743630962
 50
351.5954196822215749
 51
35.0656281032068975
  0
ARC
  5
12351
  8
0
 10
4423.4796143226103595
 20
33.5393009647128366
 30
0.0
 40
0.1571167343768688
 50
296.3347002528573739
 51
305.0129040521940169
  0
ARC
  5
12352
  8
0
 10
4423.9721168032228888
 20
35.4605112512090415
 30
0.0
 40
2.0468604873009588
 50
248.3801706528234945
 51
257.4369860143208939
  0
ARC
  5
12353
  8
0
 10
4422.3402905933671718
 20
44.228179143651893
 30
0.0
 40
10.51386510269427
 50
266.5076238353240115
 51
271.3817333392634055
  0
ARC
  5
12354
  8
0
 10
4422.6505075067552752
 20
32.5537780284790585
 30
0.0
 40
1.1649733521084349
 50
69.2415684328266536
 51
92.7892941688185857
  0
ARC
  5
12355
  8
0
 10
4416.5857462848125579
 20
-49.4474421160317519
 30
0.0
 40
83.3383430565601344
 50
86.4818153841505506
 51
87.8794497205911824
  0
ARC
  5
12356
  8
0
 10
4419.4555499156003862
 20
27.1202070038903607
 30
0.0
 40
6.7170291184054829
 50
88.1751992148554393
 51
100.9142309664062935
  0
ARC
  5
12357
  8
0
 10
4418.4237445048165682
 20
32.1885175031303419
 30
0.0
 40
1.545960700450167
 50
98.9306206342007641
 51
120.5238133775113027
  0
LINE
  5
12358
  8
0
 10
4417.6330263751679013
 20
32.5963698225075689
 30
0.0
 11
4417.6385565825712547
 21
33.5202360973141111
 31
0.0
  0
LINE
  5
12359
  8
0
 10
4422.4502975186069307
 20
33.1906358062347735
 30
0.0
 11
4422.2003018970681296
 21
33.2001478480075818
 31
0.0
  0
LINE
  5
1235A
  8
0
 10
4422.2003018970681296
 20
33.2001478480075818
 30
0.0
 11
4421.954712974323229
 21
33.3390114425883723
 31
0.0
  0
LINE
  5
1235B
  8
0
 10
4421.954712974323229
 20
33.3390114425883723
 30
0.0
 11
4417.6385565825712547
 21
33.5202360973141111
 31
0.0
  0
LINE
  5
1235C
  8
0
 10
4421.7817187942982855
 20
32.2710515862607821
 30
0.0
 11
4421.9965797757668042
 21
32.5381163878075768
 31
0.0
  0
LINE
  5
1235D
  8
0
 10
4421.9965797757668042
 20
32.5381163878075768
 30
0.0
 11
4422.2003018970681296
 21
33.2001478480075818
 31
0.0
  0
LINE
  5
1235E
  8
0
 10
4421.9965797757668042
 20
32.5381163878075768
 30
0.0
 11
4421.670370650627774
 21
32.4237381934018885
 31
0.0
  0
LINE
  5
1235F
  8
0
 10
4421.670370650627774
 20
32.4237381934018885
 30
0.0
 11
4417.6330263751679013
 21
32.5963698225075831
 31
0.0
  0
LINE
  5
12360
  8
0
 10
4420.2712353469678419
 20
20.7398797130071593
 30
0.0
 11
4420.2712353469678419
 21
20.9930295352075902
 31
0.0
  0
LINE
  5
12361
  8
0
 10
4420.2731098405665762
 20
20.9981291291075784
 30
0.0
 11
4420.33580622226782
 21
21.0718895781075695
 31
0.0
  0
LINE
  5
12362
  8
0
 10
4420.3418057444678197
 20
21.0746640000075907
 30
0.0
 11
4420.7872763111681707
 21
21.0746640000075693
 31
0.0
  0
LINE
  5
12363
  8
0
 10
4420.7932786449682681
 20
21.0718895781075695
 30
0.0
 11
4420.8559750266203991
 21
20.9981291290326197
 31
0.0
  0
LINE
  5
12364
  8
0
 10
4420.8578495202682461
 20
20.7400233285397313
 30
0.0
 11
4420.8578495201682017
 21
20.9930295352075902
 31
0.0
  0
ARC
  5
12365
  8
0
 10
4420.2791093627665759
 20
20.9930295352076008
 30
0.0
 40
0.0078740156999686
 50
139.6354650322114139
 51
180.0000000000642899
  0
ARC
  5
12366
  8
0
 10
4420.8499755037528303
 20
20.9930295347905798
 30
0.0
 40
0.0078740165143802
 50
0.0000030343122683
 51
40.3645354910191401
  0
ARC
  5
12367
  8
0
 10
4420.7872791212012089
 20
21.0667899822878297
 30
0.0
 40
0.0078740182211769
 50
40.3645400016302105
 51
90.0204473840063173
  0
ARC
  5
12368
  8
0
 10
4420.3418057444678197
 20
21.0667899843075794
 30
0.0
 40
0.007874015699999
 50
90.0
 51
139.6354627160914958
  0
LINE
  5
12369
  8
0
 10
4420.2731098405083685
 20
20.9981291289075784
 30
0.0
 11
4420.8559750266203991
 21
20.9981291290326197
 31
0.0
  0
ARC
  5
1236A
  8
0
 10
4428.7402473775991893
 20
48.8745314521874619
 30
0.0
 40
0.7100625377528827
 50
95.6564293173688043
 51
174.908808747140597
  0
ARC
  5
1236B
  8
0
 10
4428.0678011289855931
 20
48.6579139209857772
 30
0.0
 40
0.0590550686006834
 50
174.9999788501681053
 51
270.0000496836960906
  0
ARC
  5
1236C
  8
0
 10
4849.0817867214382204
 20
50.909093651769119
 30
0.0
 40
420.967039280628228
 50
180.3144364184558128
 51
181.3987539957190052
  0
ARC
  5
1236D
  8
0
 10
4870.4115393720730935
 20
51.3727171663353204
 30
0.0
 40
442.3017570596888959
 50
181.3913464781427933
 51
182.0404765190779983
  0
ARC
  5
1236E
  8
0
 10
4428.4492535746358044
 20
35.6264173024135218
 30
0.0
 40
0.0590544379758357
 50
182.0165823999790859
 51
269.9983640589073275
  0
ARC
  5
1236F
  8
0
 10
4428.4714697066938243
 20
35.4886226365469071
 30
0.0
 40
0.078740275014836
 50
14.4773760014221207
 51
90.0000200269951023
  0
ARC
  5
12370
  8
0
 10
4428.6239494896808537
 20
35.527992708061781
 30
0.0
 40
0.0787401579000067
 50
194.4776207795075038
 51
270.0
  0
ARC
  5
12371
  8
0
 10
4429.2901956291489114
 20
35.4292518919897788
 30
0.0
 40
0.0200007363011542
 50
90.0021013225083237
 51
177.9979632818096889
  0
LINE
  5
12372
  8
0
 10
4430.7148802717811122
 20
35.4492526281617586
 30
0.0
 11
4430.7148802717811122
 21
35.2804731260942432
 31
0.0
  0
LINE
  5
12373
  8
0
 10
4429.2649872238298485
 20
35.2804727085826215
 30
0.0
 11
4429.2702071015810361
 21
35.4299506181617687
 31
0.0
  0
LINE
  5
12374
  8
0
 10
4428.0089707845945668
 20
48.6630609310689692
 30
0.0
 11
4428.03298623509545
 21
48.9375432274689786
 31
0.0
  0
LINE
  5
12375
  8
0
 10
4428.0678011801956018
 20
48.5988588523851206
 30
0.0
 11
4434.4329536626946719
 21
48.5988588523851206
 31
0.0
  0
LINE
  5
12376
  8
0
 10
4428.6239494896808537
 20
35.4492525501617592
 30
0.0
 11
4433.8755348348786356
 21
35.4492526281301892
 31
0.0
  0
LINE
  5
12377
  8
0
 10
4429.8184713392292906
 20
35.2804728679640718
 30
0.0
 11
4429.8210767507989658
 21
35.4299506191714926
 31
0.0
  0
ARC
  5
12378
  8
0
 10
4429.8397625179923125
 20
35.4325326575558677
 30
0.0
 40
0.0188633195306427
 50
117.5792148985589023
 51
187.8674317814027006
  0
LINE
  5
12379
  8
0
 10
4428.4492518884808305
 20
35.5673628644617565
 30
0.0
 11
4434.0503415904222493
 21
35.5673628829052006
 31
0.0
  0
ARC
  5
1237A
  8
0
 10
4434.0285317693860634
 20
49.4638920335042371
 30
0.0
 40
0.3937005784853631
 50
4.9999684636534649
 51
90.3522985436076596
  0
ARC
  5
1237B
  8
0
 10
4434.4271565916060354
 20
48.665286814901549
 30
0.0
 40
0.0666804336915268
 50
274.9874832309416206
 51
358.0870302171786079
  0
ARC
  5
1237C
  8
0
 10
4013.4178084110840246
 20
50.9090936517682735
 30
0.0
 40
420.9670392805683719
 50
358.6012460042800853
 51
359.6855635815442156
  0
ARC
  5
1237D
  8
0
 10
3992.0880557603891248
 20
51.3727171663353204
 30
0.0
 40
442.3017570596888959
 50
357.9595234809219733
 51
358.6086535218568088
  0
ARC
  5
1237E
  8
0
 10
4434.0503415902276174
 20
35.6264172879791374
 30
0.0
 40
0.059054405086152
 50
270.0000001886389782
 51
357.9834304896460822
  0
ARC
  5
1237F
  8
0
 10
4434.0281254257679393
 20
35.4886226365469071
 30
0.0
 40
0.078740275014836
 50
89.9999799730048835
 51
165.5226239985778989
  0
ARC
  5
12380
  8
0
 10
4433.8756456427809098
 20
35.527992708061781
 30
0.0
 40
0.0787401579000067
 50
269.9193698945584856
 51
345.5223792204923825
  0
ARC
  5
12381
  8
0
 10
4433.0145649144133131
 20
35.4292518919897788
 30
0.0
 40
0.0200007363011542
 50
2.0020367181902752
 51
89.9978986774916336
  0
LINE
  5
12382
  8
0
 10
4431.5898802717811122
 20
35.4492526281617586
 30
0.0
 11
4431.5898802717811122
 21
35.2804733780594688
 31
0.0
  0
LINE
  5
12383
  8
0
 10
4433.0397732817718861
 20
35.2804737955710692
 30
0.0
 11
4433.0345534419811884
 21
35.4299506181617687
 31
0.0
  0
LINE
  5
12384
  8
0
 10
4434.4937998633567986
 20
48.6630609274388277
 30
0.0
 11
4434.4207342171948767
 21
49.498205083968962
 31
0.0
  0
LINE
  5
12385
  8
0
 10
4432.4862891909433529
 20
35.2804736361896332
 30
0.0
 11
4432.4836837927632587
 21
35.4299506191714926
 31
0.0
  0
ARC
  5
12386
  8
0
 10
4432.4649980255690025
 20
35.4325326575558677
 30
0.0
 40
0.0188633195306427
 50
352.1325682185973278
 51
62.4207851014410693
  0
LINE
  5
12387
  8
0
 10
4433.5171834213806505
 20
35.2804739330462311
 30
0.0
 11
4433.5171834213806505
 21
35.3292526281617683
 31
0.0
  0
LINE
  5
12388
  8
0
 10
4433.5171834213806505
 20
35.3292526281617683
 30
0.0
 11
4433.0380698893195586
 21
35.3292526281617683
 31
0.0
  0
LINE
  5
12389
  8
0
 10
4433.0356254382068073
 20
35.3992526281617614
 30
0.0
 11
4433.4946834213806142
 21
35.3992526281617614
 31
0.0
  0
LINE
  5
1238A
  8
0
 10
4433.4946834213806142
 20
35.3992526281617614
 30
0.0
 11
4433.4946834213806142
 21
35.3292526281617683
 31
0.0
  0
LINE
  5
1238B
  8
0
 10
4433.4907119409808729
 20
35.3292526281617683
 30
0.0
 11
4433.4907119610261361
 21
35.2804739254235002
 31
0.0
  0
LINE
  5
1238C
  8
0
 10
4433.462183421381269
 20
35.4492526281617586
 30
0.0
 11
4433.4803819330809347
 21
35.3992526281617614
 31
0.0
  0
LINE
  5
1238D
  8
0
 10
4430.1891394973208662
 20
49.7091529860546117
 30
0.0
 11
4430.1880070990955574
 21
49.7281899297967911
 31
0.0
  0
LINE
  5
1238E
  8
0
 10
4430.3355482313590983
 20
49.8949831926369214
 30
0.0
 11
4431.9877619608951136
 21
49.9957426319689731
 31
0.0
  0
ARC
  5
1238F
  8
0
 10
4430.9714562296430813
 20
49.0700284445302088
 30
0.0
 40
0.9728332960261685
 50
99.2671998096071206
 51
121.0861470999592058
  0
ARC
  5
12390
  8
0
 10
4431.4493663482198826
 20
49.097504488524379
 30
0.0
 40
0.9735794604161728
 50
66.0526440681259004
 51
85.7030212383244532
  0
ARC
  5
12391
  8
0
 10
4431.3181188039070548
 20
47.2778282378642132
 30
0.0
 40
2.7979799623953072
 50
85.8148841777647959
 51
100.3633092216381044
  0
ARC
  5
12392
  8
0
 10
4430.3451363471685909
 20
49.7378495642416496
 30
0.0
 40
0.1574258845851887
 50
93.4917941167706772
 51
183.5178723857106036
  0
ARC
  5
12393
  8
0
 10
4431.9877619608751047
 20
49.8382623169158592
 30
0.0
 40
0.157480315053121
 50
3.500000004971255
 51
89.9999999926524765
  0
LINE
  5
12394
  8
0
 10
4432.1449485433950031
 20
49.8478762601689525
 30
0.0
 11
4432.1470682826156917
 21
49.8161229423027976
 31
0.0
  0
ARC
  5
12395
  8
0
 10
4434.3891948816954027
 20
-9.1964167703298951
 30
0.0
 40
59.0551181102988565
 50
90.3522692894261752
 51
92.1758533097029158
  0
ARC
  5
12396
  8
0
 10
4434.3883999034987937
 20
-9.1861977727277875
 30
0.0
 40
59.0448684503685683
 50
94.0786028109916543
 51
95.5574599561331581
  0
LINE
  5
12397
  8
0
 10
4430.1880074153414171
 20
49.7281846133619965
 30
0.0
 11
4432.1449485433658992
 21
49.8478762601671406
 31
0.0
  0
ARC
  5
12398
  8
0
 10
4433.6326618275679721
 20
34.7343868178876392
 30
0.0
 40
0.1524331605447137
 50
94.6510722123574482
 51
165.5903954936752882
  0
ARC
  5
12399
  8
0
 10
4433.6121926790638099
 20
34.9859887147447566
 30
0.0
 40
0.1
 50
274.6510722123574055
 51
359.7467575634315722
  0
ARC
  5
1239A
  8
0
 10
4431.1956081876151075
 20
35.3605513146432813
 30
0.0
 40
2.3637767712788631
 50
306.4139336219582788
 51
345.5903954936733271
  0
ARC
  5
1239B
  8
0
 10
4422.7378489181783152
 20
46.8265380194273675
 30
0.0
 40
16.6116728606679693
 50
304.316367431838728
 51
306.4139336219582788
  0
ARC
  5
1239C
  8
0
 10
4431.2608667180256816
 20
35.1575254627355704
 30
0.0
 40
2.217285357129668
 50
267.0974185694130938
 51
292.3181485058165094
  0
LINE
  5
1239D
  8
0
 10
4430.0500225629175475
 20
34.7243851107351134
 30
0.0
 11
4429.9952004934757497
 21
24.0797226190264411
 31
0.0
  0
LINE
  5
1239E
  8
0
 10
4429.9952004934757497
 20
24.0797226190264411
 30
0.0
 11
4430.1241826876666892
 21
20.6374233235851108
 31
0.0
  0
ARC
  5
1239F
  8
0
 10
4454.0997876364763215
 20
480.6997294011898134
 30
0.0
 40
448.344477415844608
 50
266.9563678850332735
 51
267.0656895448212822
  0
ARC
  5
123A0
  8
0
 10
4430.3373628365479817
 20
32.6924173415926873
 30
0.0
 40
0.2983973804706279
 50
98.2974776178397036
 51
176.0829358762640027
  0
LINE
  5
123A1
  8
0
 10
4432.5945338464007364
 20
33.455171692249067
 30
0.0
 11
4430.0294893060190589
 21
30.7374945799123509
 31
0.0
  0
LINE
  5
123A2
  8
0
 10
4433.6203014190014073
 20
34.8863180152557533
 30
0.0
 11
4407.7777519059818587
 21
34.8863180152557533
 31
0.0
  0
ARC
  5
123A3
  8
0
 10
4430.2344976220647368
 20
34.7147798873015176
 30
0.0
 40
0.1847249516573662
 50
111.7802568932453937
 51
177.0194223565430889
  0
LINE
  5
123A4
  8
0
 10
4429.6495059574463085
 20
34.7282457686263015
 30
0.0
 11
4429.6381375594492056
 21
30.2350471713549389
 31
0.0
  0
ARC
  5
123A5
  8
0
 10
4429.491473525152287
 20
34.7290681670775427
 30
0.0
 40
0.1580345721539576
 50
359.7018362984205737
 51
84.2878459586189734
  0
ARC
  5
123A6
  8
0
 10
4427.5787419593052618
 20
31.8272030042477887
 30
0.0
 40
3.5359601542105659
 50
272.4116136057850781
 51
286.8977045408021809
  0
ARC
  5
123A7
  8
0
 10
4428.1227575559778415
 20
30.0363788960483191
 30
0.0
 40
1.664328792021132
 50
286.8977045408021809
 51
314.4907593453979189
  0
ARC
  5
123A8
  8
0
 10
4426.8404576183784229
 20
30.2026821252017612
 30
0.0
 40
2.7978671428219881
 50
331.0669025839953861
 51
0.6627984149539311
  0
ARC
  5
123A9
  8
0
 10
4401.1781128747343246
 20
-432.0120288740961882
 30
0.0
 40
465.9935364915153855
 50
86.5484071184259562
 51
87.2062307108797654
  0
ARC
  5
123AA
  8
0
 10
4429.2068138457507303
 20
33.0056523402925919
 30
0.0
 40
0.1332240313556443
 50
333.8852017638698726
 51
78.5059186638034134
  0
LINE
  5
123AB
  8
0
 10
4429.3264375578810359
 20
32.9470109724110429
 30
0.0
 11
4429.3154987442057973
 21
29.8407831302397604
 31
0.0
  0
ARC
  5
123AC
  8
0
 10
4428.370902327508702
 20
30.1872869863985294
 30
0.0
 40
1.0061447772414061
 50
275.9603756801126906
 51
339.8555786042931004
  0
ARC
  5
123AD
  8
0
 10
4576.6766394126661908
 20
-1675.2195221624899659
 30
0.0
 40
1710.8371573929989609
 50
94.9694748821030856
 51
95.089807952084783
  0
ARC
  5
123AE
  8
0
 10
4427.6220126900616378
 20
-12.4489747284301302
 30
0.0
 40
33.2798773617513817
 50
91.5137761714928359
 51
94.9397976020235035
  0
ARC
  5
123AF
  8
0
 10
4426.4554859351210325
 20
37.4817866679021705
 30
0.0
 40
16.6649763863395108
 50
264.1562455621946128
 51
270.988027275494801
  0
ARC
  5
123B0
  8
0
 10
4404.1338794116300051
 20
-1061.2551922234010817
 30
0.0
 40
1082.3551327484269677
 50
88.9081327711254659
 51
89.1146611610587058
  0
ARC
  5
123B1
  8
0
 10
4404.1338794116300051
 20
-1061.2551922234010817
 30
0.0
 40
1082.3551327484269677
 50
89.1457178716658376
 51
89.1807686738238914
  0
ARC
  5
123B2
  8
0
 10
4430.0846741260320414
 20
20.6351331409621004
 30
0.0
 40
0.039574883182983
 50
272.9448673921766044
 51
3.3175372269443759
  0
ARC
  5
123B3
  8
0
 10
4430.0888494542650733
 20
20.5539688782841985
 30
0.0
 40
0.041696704114773
 50
92.9448673921765476
 51
158.7209091438375879
  0
ARC
  5
123B4
  8
0
 10
4430.0442813579729773
 20
21.3668299512227691
 30
0.0
 40
0.0545298610849985
 50
280.3575723314925199
 51
346.5953125850924721
  0
ARC
  5
123B5
  8
0
 10
4430.0621627963946594
 20
21.2689936759005889
 30
0.0
 40
0.0449270773808052
 50
100.3575723314924062
 51
184.4852399358844082
  0
LINE
  5
123B6
  8
0
 10
4430.0173733076217104
 20
21.2654802762159996
 30
0.0
 11
4430.0893366784912359
 21
19.7292919440508285
 31
0.0
  0
LINE
  5
123B8
  8
0
 10
4411.538543127909179
 20
35.3005348465431723
 30
0.0
 11
4412.0679683481539541
 21
35.3005348465431723
 31
0.0
  0
ENDSEC
  0
EOF
