  0
SECTION
  2
HEADER
  9
$ACADVER
  1
AC1009
  9
$INSBASE
 10
7894.2075823584818863
 20
1812.3665622701560096
 30
0.0
  9
$EXTMIN
 10
7889.2666457751811322
 20
1804.3494519430551009
 30
0.0
  9
$EXTMAX
 10
7899.1485189417826405
 20
1812.3713982458559713
 30
0.0
  9
$LIMMIN
 10
0.0
 20
0.0
  9
$LIMMAX
 10
11.6929133858000007
 20
8.2677165353999982
  9
$ORTHOMODE
 70
     0
  9
$REGENMODE
 70
     1
  9
$FILLMODE
 70
     1
  9
$QTEXTMODE
 70
     0
  9
$MIRRTEXT
 70
     0
  9
$DRAGMODE
 70
     2
  9
$LTSCALE
 40
0.6431102362
  9
$OSMODE
 70
  4063
  9
$ATTMODE
 70
     1
  9
$TEXTSIZE
 40
0.2
  9
$TRACEWID
 40
0.05
  9
$TEXTSTYLE
  7
STANDARD
  9
$CLAYER
  8
0
  9
$CELTYPE
  6
BYLAYER
  9
$CECOLOR
 62
   256
  9
$DIMSCALE
 40
1.0
  9
$DIMASZ
 40
0.1875
  9
$DIMEXO
 40
0.0625
  9
$DIMDLI
 40
0.4443307087
  9
$DIMRND
 40
0.0
  9
$DIMDLE
 40
0.0
  9
$DIMEXE
 40
0.125
  9
$DIMTP
 40
0.01
  9
$DIMTM
 40
0.01
  9
$DIMTXT
 40
2.0
  9
$DIMCEN
 40
0.1052362205
  9
$DIMTSZ
 40
0.0
  9
$DIMTOL
 70
     1
  9
$DIMLIM
 70
     0
  9
$DIMTIH
 70
     1
  9
$DIMTOH
 70
     1
  9
$DIMSE1
 70
     0
  9
$DIMSE2
 70
     0
  9
$DIMTAD
 70
     0
  9
$DIMZIN
 70
     0
  9
$DIMBLK
  1

  9
$DIMASO
 70
     1
  9
$DIMSHO
 70
     1
  9
$DIMPOST
  1
\X
  9
$DIMAPOST
  1

  9
$DIMALT
 70
     1
  9
$DIMALTD
 70
     2
  9
$DIMALTF
 40
25.3999999999999986
  9
$DIMLFAC
 40
1.0
  9
$DIMTOFL
 70
     0
  9
$DIMTVP
 40
0.0
  9
$DIMTIX
 70
     0
  9
$DIMSOXD
 70
     0
  9
$DIMSAH
 70
     0
  9
$DIMBLK1
  1

  9
$DIMBLK2
  1

  9
$DIMSTYLE
  2
STANDARD
  9
$DIMCLRD
 70
     0
  9
$DIMCLRE
 70
     0
  9
$DIMCLRT
 70
     0
  9
$DIMTFAC
 40
1.0
  9
$DIMGAP
 40
0.09
  9
$LUNITS
 70
     2
  9
$LUPREC
 70
     4
  9
$SKETCHINC
 40
0.1
  9
$FILLETRAD
 40
0.0
  9
$AUNITS
 70
     0
  9
$AUPREC
 70
     0
  9
$MENU
  1
.
  9
$ELEVATION
 40
0.0
  9
$PELEVATION
 40
0.0
  9
$THICKNESS
 40
0.0
  9
$LIMCHECK
 70
     0
  9
$BLIPMODE
 70
     0
  9
$CHAMFERA
 40
0.0
  9
$CHAMFERB
 40
0.0
  9
$SKPOLY
 70
     0
  9
$TDCREATE
 40
2458060.468368056230247
  9
$TDUPDATE
 40
2459404.6085300929844379
  9
$TDINDWG
 40
0.4084329861
  9
$TDUSRTIMER
 40
0.4084329861
  9
$USRTIMER
 70
     1
  9
$ANGBASE
 50
0.0
  9
$ANGDIR
 70
     0
  9
$PDMODE
 70
     0
  9
$PDSIZE
 40
0.3125
  9
$PLINEWID
 40
0.0
  9
$COORDS
 70
     1
  9
$SPLFRAME
 70
     0
  9
$SPLINETYPE
 70
     6
  9
$SPLINESEGS
 70
     8
  9
$ATTDIA
 70
     1
  9
$ATTREQ
 70
     1
  9
$HANDLING
 70
     1
  9
$HANDSEED
  5
E8BC
  9
$SURFTAB1
 70
     6
  9
$SURFTAB2
 70
     6
  9
$SURFTYPE
 70
     6
  9
$SURFU
 70
     6
  9
$SURFV
 70
     6
  9
$UCSNAME
  2

  9
$UCSORG
 10
0.0
 20
0.0
 30
0.0
  9
$UCSXDIR
 10
1.0
 20
0.0
 30
0.0
  9
$UCSYDIR
 10
0.0
 20
1.0
 30
0.0
  9
$PUCSNAME
  2

  9
$PUCSORG
 10
0.0
 20
0.0
 30
0.0
  9
$PUCSXDIR
 10
1.0
 20
0.0
 30
0.0
  9
$PUCSYDIR
 10
0.0
 20
1.0
 30
0.0
  9
$USERI1
 70
     0
  9
$USERI2
 70
     0
  9
$USERI3
 70
     0
  9
$USERI4
 70
     0
  9
$USERI5
 70
     0
  9
$USERR1
 40
0.0
  9
$USERR2
 40
0.0
  9
$USERR3
 40
0.0
  9
$USERR4
 40
0.0
  9
$USERR5
 40
0.0
  9
$WORLDVIEW
 70
     1
  9
$SHADEDGE
 70
     3
  9
$SHADEDIF
 70
    70
  9
$TILEMODE
 70
     1
  9
$MAXACTVP
 70
    64
  9
$PLIMCHECK
 70
     0
  9
$PEXTMIN
 10
1.0000000000000000E+20
 20
1.0000000000000000E+20
 30
1.0000000000000000E+20
  9
$PEXTMAX
 10
-1.0000000000000000E+20
 20
-1.0000000000000000E+20
 30
-1.0000000000000000E+20
  9
$PLIMMIN
 10
0.0
 20
0.0
  9
$PLIMMAX
 10
12.0
 20
9.0
  9
$UNITMODE
 70
     0
  9
$VISRETAIN
 70
     1
  9
$PLINEGEN
 70
     0
  9
$PSLTSCALE
 70
     1
  0
ENDSEC
  0
SECTION
  2
TABLES
  0
TABLE
  2
VPORT
 70
     1
  0
VPORT
  2
*ACTIVE
 70
     0
 10
0.0
 20
0.0
 11
1.0
 21
1.0
 12
3078.9092425147318863
 22
1560.5518008268779795
 13
0.0
 23
0.0
 14
1.0
 24
1.0
 15
0.0
 25
0.0
 16
0.0
 26
0.0
 36
9.5192988075487186
 17
4815.2983398437490905
 27
247.8086242675780966
 37
0.0
 40
8.0825655443836695
 41
2.3947036569987379
 42
50.0
 43
0.0
 44
0.0
 50
0.0
 51
0.0
 71
     0
 72
   100
 73
     1
 74
     1
 75
     0
 76
     0
 77
     0
 78
     0
  0
ENDTAB
  0
TABLE
  2
LTYPE
 70
     2
  0
LTYPE
  2
CONTINUOUS
 70
     0
  3
Solid line
 72
    65
 73
     0
 40
0.0
  0
LTYPE
  2
PHANTOM2
 70
     0
  3
___ _ _ ___ _ _ ___ _ _ ___ _ _
 72
    65
 73
     6
 40
1.25
 49
0.625
 49
-0.125
 49
0.125
 49
-0.125
 49
0.125
 49
-0.125
  0
ENDTAB
  0
TABLE
  2
LAYER
 70
     2
  0
LAYER
  2
0
 70
     0
 62
   255
  6
CONTINUOUS
  0
LAYER
  2
DEFPOINTS
 70
     0
 62
     7
  6
CONTINUOUS
  0
ENDTAB
  0
TABLE
  2
STYLE
 70
     1
  0
STYLE
  2
STANDARD
 70
     0
 40
0.0
 41
0.8
 50
0.0
 71
     0
 42
0.2
  3
txt
  4

  0
ENDTAB
  0
TABLE
  2
VIEW
 70
     0
  0
ENDTAB
  0
TABLE
  2
UCS
 70
     0
  0
ENDTAB
  0
TABLE
  2
APPID
 70
    10
  0
APPID
  2
ACAD
 70
     0
  0
APPID
  2
ACAD_MLEADERVER
 70
     0
  0
APPID
  2
ACAD_EXEMPT_FROM_CAD_STANDARDS
 70
     0
  0
APPID
  2
ACAD_NAV_VCDISPLAY
 70
     0
  0
APPID
  2
ACAECLAYERSTANDARD
 70
     0
  0
APPID
  2
ACCMTRANSPARENCY
 70
     0
  0
APPID
  2
ACAD_DSTYLE_DIMJAG
 70
     0
  0
APPID
  2
ACAD_DSTYLE_DIMTALN
 70
     0
  0
APPID
  2
ACDBATTR
 70
     0
  0
APPID
  2
ACADANNOTATIVE
 70
     0
  0
ENDTAB
  0
TABLE
  2
DIMSTYLE
 70
     2
  0
DIMSTYLE
  2
STANDARD
 70
     0
  3

  4

  5

  6

  7

 40
1.0
 41
0.1875
 42
0.0625
 43
0.38
 44
0.125
 45
0.0
 46
0.0
 47
0.01
 48
0.01
140
0.15625
141
0.09
142
0.0
143
25.3999999999999986
144
1.0
145
0.0
146
1.0
147
0.09
 71
     1
 72
     0
 73
     1
 74
     1
 75
     0
 76
     0
 77
     0
 78
     4
170
     0
171
     2
172
     0
173
     0
174
     0
175
     0
176
     0
177
     0
178
     0
  0
DIMSTYLE
  2
ANNOTATIVE
 70
     0
  3

  4

  5

  6

  7

 40
0.0
 41
0.18
 42
0.0625
 43
0.38
 44
0.18
 45
0.0
 46
0.0
 47
0.0
 48
0.0
140
0.18
141
0.09
142
0.0
143
25.3999999999999986
144
1.0
145
0.0
146
1.0
147
0.09
 71
     0
 72
     0
 73
     1
 74
     1
 75
     0
 76
     0
 77
     0
 78
     0
170
     0
171
     2
172
     0
173
     0
174
     0
175
     0
176
     0
177
     0
178
     0
  0
ENDTAB
  0
ENDSEC
  0
SECTION
  2
BLOCKS
  0
BLOCK
  8
0
  2
$MODEL_SPACE
 70
     0
 10
0.0
 20
0.0
 30
0.0
  3
$MODEL_SPACE
  1

  0
ENDBLK
  5
21
  8
0
  0
BLOCK
 67
     1
  8
0
  2
$PAPER_SPACE
 70
     0
 10
0.0
 20
0.0
 30
0.0
  3
$PAPER_SPACE
  1

  0
ENDBLK
  5
1D
 67
     1
  8
0
  0
BLOCK
  8
0
  2
_FILLED
 70
     0
 10
0.0
 20
0.0
 30
0.0
  3
_FILLED
  1

  0
SOLID
  5
D8EA
  8
0
  6
BYBLOCK
 62
     0
 10
0.0
 20
0.0
 30
0.0
 11
-1.0
 21
0.1666666667
 31
0.0
 12
-1.0
 22
-0.1666666667
 32
0.0
 13
-1.0
 23
-0.1666666667
 33
0.0
  0
ENDBLK
  5
D8EB
  8
0
  6
BYBLOCK
 62
     0
  0
ENDSEC
  0
SECTION
  2
ENTITIES
  0
ATTDEF
  5
3930
  8
DEFPOINTS
 10
7894.198849001409144
 20
1812.3703982458559949
 30
0.0
 40
0.001
  1
K-18872T
  3

  2
MODELNUMBER
 70
     0
1001
ACDBATTR
1070
     0
1070
     1
  0
ATTDEF
  5
3931
  8
DEFPOINTS
 10
7894.198849001409144
 20
1812.3687315791898982
 30
0.0
 40
0.001
  1
ELEVATION
  3

  2
TRADENAME
 70
     0
1001
ACDBATTR
1070
     0
1070
     1
  0
ATTDEF
  5
3932
  8
DEFPOINTS
 10
7894.198849001409144
 20
1812.367064912522892
 30
0.0
 40
0.001
  1
BATHROOM SINK FAUCET
  3

  2
PRODUCT
 70
     0
1001
ACDBATTR
1070
     0
1070
     1
  0
LINE
  5
E7FD
  8
0
 10
7889.2666457751811322
 20
1812.3665622701560096
 30
0.0
 11
7891.2745189417819347
 21
1812.3665622701560096
 31
0.0
  0
LINE
  5
E7FE
  8
0
 10
7893.2036453505807003
 20
1812.3665622701560096
 30
0.0
 11
7895.2115193663830723
 21
1812.3665622701560096
 31
0.0
  0
ARC
  5
E7FF
  8
0
 10
7889.3051539718471759
 20
1812.1688499900510578
 30
0.0
 40
0.0385099860236249
 50
180.552333435289114
 51
269.4470079900189035
  0
LINE
  5
E800
  8
0
 10
7889.304782297282145
 20
1812.1303417976560013
 30
0.0
 11
7891.2359560268741916
 21
1812.1303417976560013
 31
0.0
  0
ARC
  5
E801
  8
0
 10
7891.2363122333172214
 20
1812.1685485101750146
 30
0.0
 40
0.0382083729641781
 50
269.4658390308554772
 51
359.4651873664881236
  0
ARC
  5
E802
  8
0
 10
7893.2421789159516265
 20
1812.168875362883
 30
0.0
 40
0.0385356063333181
 50
180.58969309000301
 51
269.4102862441566231
  0
LINE
  5
E803
  8
0
 10
7893.2417822972802242
 20
1812.1303417976560013
 30
0.0
 11
7895.1729560268731802
 21
1812.1303417976560013
 31
0.0
  0
ARC
  5
E804
  8
0
 10
7895.1726936900386136
 20
1812.1691674739049631
 30
0.0
 40
0.0388265625161366
 50
270.3871295037395726
 51
359.6128913067777262
  0
LINE
  5
E805
  8
0
 10
7889.4324493504827842
 20
1812.0115441818550153
 30
0.0
 11
7889.4456002877732317
 21
1810.6925830107029469
 31
0.0
  0
ARC
  5
E806
  8
0
 10
7889.516805806811135
 20
1812.0066714631188916
 30
0.0
 40
0.0844970716186315
 50
93.9113897805932254
 51
176.6940725302519866
  0
ARC
  5
E807
  8
0
 10
7889.6002703054900849
 20
1810.6912211425740225
 30
0.0
 40
0.1546760132183839
 50
179.4955242082087068
 51
267.0348653325146984
  0
LINE
  5
E808
  8
0
 10
7889.5110419558322974
 20
1812.0909717189560979
 30
0.0
 11
7891.0307662509931106
 21
1812.0909717189560979
 31
0.0
  0
ARC
  5
E809
  8
0
 10
7891.0223443153136031
 20
1812.0047436699119316
 30
0.0
 40
0.0866383601096262
 50
4.5019533199794646
 51
84.4215867902052253
  0
ARC
  5
E80A
  8
0
 10
7890.2705838322463023
 20
1821.7030731173990716
 30
0.0
 40
11.1869045481033904
 50
266.5237550235893877
 51
273.4762449764106123
  0
LINE
  5
E80B
  8
0
 10
7891.1087153664821017
 20
1812.0115441818559248
 30
0.0
 11
7891.0972019663313404
 21
1810.6925830107029469
 31
0.0
  0
ARC
  5
E80C
  8
0
 10
7890.9397453611336459
 20
1810.6939484804520362
 30
0.0
 40
0.1574625257903438
 50
273.3324178022044748
 51
359.5031412466532856
  0
LINE
  5
E80D
  8
0
 10
7889.6308185788811898
 20
1812.0909717189560979
 30
0.0
 11
7889.6308185788811898
 21
1812.1303417976560013
 31
0.0
  0
LINE
  5
E80E
  8
0
 10
7890.9103461379818327
 20
1812.1303417976560013
 30
0.0
 11
7890.9103461379818327
 21
1812.0909717189560979
 31
0.0
  0
LINE
  5
E80F
  8
0
 10
7889.5922691835821752
 20
1810.5367522100559654
 30
0.0
 11
7890.948898480911339
 21
1810.5367522100559654
 31
0.0
  0
CIRCLE
  5
E810
  8
0
 10
7890.2705823584819882
 20
1810.7917591204559358
 30
0.0
 40
0.0492125984
  0
CIRCLE
  5
E811
  8
0
 10
7890.2705823584819882
 20
1810.7917591204559358
 30
0.0
 40
0.056928911042988
  0
LINE
  5
E812
  8
0
 10
7893.4792379680338854
 20
1812.1303417976560013
 30
0.0
 11
7893.7310300103781628
 21
1805.7413164977920133
 31
0.0
  0
LINE
  5
E813
  8
0
 10
7893.7508895696837499
 20
1805.0075843838089895
 30
0.0
 11
7893.7310300103781628
 21
1805.7413164977920133
 31
0.0
  0
ARC
  5
E814
  8
0
 10
7894.24844383294203
 20
1805.0529066225960833
 30
0.0
 40
0.4996142013757862
 50
185.2047114977908961
 51
265.3087643764374093
  0
ARC
  5
E815
  8
0
 10
7894.2206116041770656
 20
1804.8411526366289763
 30
0.0
 40
0.4772203380465684
 50
196.2167799422039991
 51
268.4355077384358879
  0
ARC
  5
E816
  8
0
 10
7894.2078380812135947
 20
1804.8054776352369117
 30
0.0
 40
0.4560257638815829
 50
192.3581422050766037
 51
269.9678706002383137
  0
ARC
  5
E817
  8
0
 10
7894.155380286442778
 20
1804.8036027527800798
 30
0.0
 40
0.4044913463196357
 50
186.1476838187608109
 51
193.6891488204157952
  0
LINE
  5
E818
  8
0
 10
7894.9359267489317062
 20
1812.1303417976560013
 30
0.0
 11
7894.6841347065837908
 21
1805.7413164977920133
 31
0.0
  0
LINE
  5
E819
  8
0
 10
7894.6642751472809323
 20
1805.0075843838089895
 30
0.0
 11
7894.6841347065837908
 21
1805.7413164977920133
 31
0.0
  0
ARC
  5
E81A
  8
0
 10
7894.1945531057854168
 20
1804.8411526377090013
 30
0.0
 40
0.4772203450702663
 50
271.5645183881579214
 51
343.7832201680466255
  0
ARC
  5
E81B
  8
0
 10
7894.207326635750178
 20
1804.8054776352369117
 30
0.0
 40
0.4560257638815829
 50
270.0321293997616863
 51
347.6418577949232827
  0
LINE
  5
E81C
  8
0
 10
7893.7508895696837499
 20
1805.0075843838089895
 30
0.0
 11
7893.7532151040777535
 21
1804.7602851427320729
 31
0.0
  0
ARC
  5
E81D
  8
0
 10
7894.1667236804896675
 20
1805.0529038009528904
 30
0.0
 40
0.4996111604800524
 50
274.6909424617580271
 51
354.7955816639084219
  0
ARC
  5
E81E
  8
0
 10
7894.2597844305209946
 20
1804.8036027527800798
 30
0.0
 40
0.4044913463196357
 50
346.3108511795841764
 51
353.8523161812391891
  0
LINE
  5
E81F
  8
0
 10
7894.6642751472809323
 20
1805.0075843838089895
 30
0.0
 11
7894.6619496128878382
 21
1804.7602851427320729
 31
0.0
  0
LINE
  5
E820
  8
0
 10
7893.2036453505807003
 20
1812.3665622701560096
 30
0.0
 11
7893.2036453505807003
 21
1812.1684787581100409
 31
0.0
  0
LINE
  5
E821
  8
0
 10
7895.2115193663830723
 20
1812.3665622701560096
 30
0.0
 11
7895.2115193663830723
 21
1812.1689051511709749
 31
0.0
  0
LINE
  5
E823
  8
0
 10
7889.2666457751811322
 20
1812.1684787581100409
 30
0.0
 11
7889.2666457751811322
 21
1812.3665622701560096
 31
0.0
  0
LINE
  5
E824
  8
0
 10
7891.2745189417819347
 20
1812.1681918691799638
 30
0.0
 11
7891.2745189417819347
 21
1812.3665622701560096
 31
0.0
  0
LINE
  5
E825
  8
0
 10
7897.140645775181838
 20
1812.3665622701560096
 30
0.0
 11
7899.1485189417826405
 21
1812.3665622701560096
 31
0.0
  0
ARC
  5
E826
  8
0
 10
7897.1791539718469721
 20
1812.1688499900510578
 30
0.0
 40
0.0385099860236249
 50
180.552333435289114
 51
269.4470079900189035
  0
LINE
  5
E827
  8
0
 10
7897.1787822972810318
 20
1812.1303417976560013
 30
0.0
 11
7899.1099560268730784
 21
1812.1303417976560013
 31
0.0
  0
ARC
  5
E828
  8
0
 10
7899.1103122333170177
 20
1812.1685485101750146
 30
0.0
 40
0.0382083729641781
 50
269.4658390308554772
 51
359.4651873664881236
  0
LINE
  5
E829
  8
0
 10
7897.306449350481671
 20
1812.0115441818550153
 30
0.0
 11
7897.3196002877739375
 21
1810.6925830107029469
 31
0.0
  0
ARC
  5
E82A
  8
0
 10
7897.3908058068109312
 20
1812.0066714631188916
 30
0.0
 40
0.0844970716186315
 50
93.9113897805932254
 51
176.6940725302519866
  0
ARC
  5
E82B
  8
0
 10
7897.4742703054898811
 20
1810.6912211425740225
 30
0.0
 40
0.1546760132183839
 50
179.4955242082087068
 51
267.0348653325146984
  0
LINE
  5
E82C
  8
0
 10
7897.3850419558320937
 20
1812.0909717189560979
 30
0.0
 11
7898.9047662509947259
 21
1812.0909717189560979
 31
0.0
  0
ARC
  5
E82D
  8
0
 10
7898.8963443153143089
 20
1812.0047436699119316
 30
0.0
 40
0.0866383601096262
 50
4.5019533199794646
 51
84.4215867902052253
  0
ARC
  5
E82E
  8
0
 10
7898.1445838322451891
 20
1821.7030731173990716
 30
0.0
 40
11.1869045481033904
 50
266.5237550235893877
 51
273.4762449764106123
  0
LINE
  5
E82F
  8
0
 10
7898.9827153664818979
 20
1812.0115441818559248
 30
0.0
 11
7898.9712019663320461
 21
1810.6925830107029469
 31
0.0
  0
ARC
  5
E830
  8
0
 10
7898.8137453611334422
 20
1810.6939484804520362
 30
0.0
 40
0.1574625257903438
 50
273.3324178022044748
 51
359.5031412466532856
  0
LINE
  5
E831
  8
0
 10
7897.5048185788800765
 20
1812.0909717189560979
 30
0.0
 11
7897.5048185788800765
 21
1812.1303417976560013
 31
0.0
  0
LINE
  5
E832
  8
0
 10
7898.784346137983448
 20
1812.1303417976560013
 30
0.0
 11
7898.784346137983448
 21
1812.0909717189560979
 31
0.0
  0
LINE
  5
E833
  8
0
 10
7897.466269183581062
 20
1810.5367522100559654
 30
0.0
 11
7898.8228984809111353
 21
1810.5367522100559654
 31
0.0
  0
CIRCLE
  5
E834
  8
0
 10
7898.1445823584817845
 20
1810.7917591204559358
 30
0.0
 40
0.0492125984
  0
CIRCLE
  5
E835
  8
0
 10
7898.1445823584817845
 20
1810.7917591204559358
 30
0.0
 40
0.056928911042988
  0
LINE
  5
E836
  8
0
 10
7897.140645775181838
 20
1812.1684787581100409
 30
0.0
 11
7897.140645775181838
 21
1812.3665622701560096
 31
0.0
  0
LINE
  5
E837
  8
0
 10
7899.1485189417826405
 20
1812.1681918691799638
 30
0.0
 11
7899.1485189417826405
 21
1812.3665622701560096
 31
0.0
  0
ENDSEC
  0
EOF
