  0
SECTION
  2
HEADER
  9
$ACADVER
  1
AC1009
  9
$INSBASE
 10
3546.834965937142897
 20
185.2730419608006969
 30
0.0
  9
$EXTMIN
 10
3539.545671108751776
 20
167.3172855945576885
 30
-0.0015258207003583
  9
$EXTMAX
 10
3554.1880235466869635
 20
185.2836160348306862
 30
0.0000000349246037
  9
$LIMMIN
 10
0.0
 20
0.0
  9
$LIMMAX
 10
11.6929133858000007
 20
8.2677165353999982
  9
$ORTHOMODE
 70
     0
  9
$REGENMODE
 70
     1
  9
$FILLMODE
 70
     1
  9
$QTEXTMODE
 70
     0
  9
$MIRRTEXT
 70
     0
  9
$DRAGMODE
 70
     2
  9
$LTSCALE
 40
0.6431102362
  9
$OSMODE
 70
  4095
  9
$ATTMODE
 70
     1
  9
$TEXTSIZE
 40
0.2
  9
$TRACEWID
 40
0.05
  9
$TEXTSTYLE
  7
STANDARD
  9
$CLAYER
  8
0
  9
$CELTYPE
  6
BYLAYER
  9
$CECOLOR
 62
   256
  9
$DIMSCALE
 40
1.0
  9
$DIMASZ
 40
0.1875
  9
$DIMEXO
 40
0.0625
  9
$DIMDLI
 40
0.4443307087
  9
$DIMRND
 40
0.0
  9
$DIMDLE
 40
0.0
  9
$DIMEXE
 40
0.125
  9
$DIMTP
 40
0.01
  9
$DIMTM
 40
0.01
  9
$DIMTXT
 40
2.0
  9
$DIMCEN
 40
0.1052362205
  9
$DIMTSZ
 40
0.0
  9
$DIMTOL
 70
     1
  9
$DIMLIM
 70
     0
  9
$DIMTIH
 70
     1
  9
$DIMTOH
 70
     1
  9
$DIMSE1
 70
     0
  9
$DIMSE2
 70
     0
  9
$DIMTAD
 70
     0
  9
$DIMZIN
 70
     0
  9
$DIMBLK
  1

  9
$DIMASO
 70
     1
  9
$DIMSHO
 70
     1
  9
$DIMPOST
  1
\X
  9
$DIMAPOST
  1

  9
$DIMALT
 70
     1
  9
$DIMALTD
 70
     2
  9
$DIMALTF
 40
25.3999999999999986
  9
$DIMLFAC
 40
1.0
  9
$DIMTOFL
 70
     0
  9
$DIMTVP
 40
0.0
  9
$DIMTIX
 70
     0
  9
$DIMSOXD
 70
     0
  9
$DIMSAH
 70
     0
  9
$DIMBLK1
  1

  9
$DIMBLK2
  1

  9
$DIMSTYLE
  2
STANDARD
  9
$DIMCLRD
 70
     0
  9
$DIMCLRE
 70
     0
  9
$DIMCLRT
 70
     0
  9
$DIMTFAC
 40
1.0
  9
$DIMGAP
 40
0.09
  9
$LUNITS
 70
     2
  9
$LUPREC
 70
     4
  9
$SKETCHINC
 40
0.1
  9
$FILLETRAD
 40
0.0
  9
$AUNITS
 70
     0
  9
$AUPREC
 70
     0
  9
$MENU
  1
.
  9
$ELEVATION
 40
0.0
  9
$PELEVATION
 40
0.0
  9
$THICKNESS
 40
0.0
  9
$LIMCHECK
 70
     0
  9
$BLIPMODE
 70
     0
  9
$CHAMFERA
 40
0.0
  9
$CHAMFERB
 40
0.0
  9
$SKPOLY
 70
     0
  9
$TDCREATE
 40
2458060.468368056230247
  9
$TDUPDATE
 40
2459091.4585648151114583
  9
$TDINDWG
 40
0.5580626157
  9
$TDUSRTIMER
 40
0.5580626157
  9
$USRTIMER
 70
     1
  9
$ANGBASE
 50
0.0
  9
$ANGDIR
 70
     0
  9
$PDMODE
 70
     0
  9
$PDSIZE
 40
0.3125
  9
$PLINEWID
 40
0.0
  9
$COORDS
 70
     1
  9
$SPLFRAME
 70
     0
  9
$SPLINETYPE
 70
     6
  9
$SPLINESEGS
 70
     8
  9
$ATTDIA
 70
     1
  9
$ATTREQ
 70
     1
  9
$HANDLING
 70
     1
  9
$HANDSEED
  5
102B4
  9
$SURFTAB1
 70
     6
  9
$SURFTAB2
 70
     6
  9
$SURFTYPE
 70
     6
  9
$SURFU
 70
     6
  9
$SURFV
 70
     6
  9
$UCSNAME
  2

  9
$UCSORG
 10
0.0
 20
0.0
 30
0.0
  9
$UCSXDIR
 10
1.0
 20
0.0
 30
0.0
  9
$UCSYDIR
 10
0.0
 20
1.0
 30
0.0
  9
$PUCSNAME
  2

  9
$PUCSORG
 10
0.0
 20
0.0
 30
0.0
  9
$PUCSXDIR
 10
1.0
 20
0.0
 30
0.0
  9
$PUCSYDIR
 10
0.0
 20
1.0
 30
0.0
  9
$USERI1
 70
     0
  9
$USERI2
 70
     0
  9
$USERI3
 70
     0
  9
$USERI4
 70
     0
  9
$USERI5
 70
     0
  9
$USERR1
 40
0.0
  9
$USERR2
 40
0.0
  9
$USERR3
 40
0.0
  9
$USERR4
 40
0.0
  9
$USERR5
 40
0.0
  9
$WORLDVIEW
 70
     1
  9
$SHADEDGE
 70
     3
  9
$SHADEDIF
 70
    70
  9
$TILEMODE
 70
     1
  9
$MAXACTVP
 70
    64
  9
$PLIMCHECK
 70
     0
  9
$PEXTMIN
 10
1.0000000000000000E+20
 20
1.0000000000000000E+20
 30
1.0000000000000000E+20
  9
$PEXTMAX
 10
-1.0000000000000000E+20
 20
-1.0000000000000000E+20
 30
-1.0000000000000000E+20
  9
$PLIMMIN
 10
0.0
 20
0.0
  9
$PLIMMAX
 10
12.0
 20
9.0
  9
$UNITMODE
 70
     0
  9
$VISRETAIN
 70
     1
  9
$PLINEGEN
 70
     0
  9
$PSLTSCALE
 70
     1
  0
ENDSEC
  0
SECTION
  2
TABLES
  0
TABLE
  2
VPORT
 70
     1
  0
VPORT
  2
*ACTIVE
 70
     0
 10
0.0
 20
0.0
 11
1.0
 21
1.0
 12
243.1737320933443982
 22
-18.9610607611935507
 13
0.0
 23
0.0
 14
1.0
 24
1.0
 15
0.0
 25
0.0
 16
0.0
 26
0.0
 36
96.5995694866707311
 17
3303.693115234375
 27
195.2615115758877096
 37
0.0
 40
18.1158422053793515
 41
2.6486111111111108
 42
50.0
 43
0.0
 44
0.0
 50
0.0
 51
0.0
 71
     0
 72
   100
 73
     1
 74
     1
 75
     0
 76
     0
 77
     0
 78
     0
  0
ENDTAB
  0
TABLE
  2
LTYPE
 70
     2
  0
LTYPE
  2
CONTINUOUS
 70
     0
  3
Solid line
 72
    65
 73
     0
 40
0.0
  0
LTYPE
  2
PHANTOM2
 70
     0
  3
___ _ _ ___ _ _ ___ _ _ ___ _ _
 72
    65
 73
     6
 40
1.25
 49
0.625
 49
-0.125
 49
0.125
 49
-0.125
 49
0.125
 49
-0.125
  0
ENDTAB
  0
TABLE
  2
LAYER
 70
     2
  0
LAYER
  2
0
 70
     0
 62
   255
  6
CONTINUOUS
  0
LAYER
  2
DEFPOINTS
 70
     0
 62
     7
  6
CONTINUOUS
  0
ENDTAB
  0
TABLE
  2
STYLE
 70
     1
  0
STYLE
  2
STANDARD
 70
     0
 40
0.0
 41
0.8
 50
0.0
 71
     0
 42
0.2
  3
txt
  4

  0
ENDTAB
  0
TABLE
  2
VIEW
 70
     0
  0
ENDTAB
  0
TABLE
  2
UCS
 70
     0
  0
ENDTAB
  0
TABLE
  2
APPID
 70
     9
  0
APPID
  2
ACAD
 70
     0
  0
APPID
  2
ACAD_MLEADERVER
 70
     0
  0
APPID
  2
ACAD_EXEMPT_FROM_CAD_STANDARDS
 70
     0
  0
APPID
  2
ACAD_NAV_VCDISPLAY
 70
     0
  0
APPID
  2
ACAECLAYERSTANDARD
 70
     0
  0
APPID
  2
ACCMTRANSPARENCY
 70
     0
  0
APPID
  2
ACAD_DSTYLE_DIMJAG
 70
     0
  0
APPID
  2
ACAD_DSTYLE_DIMTALN
 70
     0
  0
APPID
  2
ACDBATTR
 70
     0
  0
ENDTAB
  0
TABLE
  2
DIMSTYLE
 70
     1
  0
DIMSTYLE
  2
STANDARD
 70
     0
  3

  4

  5

  6

  7

 40
1.0
 41
0.1875
 42
0.0625
 43
0.38
 44
0.125
 45
0.0
 46
0.0
 47
0.01
 48
0.01
140
0.15625
141
0.09
142
0.0
143
25.3999999999999986
144
1.0
145
0.0
146
1.0
147
0.09
 71
     1
 72
     0
 73
     1
 74
     1
 75
     0
 76
     0
 77
     0
 78
     4
170
     0
171
     2
172
     0
173
     0
174
     0
175
     0
176
     0
177
     0
178
     0
  0
ENDTAB
  0
ENDSEC
  0
SECTION
  2
BLOCKS
  0
BLOCK
  8
0
  2
$MODEL_SPACE
 70
     0
 10
0.0
 20
0.0
 30
0.0
  3
$MODEL_SPACE
  1

  0
ENDBLK
  5
21
  8
0
  0
BLOCK
 67
     1
  8
0
  2
$PAPER_SPACE
 70
     0
 10
0.0
 20
0.0
 30
0.0
  3
$PAPER_SPACE
  1

  0
ENDBLK
  5
1D
 67
     1
  8
0
  0
BLOCK
  8
0
  2
_FILLED
 70
     0
 10
0.0
 20
0.0
 30
0.0
  3
_FILLED
  1

  0
SOLID
  5
9E2C
  8
0
  6
BYBLOCK
 62
     0
 10
0.0
 20
0.0
 30
0.0
 11
-1.0
 21
0.1666666667
 31
0.0
 12
-1.0
 22
-0.1666666667
 32
0.0
 13
-1.0
 23
-0.1666666667
 33
0.0
  0
ENDBLK
  5
9E2D
  8
0
  6
BYBLOCK
 62
     0
  0
BLOCK
  8
0
  2
A$C6B0F1CD5
 70
     2
 10
0.0
 20
0.0
 30
0.0
  3
A$C6B0F1CD5
  1

  0
ATTDEF
  5
B779
  8
DEFPOINTS
 10
0.0005209962714616
 20
0.000347009907216
 30
0.0
 40
0.001
  1
BATH FAUCET
  3

  2
PRODUCT
 70
     0
1001
ACDBATTR
1070
     0
1070
     1
  0
ATTDEF
  5
B77A
  8
DEFPOINTS
 10
0.0005209962714616
 20
0.0020136765738812
 30
0.0
 40
0.001
  1
SINGULIER
  3

  2
TRADENAME
 70
     0
1001
ACDBATTR
1070
     0
1070
     1
  0
ATTDEF
  5
B77B
  8
DEFPOINTS
 10
0.0005209962714616
 20
0.0036803432405463
 30
0.0
 40
0.001
  1
K-10873W
  3

  2
MODELNUMBER
 70
     0
1001
ACDBATTR
1070
     0
1070
     1
  0
ENDBLK
  5
B77F
  8
0
  0
ENDSEC
  0
SECTION
  2
ENTITIES
  0
ATTDEF
  5
FB41
  8
DEFPOINTS
 10
3546.8358435064819787
 20
185.277201979858603
 30
0.0
 40
0.001
  1
K-1877IN
  3

  2
MODELNUMBER
 70
     0
1001
ACDBATTR
1070
     0
1070
     1
  0
ATTDEF
  5
FB42
  8
DEFPOINTS
 10
3546.8358435064819787
 20
185.2755353131919094
 30
0.0
 40
0.001
  1
BRIVE
  3

  2
TRADENAME
 70
     0
1001
ACDBATTR
1070
     0
1070
     1
  0
ATTDEF
  5
FB43
  8
DEFPOINTS
 10
3546.8358435064819787
 20
185.2738686465253011
 30
0.0
 40
0.001
  1
TOILET SEAT
  3

  2
PRODUCT
 70
     0
1001
ACDBATTR
1070
     0
1070
     1
  0
LINE
  5
10023
  8
0
 10
3550.6459895713928745
 20
185.1489948857920069
 30
0.0
 11
3543.0239423028929195
 21
185.1489948857920069
 31
0.0
  0
ARC
  5
10024
  8
0
 10
3541.9657198328482082
 20
185.0378848832577034
 30
0.0
 40
0.2332870360212676
 50
128.9708799652775895
 51
156.6148110855174025
  0
ARC
  5
10025
  8
0
 10
3541.8936245124991729
 20
185.1173221812412066
 30
0.0
 40
0.1263316345489081
 50
90.4304396284003644
 51
126.2070970790417022
  0
LINE
  5
10026
  8
0
 10
3541.8926754438098214
 20
185.2436502507920011
 30
0.0
 11
3542.544094011092966
 21
185.2436500412919997
 31
0.0
  0
ARC
  5
10027
  8
0
 10
3542.5437673483520484
 20
185.2388710343010985
 30
0.0
 40
0.0047901582817846
 50
33.1352201082113069
 51
86.0897046685999641
  0
ARC
  5
10028
  8
0
 10
3542.5436005950778053
 20
185.2388621000478963
 30
0.0
 40
0.0049353874913771
 50
15.1724933465090395
 51
32.1638483480091608
  0
LINE
  5
10029
  8
0
 10
3542.5483639460931045
 20
185.240153818592006
 30
0.0
 11
3542.5679345110929717
 21
185.1613047381920012
 31
0.0
  0
ARC
  5
1002A
  8
0
 10
3542.544103001179792
 20
185.2434749057092063
 30
0.0
 40
0.0001740693040951
 50
75.3053038163341597
 51
85.5592200427732053
  0
ARC
  5
1002B
  8
0
 10
3542.5440738678407797
 20
185.2433638141320102
 30
0.0
 40
0.0002889174209043
 50
42.035479803431393
 51
75.3053038164696744
  0
ARC
  5
1002C
  8
0
 10
3542.5434217795268523
 20
185.2427759395999942
 30
0.0
 40
0.0011668784869778
 50
17.3189302332145303
 51
42.0354798034006265
  0
ARC
  5
1002D
  8
0
 10
3542.5216920433990708
 20
185.2360000037886039
 30
0.0
 40
0.0239285730273407
 50
16.2157825855664406
 51
17.3189302332145303
  0
LINE
  5
1002E
  8
0
 10
3542.5446686611931
 20
185.2426821921920066
 30
0.0
 11
3542.5649347589928766
 21
185.1614742676920002
 31
0.0
  0
ARC
  5
1002F
  8
0
 10
3543.060955234658195
 20
193.8241928449893123
 30
0.0
 40
8.6769078283528351
 50
266.7228669380961037
 51
267.2985670933318261
  0
ARC
  5
10030
  8
0
 10
3542.9968272793262258
 20
192.6513029797197021
 30
0.0
 40
7.5023040910606014
 50
267.3655956492622181
 51
270.0077803770947185
  0
ARC
  5
10031
  8
0
 10
3543.0172781138498976
 20
226.058715580791187
 30
0.0
 40
40.9097212377969868
 50
269.9727851890194188
 51
270.0093334761579058
  0
ARC
  5
10032
  8
0
 10
3542.7036429795998629
 20
184.9717234054197945
 30
0.0
 40
0.1963299419835433
 50
105.6839529651358021
 51
108.8750533787592047
  0
ARC
  5
10033
  8
0
 10
3542.8947786624908076
 20
184.1227480898419913
 30
0.0
 40
1.0663361760466259
 50
94.968191217180518
 51
103.2392386449464965
  0
ARC
  5
10034
  8
0
 10
3377.9593033892988387
 20
2130.9373124510639173
 30
0.0
 40
1952.722462295377909
 50
274.8425055193162052
 51
274.847839408652078
  0
ARC
  5
10035
  8
0
 10
3540.9247178520881789
 20
184.4667350117155991
 30
0.0
 40
2.1856751996065178
 50
18.5909292689896191
 51
19.614167259608049
  0
ARC
  5
10036
  8
0
 10
3542.8910133071899509
 20
185.1451941915703117
 30
0.0
 40
0.1069160225347139
 50
2.039378414844002
 51
9.8849523154378556
  0
LINE
  5
10037
  8
0
 10
3543.0239423028929195
 20
185.1489948857920069
 30
0.0
 11
3543.0239423028929195
 21
185.2336718820914996
 31
0.0
  0
ARC
  5
10038
  8
0
 10
3543.0633123815928229
 20
185.2336718820914996
 30
0.0
 40
0.0393700787004779
 50
90.0000000007034942
 51
180.0000000000015916
  0
LINE
  5
10039
  8
0
 10
3543.0633123815928229
 20
185.2730419607919998
 30
0.0
 11
3544.5003202555931239
 21
185.2730419608093939
 31
0.0
  0
ARC
  5
1003A
  8
0
 10
3544.5003202555940334
 20
185.2336718821113095
 30
0.0
 40
0.0393700786981555
 50
4.065969373211713
 51
90.0000000007034942
  0
LINE
  5
1003B
  8
0
 10
3544.5395912426638461
 20
185.2364634177504001
 30
0.0
 11
3544.5396903343930717
 21
185.1489948857920069
 31
0.0
  0
ARC
  5
1003C
  8
0
 10
3574.4115683453328529
 20
256.8626076057336718
 30
0.0
 40
78.770150752532615
 50
245.5228437711095069
 51
245.5698753685367137
  0
ARC
  5
1003D
  8
0
 10
3542.2222039737398518
 20
186.2194788109700028
 30
0.0
 40
1.142571812412092
 50
250.1139988224350077
 51
263.2060184632632058
  0
ARC
  5
1003E
  8
0
 10
3543.3991808916512127
 20
195.3639824539667984
 30
0.0
 40
10.3624627277664594
 50
262.725415472731413
 51
267.7638713333881242
  0
ARC
  5
1003F
  8
0
 10
3544.2519438356848696
 20
211.8652429550172087
 30
0.0
 40
26.8852374331818709
 50
267.3200197300566856
 51
268.6332636701271213
  0
ARC
  5
10040
  8
0
 10
3542.5847532955390307
 20
184.7239203894368984
 30
0.0
 40
0.9270607233290395
 50
153.9888648879287132
 51
162.3952717713841025
  0
ARC
  5
10041
  8
0
 10
3686.3754391681309244
 20
142.3876144616870931
 30
0.0
 40
150.8205685720847953
 50
163.5866165132721051
 51
164.0379484898913063
  0
ARC
  5
10042
  8
0
 10
3505.8798841041320884
 20
193.259742995544201
 30
0.0
 40
36.7142950854728696
 50
339.9096474827604766
 51
345.1705639156264738
  0
ARC
  5
10043
  8
0
 10
3552.0324233880569409
 20
176.3343768953164954
 30
0.0
 40
12.4439199995889709
 50
159.7161564481847051
 51
179.8034356871739874
  0
ARC
  5
10044
  8
0
 10
3550.0472024834639342
 20
176.3796450646676135
 30
0.0
 40
10.4586261821637692
 50
180.0141174628116119
 51
223.2552405229045007
  0
ARC
  5
10045
  8
0
 10
3546.8349659248929129
 20
173.3832781812918995
 30
0.0
 40
6.0658978736999858
 50
223.4338088525425974
 51
270.0000001157106908
  0
ARC
  5
10046
  8
0
 10
3551.7042120414380406
 20
185.0378848832577034
 30
0.0
 40
0.2332870360212676
 50
23.3851889144826117
 51
51.0291200347223679
  0
ARC
  5
10047
  8
0
 10
3551.7763073617870759
 20
185.1173221812412066
 30
0.0
 40
0.1263316345489081
 50
53.7929029209583121
 51
89.569560371599664
  0
LINE
  5
10048
  8
0
 10
3551.7772564304759726
 20
185.2436502507920011
 30
0.0
 11
3551.1258378631928281
 21
185.2436500412919997
 31
0.0
  0
ARC
  5
10049
  8
0
 10
3551.1261645259342004
 20
185.2388710343010985
 30
0.0
 40
0.0047901582817846
 50
93.9102953314000217
 51
146.864779891788686
  0
ARC
  5
1004A
  8
0
 10
3551.1263312792079887
 20
185.2388621000478963
 30
0.0
 40
0.0049353874913771
 50
147.8361516519908037
 51
164.8275066534910138
  0
LINE
  5
1004B
  8
0
 10
3551.1215679281931443
 20
185.240153818592006
 30
0.0
 11
3551.1019973631928224
 21
185.1613047381920012
 31
0.0
  0
ARC
  5
1004C
  8
0
 10
3550.6089766396280538
 20
193.8241928449893123
 30
0.0
 40
8.6769078283528351
 50
272.7014329066681739
 51
273.2572898521381148
  0
ARC
  5
1004D
  8
0
 10
3550.673104594960023
 20
192.6513029797197021
 30
0.0
 40
7.5023040910606014
 50
269.9922196229052815
 51
272.6344043507377819
  0
ARC
  5
1004E
  8
0
 10
3550.6526537604358964
 20
226.058715580791187
 30
0.0
 40
40.9097212377969868
 50
269.9906665238420942
 51
270.0272148109805812
  0
ARC
  5
1004F
  8
0
 10
3550.9662888946868406
 20
184.9717234054197945
 30
0.0
 40
0.1963299419835433
 50
71.1249466212406958
 51
74.3160470348641979
  0
ARC
  5
10050
  8
0
 10
3550.7751532117949864
 20
184.1227480898419913
 30
0.0
 40
1.0663361760466259
 50
76.7607613550534893
 51
85.0318087828194678
  0
ARC
  5
10051
  8
0
 10
3715.7106284849869553
 20
2130.9373124510639173
 30
0.0
 40
1952.722462295377909
 50
265.152160591347922
 51
265.1574944806836811
  0
ARC
  5
10052
  8
0
 10
3552.7452140221980699
 20
184.4667350117155991
 30
0.0
 40
2.1856751996065178
 50
160.3858327403918906
 51
161.409070731010388
  0
ARC
  5
10053
  8
0
 10
3550.7789185670972074
 20
185.1451941915703117
 30
0.0
 40
0.1069160225347139
 50
170.1150476845620858
 51
177.9606173762969945
  0
LINE
  5
10054
  8
0
 10
3550.6459895713928745
 20
185.1489948857920069
 30
0.0
 11
3550.6459895713928745
 21
185.2336718820914996
 31
0.0
  0
ARC
  5
10055
  8
0
 10
3550.6066194926920616
 20
185.2336718820914996
 30
0.0
 40
0.0393700787004779
 50
359.9999999999984084
 51
89.9999999992965058
  0
LINE
  5
10056
  8
0
 10
3550.6066194926929711
 20
185.2730419607919998
 30
0.0
 11
3549.1696116186931249
 21
185.2730419608093939
 31
0.0
  0
ARC
  5
10057
  8
0
 10
3549.1696116186931249
 20
185.2336718821113095
 30
0.0
 40
0.0393700786981555
 50
89.9999999992965058
 51
175.9340306267883136
  0
LINE
  5
10058
  8
0
 10
3549.130340631621948
 20
185.2364634177504001
 30
0.0
 11
3549.1302415398931771
 21
185.1489948857920069
 31
0.0
  0
ARC
  5
10059
  8
0
 10
3519.2583635289538506
 20
256.8626076057336718
 30
0.0
 40
78.770150752532615
 50
294.4301246314631726
 51
294.4771562288905216
  0
ARC
  5
1005A
  8
0
 10
3551.4477279005459422
 20
186.2194788109700028
 30
0.0
 40
1.142571812412092
 50
276.7939815367366805
 51
289.886001177565106
  0
ARC
  5
1005B
  8
0
 10
3550.2707509826350361
 20
195.3639824539667984
 30
0.0
 40
10.3624627277664594
 50
272.2361286666118758
 51
277.274584527268587
  0
ARC
  5
1005C
  8
0
 10
3549.4179880386009245
 20
211.8652429550172087
 30
0.0
 40
26.8852374331818709
 50
271.3667363298728787
 51
272.6799802699432007
  0
ARC
  5
1005D
  8
0
 10
3551.0851785787472181
 20
184.7239203894368984
 30
0.0
 40
0.9270607233290395
 50
17.6047282286159401
 51
26.0111351120713294
  0
ARC
  5
1005E
  8
0
 10
3407.2944927061557792
 20
142.3876144616870931
 30
0.0
 40
150.8205685720847953
 50
15.9620515101086795
 51
16.4133834867279482
  0
ARC
  5
1005F
  8
0
 10
3587.7900477701541604
 20
193.259742995544201
 30
0.0
 40
36.7142950854728696
 50
194.8294360843734125
 51
200.090352517239495
  0
ARC
  5
10060
  8
0
 10
3541.6388105838168485
 20
176.3346428089948006
 30
0.0
 40
12.4426064663678595
 50
0.1805750134767188
 51
20.2847736128446314
  0
ARC
  5
10061
  8
0
 10
3543.6227215415779028
 20
176.3796500546268931
 30
0.0
 40
10.4586353182010203
 50
316.744769033822422
 51
359.9682649678206872
  0
ARC
  5
10062
  8
0
 10
3546.8349659493928812
 20
173.3832781812918995
 30
0.0
 40
6.0658978736999858
 50
269.9999998842893092
 51
316.5661911474574026
  0
ARC
  5
10064
  8
0
 10
3631.9951269788211903
 20
6167.9533512713142045
 30
0.0
 40
5983.6184990401507093
 50
269.1536492859972896
 51
269.1845264618096962
  0
ARC
  5
10065
  8
0
 10
3422.3162977919278092
 20
8881.7400874779541482
 30
0.0
 40
8697.6905639926098956
 50
270.8202910681791877
 51
270.8415331713875958
  0
ENDSEC
  0
EOF
