  0
SECTION
  2
HEADER
  9
$ACADVER
  1
AC1009
  9
$INSBASE
 10
4373.5948593532866653
 20
230.1210334619219964
 30
0.0
  9
$EXTMIN
 10
4367.4481699108118846
 20
230.105616484816295
 30
-0.0000000349181948
  9
$EXTMAX
 10
4374.7908819662006863
 20
235.1654062781177004
 30
0.0000000814935746
  9
$LIMMIN
 10
0.0
 20
0.0
  9
$LIMMAX
 10
11.6929133858000007
 20
8.2677165353999982
  9
$ORTHOMODE
 70
     0
  9
$REGENMODE
 70
     1
  9
$FILLMODE
 70
     1
  9
$QTEXTMODE
 70
     0
  9
$MIRRTEXT
 70
     0
  9
$DRAGMODE
 70
     2
  9
$LTSCALE
 40
0.6431102362
  9
$OSMODE
 70
   695
  9
$ATTMODE
 70
     1
  9
$TEXTSIZE
 40
0.2
  9
$TRACEWID
 40
0.05
  9
$TEXTSTYLE
  7
STANDARD
  9
$CLAYER
  8
0
  9
$CELTYPE
  6
BYLAYER
  9
$CECOLOR
 62
   256
  9
$DIMSCALE
 40
1.0
  9
$DIMASZ
 40
0.1875
  9
$DIMEXO
 40
0.0625
  9
$DIMDLI
 40
0.4443307087
  9
$DIMRND
 40
0.0
  9
$DIMDLE
 40
0.0
  9
$DIMEXE
 40
0.125
  9
$DIMTP
 40
0.01
  9
$DIMTM
 40
0.01
  9
$DIMTXT
 40
2.0
  9
$DIMCEN
 40
0.1052362205
  9
$DIMTSZ
 40
0.0
  9
$DIMTOL
 70
     1
  9
$DIMLIM
 70
     0
  9
$DIMTIH
 70
     1
  9
$DIMTOH
 70
     1
  9
$DIMSE1
 70
     0
  9
$DIMSE2
 70
     0
  9
$DIMTAD
 70
     0
  9
$DIMZIN
 70
     0
  9
$DIMBLK
  1

  9
$DIMASO
 70
     1
  9
$DIMSHO
 70
     1
  9
$DIMPOST
  1
\X
  9
$DIMAPOST
  1

  9
$DIMALT
 70
     1
  9
$DIMALTD
 70
     2
  9
$DIMALTF
 40
25.3999999999999986
  9
$DIMLFAC
 40
1.0
  9
$DIMTOFL
 70
     0
  9
$DIMTVP
 40
0.0
  9
$DIMTIX
 70
     0
  9
$DIMSOXD
 70
     0
  9
$DIMSAH
 70
     0
  9
$DIMBLK1
  1

  9
$DIMBLK2
  1

  9
$DIMSTYLE
  2
STANDARD
  9
$DIMCLRD
 70
     0
  9
$DIMCLRE
 70
     0
  9
$DIMCLRT
 70
     0
  9
$DIMTFAC
 40
1.0
  9
$DIMGAP
 40
0.09
  9
$LUNITS
 70
     2
  9
$LUPREC
 70
     4
  9
$SKETCHINC
 40
0.1
  9
$FILLETRAD
 40
0.0
  9
$AUNITS
 70
     0
  9
$AUPREC
 70
     0
  9
$MENU
  1
.
  9
$ELEVATION
 40
0.0
  9
$PELEVATION
 40
0.0
  9
$THICKNESS
 40
0.0
  9
$LIMCHECK
 70
     0
  9
$BLIPMODE
 70
     0
  9
$CHAMFERA
 40
0.0
  9
$CHAMFERB
 40
0.0
  9
$SKPOLY
 70
     0
  9
$TDCREATE
 40
2458060.468368056230247
  9
$TDUPDATE
 40
2459348.9969675932079554
  9
$TDINDWG
 40
0.4871945602
  9
$TDUSRTIMER
 40
0.4871945602
  9
$USRTIMER
 70
     1
  9
$ANGBASE
 50
0.0
  9
$ANGDIR
 70
     0
  9
$PDMODE
 70
     0
  9
$PDSIZE
 40
0.3125
  9
$PLINEWID
 40
0.0
  9
$COORDS
 70
     1
  9
$SPLFRAME
 70
     0
  9
$SPLINETYPE
 70
     6
  9
$SPLINESEGS
 70
     8
  9
$ATTDIA
 70
     1
  9
$ATTREQ
 70
     1
  9
$HANDLING
 70
     1
  9
$HANDSEED
  5
1EA60
  9
$SURFTAB1
 70
     6
  9
$SURFTAB2
 70
     6
  9
$SURFTYPE
 70
     6
  9
$SURFU
 70
     6
  9
$SURFV
 70
     6
  9
$UCSNAME
  2

  9
$UCSORG
 10
0.0
 20
0.0
 30
0.0
  9
$UCSXDIR
 10
1.0
 20
0.0
 30
0.0
  9
$UCSYDIR
 10
0.0
 20
1.0
 30
0.0
  9
$PUCSNAME
  2

  9
$PUCSORG
 10
0.0
 20
0.0
 30
0.0
  9
$PUCSXDIR
 10
1.0
 20
0.0
 30
0.0
  9
$PUCSYDIR
 10
0.0
 20
1.0
 30
0.0
  9
$USERI1
 70
     0
  9
$USERI2
 70
     0
  9
$USERI3
 70
     0
  9
$USERI4
 70
     0
  9
$USERI5
 70
     0
  9
$USERR1
 40
0.0
  9
$USERR2
 40
0.0
  9
$USERR3
 40
0.0
  9
$USERR4
 40
0.0
  9
$USERR5
 40
0.0
  9
$WORLDVIEW
 70
     1
  9
$SHADEDGE
 70
     3
  9
$SHADEDIF
 70
    70
  9
$TILEMODE
 70
     1
  9
$MAXACTVP
 70
    64
  9
$PLIMCHECK
 70
     0
  9
$PEXTMIN
 10
1.0000000000000000E+20
 20
1.0000000000000000E+20
 30
1.0000000000000000E+20
  9
$PEXTMAX
 10
-1.0000000000000000E+20
 20
-1.0000000000000000E+20
 30
-1.0000000000000000E+20
  9
$PLIMMIN
 10
0.0
 20
0.0
  9
$PLIMMAX
 10
12.0
 20
9.0
  9
$UNITMODE
 70
     0
  9
$VISRETAIN
 70
     1
  9
$PLINEGEN
 70
     0
  9
$PSLTSCALE
 70
     1
  0
ENDSEC
  0
SECTION
  2
TABLES
  0
TABLE
  2
VPORT
 70
     1
  0
VPORT
  2
*ACTIVE
 70
     0
 10
0.0
 20
0.0
 11
1.0
 21
1.0
 12
459.7541694791373175
 22
100.0559062741035063
 13
0.0
 23
0.0
 14
1.0
 24
1.0
 15
0.0
 25
0.0
 16
0.0
 26
0.0
 36
60.4960186965801583
 17
3911.3653564453120453
 27
132.5796051025390057
 37
0.0
 40
6.5869193186363901
 41
2.400611620795106
 42
50.0
 43
0.0
 44
0.0
 50
0.0
 51
0.0
 71
     0
 72
   100
 73
     1
 74
     1
 75
     0
 76
     0
 77
     0
 78
     0
  0
ENDTAB
  0
TABLE
  2
LTYPE
 70
     2
  0
LTYPE
  2
CONTINUOUS
 70
     0
  3
Solid line
 72
    65
 73
     0
 40
0.0
  0
LTYPE
  2
PHANTOM2
 70
     0
  3
___ _ _ ___ _ _ ___ _ _ ___ _ _
 72
    65
 73
     6
 40
1.25
 49
0.625
 49
-0.125
 49
0.125
 49
-0.125
 49
0.125
 49
-0.125
  0
ENDTAB
  0
TABLE
  2
LAYER
 70
     2
  0
LAYER
  2
0
 70
     0
 62
   255
  6
CONTINUOUS
  0
LAYER
  2
DEFPOINTS
 70
     0
 62
     7
  6
CONTINUOUS
  0
ENDTAB
  0
TABLE
  2
STYLE
 70
     1
  0
STYLE
  2
STANDARD
 70
     0
 40
0.0
 41
0.8
 50
0.0
 71
     0
 42
0.2
  3
txt
  4

  0
ENDTAB
  0
TABLE
  2
VIEW
 70
     0
  0
ENDTAB
  0
TABLE
  2
UCS
 70
     0
  0
ENDTAB
  0
TABLE
  2
APPID
 70
    11
  0
APPID
  2
ACAD
 70
     0
  0
APPID
  2
ACAD_MLEADERVER
 70
     0
  0
APPID
  2
ACAD_EXEMPT_FROM_CAD_STANDARDS
 70
     0
  0
APPID
  2
ACAD_NAV_VCDISPLAY
 70
     0
  0
APPID
  2
ACAECLAYERSTANDARD
 70
     0
  0
APPID
  2
ACCMTRANSPARENCY
 70
     0
  0
APPID
  2
ACAD_DSTYLE_DIMJAG
 70
     0
  0
APPID
  2
ACAD_DSTYLE_DIMTALN
 70
     0
  0
APPID
  2
ACDBATTR
 70
     0
  0
APPID
  2
ACADANNOTATIVE
 70
     0
  0
APPID
  2
DCO15
 70
     0
  0
ENDTAB
  0
TABLE
  2
DIMSTYLE
 70
     1
  0
DIMSTYLE
  2
STANDARD
 70
     0
  3

  4

  5

  6

  7

 40
1.0
 41
0.1875
 42
0.0625
 43
0.38
 44
0.125
 45
0.0
 46
0.0
 47
0.01
 48
0.01
140
0.15625
141
0.09
142
0.0
143
25.3999999999999986
144
1.0
145
0.0
146
1.0
147
0.09
 71
     1
 72
     0
 73
     1
 74
     1
 75
     0
 76
     0
 77
     0
 78
     4
170
     0
171
     2
172
     0
173
     0
174
     0
175
     0
176
     0
177
     0
178
     0
  0
ENDTAB
  0
ENDSEC
  0
SECTION
  2
BLOCKS
  0
BLOCK
  8
0
  2
$MODEL_SPACE
 70
     0
 10
0.0
 20
0.0
 30
0.0
  3
$MODEL_SPACE
  1

  0
ENDBLK
  5
21
  8
0
  0
BLOCK
 67
     1
  8
0
  2
$PAPER_SPACE
 70
     0
 10
0.0
 20
0.0
 30
0.0
  3
$PAPER_SPACE
  1

  0
ENDBLK
  5
1D
 67
     1
  8
0
  0
ENDSEC
  0
SECTION
  2
ENTITIES
  0
ATTDEF
  5
1CDAA
  8
DEFPOINTS
 10
4373.5950424485181429
 20
230.1198478153110898
 30
0.0
 40
0.001
  1
K-18658T-BS5
  3

  2
MODELNUMBER
 70
     0
1001
ACDBATTR
1070
     0
1070
     1
  0
ATTDEF
  5
1CDAB
  8
DEFPOINTS
 10
4373.5949166388600133
 20
230.1181809749319029
 30
0.0
 40
0.001
  1
KUMIN
  3

  2
TRADENAME
 70
     0
1001
ACDBATTR
1070
     0
1070
     1
  0
ATTDEF
  5
1CDAC
  8
DEFPOINTS
 10
4373.5950424485181429
 20
230.1165144819777879
 30
0.0
 40
0.001
  1
BATHROOM SINK FAUCET
  3

  2
PRODUCT
 70
     0
1001
ACDBATTR
1070
     0
1070
     1
  0
ARC
  5
1E6BF
  8
0
 10
4373.2550876759487437
 20
231.7693883001201129
 30
0.0
 40
3.3939515924230328
 50
84.3543139567094613
 51
89.6199293233451044
  0
ARC
  5
1E6C0
  8
0
 10
4373.4227029943149319
 20
233.5511264863494034
 30
0.0
 40
1.604389137196363
 50
75.2473136281378743
 51
84.0515189257362465
  0
ARC
  5
1E6C1
  8
0
 10
4368.6018084370225552
 20
233.9340142000918092
 30
0.0
 40
1.209881987449325
 50
104.979759940303893
 51
113.333659411365602
  0
ARC
  5
1E6C2
  8
0
 10
4368.6183300417287683
 20
233.900706944288288
 30
0.0
 40
1.2469635285817531
 50
116.0146640531196027
 51
117.8521385501221062
  0
ARC
  5
1E6C3
  8
0
 10
4368.5564251088017045
 20
233.9593626804085034
 30
0.0
 40
1.1624918816922161
 50
133.2858798867792132
 51
144.6895643123986872
  0
ARC
  5
1E6C4
  8
0
 10
4368.6228377336701669
 20
233.8898080943233992
 30
0.0
 40
1.258658823596406
 50
120.2098326011657008
 51
121.3791522470601052
  0
ARC
  5
1E6C5
  8
0
 10
4368.6173353664016759
 20
233.8961010792561126
 30
0.0
 40
1.2503054611462989
 50
124.6726126676358035
 51
133.330078512432209
  0
ARC
  5
1E6C6
  8
0
 10
4367.6485610036015714
 20
234.6018726787299897
 30
0.0
 40
0.0502725645106862
 50
144.1855695997323892
 51
157.9576948985366016
  0
ARC
  5
1E6C7
  8
0
 10
4367.6174513563510118
 20
234.6142800664941888
 30
0.0
 40
0.0167813415900064
 50
157.3612862494532862
 51
211.300936472689898
  0
ARC
  5
1E6C8
  8
0
 10
4367.6568431413115832
 20
234.6379355654491121
 30
0.0
 40
0.0627299895040809
 50
211.069956841253088
 51
222.4018732407743926
  0
ARC
  5
1E6C9
  8
0
 10
4368.7747531370632714
 20
235.5795293063864051
 30
0.0
 40
1.5242978077573781
 50
220.2012056537415106
 51
226.0645555944068974
  0
ARC
  5
1E6CA
  8
0
 10
4368.5869212216257438
 20
235.3744752474576956
 30
0.0
 40
1.246326908618818
 50
225.7420928598737078
 51
229.5654547616045136
  0
ARC
  5
1E6CB
  8
0
 10
4368.1911786459841096
 20
235.5179975640209875
 30
0.0
 40
1.167498604225967
 50
249.3043323878079889
 51
255.6692174090638048
  0
ARC
  5
1E6CC
  8
0
 10
4372.2675301953959206
 20
240.9473607844977892
 30
0.0
 40
7.7069448989635561
 50
242.6039530791665015
 51
243.5726723333031032
  0
ARC
  5
1E6CD
  8
0
 10
4367.6592626833589748
 20
232.0481354643584098
 30
0.0
 40
2.3146507897380779
 50
62.6890891366446112
 51
66.0241682149114979
  0
ARC
  5
1E6CE
  8
0
 10
4367.7259984367674406
 20
232.1881092908338076
 30
0.0
 40
2.1596400653556742
 50
66.1329170250299825
 51
69.0930383301689659
  0
LINE
  5
1E6CF
  8
0
 10
4368.4966692471416536
 20
234.2055610780915913
 30
0.0
 11
4368.1062700253460207
 21
234.3314521608994028
 31
0.0
  0
LINE
  5
1E6D0
  8
0
 10
4367.9021998723801516
 20
234.3868281429014075
 30
0.0
 11
4368.1062700253460207
 21
234.3314521608994028
 31
0.0
  0
ARC
  5
1E6D1
  8
0
 10
4369.2812997542623634
 20
239.8769577286614094
 30
0.0
 40
5.8480300375687477
 50
265.6473092343118765
 51
268.9130856555424884
  0
ARC
  5
1E6D2
  8
0
 10
4369.4879819909756407
 20
232.5815085239590871
 30
0.0
 40
1.4828850602101999
 50
89.4303699185125538
 51
102.367810190068198
  0
ARC
  5
1E6D3
  8
0
 10
4369.7451640623094136
 20
232.6813092088484041
 30
0.0
 40
1.377827645638326
 50
74.4190610475500165
 51
88.6213129322225939
  0
LINE
  5
1E6D4
  8
0
 10
4369.175952813902768
 20
234.0311932808801885
 30
0.0
 11
4369.175952813902768
 21
234.0255435910765982
 31
0.0
  0
LINE
  5
1E6D5
  8
0
 10
4369.175952813902768
 20
234.0255435910765982
 30
0.0
 11
4370.1050866722025603
 21
234.0044585938719877
 31
0.0
  0
LINE
  5
1E6D6
  8
0
 10
4370.1050866722025603
 20
234.0112959516291937
 30
0.0
 11
4370.1050866722025603
 21
234.0044585938719877
 31
0.0
  0
LINE
  5
1E6D7
  8
0
 10
4369.5027244734019405
 20
234.0643202992719978
 30
0.0
 11
4369.7783150180021039
 21
234.0587379856719963
 31
0.0
  0
LINE
  5
1E6D8
  8
0
 10
4369.5027244765033174
 20
234.0583480764719866
 30
0.0
 11
4369.7783149860033518
 21
234.0527371416719973
 31
0.0
  0
ARC
  5
1E6D9
  8
0
 10
4369.4856018856653463
 20
232.5849901210397945
 30
0.0
 40
1.4734574468037931
 50
89.334169042045275
 51
102.1312218839133976
  0
ARC
  5
1E6DA
  8
0
 10
4369.7410163803024261
 20
232.6702720846816135
 30
0.0
 40
1.382968119209586
 50
74.7368376262171523
 51
88.4545455472194391
  0
LINE
  5
1E6DB
  8
0
 10
4370.1152477174027808
 20
234.0085044127719982
 30
0.0
 11
4371.8615659043052801
 21
233.968813203865011
 31
0.0
  0
ARC
  5
1E6DC
  8
0
 10
4371.8787777374091092
 20
232.7159234671034937
 30
0.0
 40
1.253007956750924
 50
77.1202700134680867
 51
90.7870631666291104
  0
ARC
  5
1E6DD
  8
0
 10
4372.0223747614381864
 20
233.3860534962682891
 30
0.0
 40
0.5678074621147881
 50
47.5288499187021074
 51
76.172571899900646
  0
ARC
  5
1E6DE
  8
0
 10
4371.7622498134578564
 20
233.1686806980875133
 30
0.0
 40
0.9049111971899568
 50
355.4136261830116155
 51
44.672190451744811
  0
LINE
  5
1E6DF
  8
0
 10
4372.6642634156032727
 20
233.0963223098719936
 30
0.0
 11
4372.6206640304390021
 21
230.1210334619219964
 31
0.0
  0
LINE
  5
1E6E0
  8
0
 10
4374.569054676137057
 20
230.1210334619219964
 30
0.0
 11
4374.5247385612256039
 21
234.5956177211033946
 31
0.0
  0
ARC
  5
1E6E1
  8
0
 10
4374.3263931722231064
 20
234.4962830168169887
 30
0.0
 40
0.2297841173967742
 50
31.5139709902656016
 51
35.9069333999424529
  0
ARC
  5
1E6E2
  8
0
 10
4374.5090735307176146
 20
234.6079860995214972
 30
0.0
 40
0.015661019883406
 50
359.6703888436330203
 51
32.4648672107121214
  0
ARC
  5
1E6E3
  8
0
 10
4375.0051327406890778
 20
234.601923920977697
 30
0.0
 40
0.4804355688530423
 50
179.2877628932940013
 51
180.752086309126895
  0
ARC
  5
1E6E4
  8
0
 10
4373.5815896471904125
 20
233.9736036069500926
 30
0.0
 40
1.1396684945460971
 50
35.2307209401895491
 51
43.5416441639187184
  0
ARC
  5
1E6E5
  8
0
 10
4373.5087029627766242
 20
233.9102457585165098
 30
0.0
 40
1.235236709217471
 50
56.3157009323648978
 51
74.8630686394166958
  0
ARC
  5
1E6E6
  8
0
 10
4373.5062588865675934
 20
233.9010016124587139
 30
0.0
 40
1.2442881894747331
 50
43.5754110161795722
 51
56.4581348862977634
  0
LINE
  5
1E6E7
  8
0
 10
4367.6106365548666872
 20
234.5954986209954996
 30
0.0
 11
4374.5247397407920289
 21
234.5954986209954996
 31
0.0
  0
LINE
  5
1E6E8
  8
0
 10
4367.902200336403439
 20
234.3868280243578965
 30
0.0
 11
4367.8825915584457107
 21
234.3264995498479948
 31
0.0
  0
LINE
  5
1E6E9
  8
0
 10
4368.7212683324805766
 20
234.1047716199136062
 30
0.0
 11
4368.7063137312670733
 21
234.0587622113121995
 31
0.0
  0
LINE
  5
1E6EA
  8
0
 10
4368.6566875823373266
 20
234.0334948385219889
 30
0.0
 11
4367.9078779493356706
 21
234.276883088722002
 31
0.0
  0
ARC
  5
1E6EB
  8
0
 10
4367.9200334807883337
 20
234.3143296712426036
 30
0.0
 40
0.0393700836592727
 50
161.9941029894980034
 51
252.0160564414208011
  0
ARC
  5
1E6EC
  8
0
 10
4368.6688718101449922
 20
234.0709320939394047
 30
0.0
 40
0.0393700838259746
 50
251.9721437056716127
 51
341.9940968825155778
  0
LINE
  5
1E6ED
  8
0
 10
4367.9453055133535599
 20
234.2647178748759131
 30
0.0
 11
4367.9270506947941612
 21
234.2085549993796008
 31
0.0
  0
LINE
  5
1E6EE
  8
0
 10
4367.9270506947941612
 20
234.2085549993796008
 30
0.0
 11
4368.6010051998373456
 21
233.9894971769219865
 31
0.0
  0
LINE
  5
1E6EF
  8
0
 10
4368.6010051998373456
 20
233.9894971769219865
 30
0.0
 11
4368.6192600183831019
 21
234.0456600523475004
 31
0.0
  0
LINE
  5
1E6F0
  8
0
 10
4372.6206640304390021
 20
230.1210334619219964
 30
0.0
 11
4374.569054676137057
 21
230.1210334619219964
 31
0.0
  0
LINE
  5
1E6F2
  8
0
 10
4373.2776012367912699
 20
235.1632652205886131
 30
0.0
 11
4369.0764833609382549
 21
235.1631055218720121
 31
0.0
  0
LINE
  5
1E6F3
  8
0
 10
4367.906053500838425
 20
234.9243723731719911
 30
0.0
 11
4367.9060533653409948
 21
234.9363255186136996
 31
0.0
  0
LINE
  5
1E6F4
  8
0
 10
4367.9060533653409948
 20
234.9363255186136996
 30
0.0
 11
4367.9382003354367043
 21
234.9503077267164883
 31
0.0
  0
LINE
  5
1E6F5
  8
0
 10
4367.9382003354367043
 20
234.9503077267164883
 30
0.0
 11
4367.9674555433375644
 21
234.9708616162720034
 31
0.0
  0
LINE
  5
1E6F6
  8
0
 10
4367.9674555433375644
 20
234.9708616162720034
 30
0.0
 11
4367.9418819490374517
 21
234.9599990371719969
 31
0.0
  0
LINE
  5
1E6F7
  8
0
 10
4367.9418819490374517
 20
234.9599990371719969
 30
0.0
 11
4367.9060533653409948
 21
234.9363255186136996
 31
0.0
  0
LINE
  5
1E6F8
  8
0
 10
4367.9674555433375644
 20
234.9708616162720034
 30
0.0
 11
4367.9674551420275748
 21
234.959498122273402
 31
0.0
  0
LINE
  5
1E6F9
  8
0
 10
4367.9674551420275748
 20
234.959498122273402
 30
0.0
 11
4367.9381999185716268
 21
234.9385053127392098
 31
0.0
  0
LINE
  5
1E6FA
  8
0
 10
4367.9381999185716268
 20
234.9385053127392098
 30
0.0
 11
4367.9382003354367043
 21
234.9503077267164883
 31
0.0
  0
LINE
  5
1E6FB
  8
0
 10
4367.9381999185716268
 20
234.9385053127392098
 30
0.0
 11
4367.906053500838425
 21
234.9243723731719911
 31
0.0
  0
LINE
  5
1E6FC
  8
0
 10
4367.9895205653374433
 20
234.9775265314719945
 30
0.0
 11
4368.0065027758382712
 21
234.9846051906719993
 31
0.0
  0
LINE
  5
1E6FD
  8
0
 10
4368.0065027758382712
 20
234.9846051906719993
 30
0.0
 11
4368.0357592358368493
 21
235.0018917612719918
 31
0.0
  0
LINE
  5
1E6FE
  8
0
 10
4368.0357592358368493
 20
235.0018917612719918
 30
0.0
 11
4368.0357605904700904
 21
235.0130299737832047
 31
0.0
  0
LINE
  5
1E6FF
  8
0
 10
4368.0357605904700904
 20
235.0130299737832047
 30
0.0
 11
4368.0065031754393203
 21
234.9959182468022902
 31
0.0
  0
LINE
  5
1E700
  8
0
 10
4368.0065031754393203
 20
234.9959182468022902
 30
0.0
 11
4368.0065027758382712
 21
234.9846051906719993
 31
0.0
  0
LINE
  5
1E701
  8
0
 10
4367.9895205653374433
 20
234.9775265314719945
 30
0.0
 11
4367.9895209673368299
 21
234.9889066544720038
 31
0.0
  0
LINE
  5
1E702
  8
0
 10
4367.9895209673368299
 20
234.9889066544720038
 30
0.0
 11
4368.0065031754393203
 21
234.9959182468022902
 31
0.0
  0
LINE
  5
1E703
  8
0
 10
4367.9895209673368299
 20
234.9889066544720038
 30
0.0
 11
4368.0249538772186497
 21
235.0086178995034913
 31
0.0
  0
LINE
  5
1E704
  8
0
 10
4368.0249538772186497
 20
235.0086178995034913
 30
0.0
 11
4368.0357605904700904
 21
235.0130299737832047
 31
0.0
  0
LINE
  5
1E705
  8
0
 10
4368.0714103728369082
 20
235.0210180881720134
 30
0.0
 11
4368.0714107604271703
 21
235.0319634534353099
 31
0.0
  0
LINE
  5
1E706
  8
0
 10
4368.0714107604271703
 20
235.0319634534353099
 30
0.0
 11
4368.1225927046380093
 21
235.0552681325719959
 31
0.0
  0
LINE
  5
1E707
  8
0
 10
4368.1225927046380093
 20
235.0552681325719959
 30
0.0
 11
4368.1225923261372373
 21
235.0445510976720129
 31
0.0
  0
LINE
  5
1E708
  8
0
 10
4368.1225923261372373
 20
235.0445510976720129
 30
0.0
 11
4368.071410372875107
 21
235.0210180880939106
 31
0.0
  0
ARC
  5
1E709
  8
0
 10
4368.7126173958768049
 20
233.4769420724327915
 30
0.0
 40
1.680099844805496
 50
94.3646799880769436
 51
104.6012304580873007
  0
ARC
  5
1E70A
  8
0
 10
4368.9625873641707585
 20
229.223849455655909
 30
0.0
 40
5.9403480468878751
 50
88.9013842689722793
 51
93.6467316194606525
  0
ENDSEC
  0
EOF
