  0
SECTION
  2
HEADER
  9
$ACADVER
  1
AC1009
  9
$INSBASE
 10
4378.4480989736066476
 20
235.6917302177274109
 30
0.0
  9
$EXTMIN
 10
4377.4739064788327596
 20
229.7066555856355876
 30
0.0
  9
$EXTMAX
 10
4379.4204291318783362
 20
236.6654169390781135
 30
0.0
  9
$LIMMIN
 10
0.0
 20
0.0
  9
$LIMMAX
 10
11.6929133858000007
 20
8.2677165353999982
  9
$ORTHOMODE
 70
     0
  9
$REGENMODE
 70
     1
  9
$FILLMODE
 70
     1
  9
$QTEXTMODE
 70
     0
  9
$MIRRTEXT
 70
     0
  9
$DRAGMODE
 70
     2
  9
$LTSCALE
 40
0.6431102362
  9
$OSMODE
 70
   695
  9
$ATTMODE
 70
     1
  9
$TEXTSIZE
 40
0.2
  9
$TRACEWID
 40
0.05
  9
$TEXTSTYLE
  7
STANDARD
  9
$CLAYER
  8
0
  9
$CELTYPE
  6
BYLAYER
  9
$CECOLOR
 62
   256
  9
$DIMSCALE
 40
1.0
  9
$DIMASZ
 40
0.1875
  9
$DIMEXO
 40
0.0625
  9
$DIMDLI
 40
0.4443307087
  9
$DIMRND
 40
0.0
  9
$DIMDLE
 40
0.0
  9
$DIMEXE
 40
0.125
  9
$DIMTP
 40
0.01
  9
$DIMTM
 40
0.01
  9
$DIMTXT
 40
2.0
  9
$DIMCEN
 40
0.1052362205
  9
$DIMTSZ
 40
0.0
  9
$DIMTOL
 70
     1
  9
$DIMLIM
 70
     0
  9
$DIMTIH
 70
     1
  9
$DIMTOH
 70
     1
  9
$DIMSE1
 70
     0
  9
$DIMSE2
 70
     0
  9
$DIMTAD
 70
     0
  9
$DIMZIN
 70
     0
  9
$DIMBLK
  1

  9
$DIMASO
 70
     1
  9
$DIMSHO
 70
     1
  9
$DIMPOST
  1
\X
  9
$DIMAPOST
  1

  9
$DIMALT
 70
     1
  9
$DIMALTD
 70
     2
  9
$DIMALTF
 40
25.3999999999999986
  9
$DIMLFAC
 40
1.0
  9
$DIMTOFL
 70
     0
  9
$DIMTVP
 40
0.0
  9
$DIMTIX
 70
     0
  9
$DIMSOXD
 70
     0
  9
$DIMSAH
 70
     0
  9
$DIMBLK1
  1

  9
$DIMBLK2
  1

  9
$DIMSTYLE
  2
STANDARD
  9
$DIMCLRD
 70
     0
  9
$DIMCLRE
 70
     0
  9
$DIMCLRT
 70
     0
  9
$DIMTFAC
 40
1.0
  9
$DIMGAP
 40
0.09
  9
$LUNITS
 70
     2
  9
$LUPREC
 70
     4
  9
$SKETCHINC
 40
0.1
  9
$FILLETRAD
 40
0.0
  9
$AUNITS
 70
     0
  9
$AUPREC
 70
     0
  9
$MENU
  1
.
  9
$ELEVATION
 40
0.0
  9
$PELEVATION
 40
0.0
  9
$THICKNESS
 40
0.0
  9
$LIMCHECK
 70
     0
  9
$BLIPMODE
 70
     0
  9
$CHAMFERA
 40
0.0
  9
$CHAMFERB
 40
0.0
  9
$SKPOLY
 70
     0
  9
$TDCREATE
 40
2458060.468368056230247
  9
$TDUPDATE
 40
2459348.996273148804903
  9
$TDINDWG
 40
0.488421412
  9
$TDUSRTIMER
 40
0.488421412
  9
$USRTIMER
 70
     1
  9
$ANGBASE
 50
0.0
  9
$ANGDIR
 70
     0
  9
$PDMODE
 70
     0
  9
$PDSIZE
 40
0.3125
  9
$PLINEWID
 40
0.0
  9
$COORDS
 70
     1
  9
$SPLFRAME
 70
     0
  9
$SPLINETYPE
 70
     6
  9
$SPLINESEGS
 70
     8
  9
$ATTDIA
 70
     1
  9
$ATTREQ
 70
     1
  9
$HANDLING
 70
     1
  9
$HANDSEED
  5
1E8C8
  9
$SURFTAB1
 70
     6
  9
$SURFTAB2
 70
     6
  9
$SURFTYPE
 70
     6
  9
$SURFU
 70
     6
  9
$SURFV
 70
     6
  9
$UCSNAME
  2

  9
$UCSORG
 10
0.0
 20
0.0
 30
0.0
  9
$UCSXDIR
 10
1.0
 20
0.0
 30
0.0
  9
$UCSYDIR
 10
0.0
 20
1.0
 30
0.0
  9
$PUCSNAME
  2

  9
$PUCSORG
 10
0.0
 20
0.0
 30
0.0
  9
$PUCSXDIR
 10
1.0
 20
0.0
 30
0.0
  9
$PUCSYDIR
 10
0.0
 20
1.0
 30
0.0
  9
$USERI1
 70
     0
  9
$USERI2
 70
     0
  9
$USERI3
 70
     0
  9
$USERI4
 70
     0
  9
$USERI5
 70
     0
  9
$USERR1
 40
0.0
  9
$USERR2
 40
0.0
  9
$USERR3
 40
0.0
  9
$USERR4
 40
0.0
  9
$USERR5
 40
0.0
  9
$WORLDVIEW
 70
     1
  9
$SHADEDGE
 70
     3
  9
$SHADEDIF
 70
    70
  9
$TILEMODE
 70
     1
  9
$MAXACTVP
 70
    64
  9
$PLIMCHECK
 70
     0
  9
$PEXTMIN
 10
1.0000000000000000E+20
 20
1.0000000000000000E+20
 30
1.0000000000000000E+20
  9
$PEXTMAX
 10
-1.0000000000000000E+20
 20
-1.0000000000000000E+20
 30
-1.0000000000000000E+20
  9
$PLIMMIN
 10
0.0
 20
0.0
  9
$PLIMMAX
 10
12.0
 20
9.0
  9
$UNITMODE
 70
     0
  9
$VISRETAIN
 70
     1
  9
$PLINEGEN
 70
     0
  9
$PSLTSCALE
 70
     1
  0
ENDSEC
  0
SECTION
  2
TABLES
  0
TABLE
  2
VPORT
 70
     1
  0
VPORT
  2
*ACTIVE
 70
     0
 10
0.0
 20
0.0
 11
1.0
 21
1.0
 12
467.0818113492325097
 22
100.606431154521303
 13
0.0
 23
0.0
 14
1.0
 24
1.0
 15
0.0
 25
0.0
 16
0.0
 26
0.0
 36
60.4960186965801583
 17
3911.3653564453120453
 27
132.5796051025390057
 37
0.0
 40
9.1994825223222456
 41
2.400611620795106
 42
50.0
 43
0.0
 44
0.0
 50
0.0
 51
0.0
 71
     0
 72
   100
 73
     1
 74
     1
 75
     0
 76
     0
 77
     0
 78
     0
  0
ENDTAB
  0
TABLE
  2
LTYPE
 70
     2
  0
LTYPE
  2
CONTINUOUS
 70
     0
  3
Solid line
 72
    65
 73
     0
 40
0.0
  0
LTYPE
  2
PHANTOM2
 70
     0
  3
___ _ _ ___ _ _ ___ _ _ ___ _ _
 72
    65
 73
     6
 40
1.25
 49
0.625
 49
-0.125
 49
0.125
 49
-0.125
 49
0.125
 49
-0.125
  0
ENDTAB
  0
TABLE
  2
LAYER
 70
     2
  0
LAYER
  2
0
 70
     0
 62
   255
  6
CONTINUOUS
  0
LAYER
  2
DEFPOINTS
 70
     0
 62
     7
  6
CONTINUOUS
  0
ENDTAB
  0
TABLE
  2
STYLE
 70
     1
  0
STYLE
  2
STANDARD
 70
     0
 40
0.0
 41
0.8
 50
0.0
 71
     0
 42
0.2
  3
txt
  4

  0
ENDTAB
  0
TABLE
  2
VIEW
 70
     0
  0
ENDTAB
  0
TABLE
  2
UCS
 70
     0
  0
ENDTAB
  0
TABLE
  2
APPID
 70
    11
  0
APPID
  2
ACAD
 70
     0
  0
APPID
  2
ACAD_MLEADERVER
 70
     0
  0
APPID
  2
ACAD_EXEMPT_FROM_CAD_STANDARDS
 70
     0
  0
APPID
  2
ACAD_NAV_VCDISPLAY
 70
     0
  0
APPID
  2
ACAECLAYERSTANDARD
 70
     0
  0
APPID
  2
ACCMTRANSPARENCY
 70
     0
  0
APPID
  2
ACAD_DSTYLE_DIMJAG
 70
     0
  0
APPID
  2
ACAD_DSTYLE_DIMTALN
 70
     0
  0
APPID
  2
ACDBATTR
 70
     0
  0
APPID
  2
ACADANNOTATIVE
 70
     0
  0
APPID
  2
DCO15
 70
     0
  0
ENDTAB
  0
TABLE
  2
DIMSTYLE
 70
     1
  0
DIMSTYLE
  2
STANDARD
 70
     0
  3

  4

  5

  6

  7

 40
1.0
 41
0.1875
 42
0.0625
 43
0.38
 44
0.125
 45
0.0
 46
0.0
 47
0.01
 48
0.01
140
0.15625
141
0.09
142
0.0
143
25.3999999999999986
144
1.0
145
0.0
146
1.0
147
0.09
 71
     1
 72
     0
 73
     1
 74
     1
 75
     0
 76
     0
 77
     0
 78
     4
170
     0
171
     2
172
     0
173
     0
174
     0
175
     0
176
     0
177
     0
178
     0
  0
ENDTAB
  0
ENDSEC
  0
SECTION
  2
BLOCKS
  0
BLOCK
  8
0
  2
$MODEL_SPACE
 70
     0
 10
0.0
 20
0.0
 30
0.0
  3
$MODEL_SPACE
  1

  0
ENDBLK
  5
21
  8
0
  0
BLOCK
 67
     1
  8
0
  2
$PAPER_SPACE
 70
     0
 10
0.0
 20
0.0
 30
0.0
  3
$PAPER_SPACE
  1

  0
ENDBLK
  5
1D
 67
     1
  8
0
  0
ENDSEC
  0
SECTION
  2
ENTITIES
  0
ATTDEF
  5
1CDAA
  8
DEFPOINTS
 10
4378.4482155425848759
 20
235.6905868254850134
 30
0.0
 40
0.001
  1
K-18658T-BS5
  3

  2
MODELNUMBER
 70
     0
1001
ACDBATTR
1070
     0
1070
     1
  0
ATTDEF
  5
1CDAB
  8
DEFPOINTS
 10
4378.4480897329267464
 20
235.6889199851057981
 30
0.0
 40
0.001
  1
KUMIN
  3

  2
TRADENAME
 70
     0
1001
ACDBATTR
1070
     0
1070
     1
  0
ATTDEF
  5
1CDAC
  8
DEFPOINTS
 10
4378.4482155425848759
 20
235.6872534921515978
 30
0.0
 40
0.001
  1
BATHROOM SINK FAUCET
  3

  2
PRODUCT
 70
     0
1001
ACDBATTR
1070
     0
1070
     1
  0
ARC
  5
1E76B
  8
0
 10
4378.447993391707314
 20
235.6917725321490025
 30
0.0
 40
0.9298491575349634
 50
0.5658442797317284
 51
179.4342954659290115
  0
ARC
  5
1E76C
  8
0
 10
4378.4485181044792625
 20
235.6912783052389955
 30
0.0
 40
0.9746583042746154
 50
342.4108953344623956
 51
179.4392462158436956
  0
ARC
  5
1E76D
  8
0
 10
4378.405263404996731
 20
235.6944417671190024
 30
0.0
 40
0.9313787463806701
 50
179.6078024681704051
 51
197.7826092823580098
  0
ARC
  5
1E76E
  8
0
 10
4378.4511184695329575
 20
230.6358880159513944
 30
0.0
 40
0.9295601338127804
 50
179.7086172594491984
 51
263.9216324641420783
  0
ARC
  5
1E76F
  8
0
 10
4378.4448233904340668
 20
230.6365986210404913
 30
0.0
 40
0.9299488032484342
 50
270.2017971702036903
 51
0.8167974234588155
  0
LINE
  5
1E770
  8
0
 10
4378.3526886076342635
 20
229.7115538747121946
 30
0.0
 11
4378.4480986866337844
 21
229.7066555856355876
 31
0.0
  0
LINE
  5
1E771
  8
0
 10
4379.3777972044335911
 20
235.7009554297121952
 30
0.0
 11
4379.374677699483982
 21
230.6498553402122127
 31
0.0
  0
LINE
  5
1E772
  8
0
 10
4377.5181895565856394
 20
235.7009531619002871
 30
0.0
 11
4377.5215703563990246
 21
230.6406153556272898
 31
0.0
  0
ARC
  5
1E774
  8
0
 10
4378.4485180659221442
 20
230.252945347785186
 30
0.0
 40
0.2141808247224004
 50
241.7146774768933994
 51
298.2853251074934064
  0
ARC
  5
1E775
  8
0
 10
4378.4485181845557236
 20
230.2529414682508957
 30
0.0
 40
0.2500049596211454
 50
240.623773969264704
 51
299.3761860676016227
  0
LINE
  5
1E776
  8
0
 10
4378.3258801978772681
 20
230.0350827891521988
 30
0.0
 11
4378.3470257745902927
 21
230.0643379765637064
 31
0.0
  0
LINE
  5
1E777
  8
0
 10
4378.5711560192803518
 20
230.0350827036137105
 30
0.0
 11
4378.5500103657568616
 21
230.0643379811403975
 31
0.0
  0
ARC
  5
1E778
  8
0
 10
4378.4485180667979876
 20
230.2529409034455057
 30
0.0
 40
0.1665386191335645
 50
243.8992846381767094
 51
296.1007184898090259
  0
ARC
  5
1E779
  8
0
 10
4378.4485180665642474
 20
230.2529501824546969
 30
0.0
 40
0.1311136130622934
 50
246.5758805932790949
 51
293.4241238037766948
  0
LINE
  5
1E77A
  8
0
 10
4378.3963959217799129
 20
230.1326419884136953
 30
0.0
 11
4378.3752493376814527
 21
230.1033855458136941
 31
0.0
  0
LINE
  5
1E77B
  8
0
 10
4378.5006402205799532
 20
230.1326419924137099
 30
0.0
 11
4378.5217868040799658
 21
230.1033855498137086
 31
0.0
  0
LINE
  5
1E77C
  8
0
 10
4378.4229275223806326
 20
230.2194751431136979
 30
0.0
 11
4378.4229275220795898
 21
230.1682932511137096
 31
0.0
  0
LINE
  5
1E77D
  8
0
 10
4378.4229275220795898
 20
230.1682932511137096
 30
0.0
 11
4378.4741086243802783
 21
230.1682932003137125
 31
0.0
  0
LINE
  5
1E77E
  8
0
 10
4378.4741086243802783
 20
230.1682932003137125
 30
0.0
 11
4378.4741086247795465
 21
230.2194751320137129
 31
0.0
  0
LINE
  5
1E77F
  8
0
 10
4378.4741086247795465
 20
230.2194751320137129
 30
0.0
 11
4378.4229275223806326
 21
230.2194751323137041
 31
0.0
  0
ENDSEC
  0
EOF
