  0
SECTION
  2
HEADER
  9
$ACADVER
  1
AC1009
  9
$INSBASE
 10
4378.5606082251388216
 20
230.4142646106813004
 30
0.0
  9
$EXTMIN
 10
4377.5863939101482174
 20
230.4097456307370919
 30
0.0
  9
$EXTMAX
 10
4379.5356856602893458
 20
235.4564075065815132
 30
0.0
  9
$LIMMIN
 10
0.0
 20
0.0
  9
$LIMMAX
 10
11.6929133858000007
 20
8.2677165353999982
  9
$ORTHOMODE
 70
     0
  9
$REGENMODE
 70
     1
  9
$FILLMODE
 70
     1
  9
$QTEXTMODE
 70
     0
  9
$MIRRTEXT
 70
     0
  9
$DRAGMODE
 70
     2
  9
$LTSCALE
 40
0.6431102362
  9
$OSMODE
 70
   695
  9
$ATTMODE
 70
     1
  9
$TEXTSIZE
 40
0.2
  9
$TRACEWID
 40
0.05
  9
$TEXTSTYLE
  7
STANDARD
  9
$CLAYER
  8
0
  9
$CELTYPE
  6
BYLAYER
  9
$CECOLOR
 62
   256
  9
$DIMSCALE
 40
1.0
  9
$DIMASZ
 40
0.1875
  9
$DIMEXO
 40
0.0625
  9
$DIMDLI
 40
0.4443307087
  9
$DIMRND
 40
0.0
  9
$DIMDLE
 40
0.0
  9
$DIMEXE
 40
0.125
  9
$DIMTP
 40
0.01
  9
$DIMTM
 40
0.01
  9
$DIMTXT
 40
2.0
  9
$DIMCEN
 40
0.1052362205
  9
$DIMTSZ
 40
0.0
  9
$DIMTOL
 70
     1
  9
$DIMLIM
 70
     0
  9
$DIMTIH
 70
     1
  9
$DIMTOH
 70
     1
  9
$DIMSE1
 70
     0
  9
$DIMSE2
 70
     0
  9
$DIMTAD
 70
     0
  9
$DIMZIN
 70
     0
  9
$DIMBLK
  1

  9
$DIMASO
 70
     1
  9
$DIMSHO
 70
     1
  9
$DIMPOST
  1
\X
  9
$DIMAPOST
  1

  9
$DIMALT
 70
     1
  9
$DIMALTD
 70
     2
  9
$DIMALTF
 40
25.3999999999999986
  9
$DIMLFAC
 40
1.0
  9
$DIMTOFL
 70
     0
  9
$DIMTVP
 40
0.0
  9
$DIMTIX
 70
     0
  9
$DIMSOXD
 70
     0
  9
$DIMSAH
 70
     0
  9
$DIMBLK1
  1

  9
$DIMBLK2
  1

  9
$DIMSTYLE
  2
STANDARD
  9
$DIMCLRD
 70
     0
  9
$DIMCLRE
 70
     0
  9
$DIMCLRT
 70
     0
  9
$DIMTFAC
 40
1.0
  9
$DIMGAP
 40
0.09
  9
$LUNITS
 70
     2
  9
$LUPREC
 70
     4
  9
$SKETCHINC
 40
0.1
  9
$FILLETRAD
 40
0.0
  9
$AUNITS
 70
     0
  9
$AUPREC
 70
     0
  9
$MENU
  1
.
  9
$ELEVATION
 40
0.0
  9
$PELEVATION
 40
0.0
  9
$THICKNESS
 40
0.0
  9
$LIMCHECK
 70
     0
  9
$BLIPMODE
 70
     0
  9
$CHAMFERA
 40
0.0
  9
$CHAMFERB
 40
0.0
  9
$SKPOLY
 70
     0
  9
$TDCREATE
 40
2458060.468368056230247
  9
$TDUPDATE
 40
2459348.9949421300552785
  9
$TDINDWG
 40
0.4861760417
  9
$TDUSRTIMER
 40
0.4861760417
  9
$USRTIMER
 70
     1
  9
$ANGBASE
 50
0.0
  9
$ANGDIR
 70
     0
  9
$PDMODE
 70
     0
  9
$PDSIZE
 40
0.3125
  9
$PLINEWID
 40
0.0
  9
$COORDS
 70
     1
  9
$SPLFRAME
 70
     0
  9
$SPLINETYPE
 70
     6
  9
$SPLINESEGS
 70
     8
  9
$ATTDIA
 70
     1
  9
$ATTREQ
 70
     1
  9
$HANDLING
 70
     1
  9
$HANDSEED
  5
1E76D
  9
$SURFTAB1
 70
     6
  9
$SURFTAB2
 70
     6
  9
$SURFTYPE
 70
     6
  9
$SURFU
 70
     6
  9
$SURFV
 70
     6
  9
$UCSNAME
  2

  9
$UCSORG
 10
0.0
 20
0.0
 30
0.0
  9
$UCSXDIR
 10
1.0
 20
0.0
 30
0.0
  9
$UCSYDIR
 10
0.0
 20
1.0
 30
0.0
  9
$PUCSNAME
  2

  9
$PUCSORG
 10
0.0
 20
0.0
 30
0.0
  9
$PUCSXDIR
 10
1.0
 20
0.0
 30
0.0
  9
$PUCSYDIR
 10
0.0
 20
1.0
 30
0.0
  9
$USERI1
 70
     0
  9
$USERI2
 70
     0
  9
$USERI3
 70
     0
  9
$USERI4
 70
     0
  9
$USERI5
 70
     0
  9
$USERR1
 40
0.0
  9
$USERR2
 40
0.0
  9
$USERR3
 40
0.0
  9
$USERR4
 40
0.0
  9
$USERR5
 40
0.0
  9
$WORLDVIEW
 70
     1
  9
$SHADEDGE
 70
     3
  9
$SHADEDIF
 70
    70
  9
$TILEMODE
 70
     1
  9
$MAXACTVP
 70
    64
  9
$PLIMCHECK
 70
     0
  9
$PEXTMIN
 10
1.0000000000000000E+20
 20
1.0000000000000000E+20
 30
1.0000000000000000E+20
  9
$PEXTMAX
 10
-1.0000000000000000E+20
 20
-1.0000000000000000E+20
 30
-1.0000000000000000E+20
  9
$PLIMMIN
 10
0.0
 20
0.0
  9
$PLIMMAX
 10
12.0
 20
9.0
  9
$UNITMODE
 70
     0
  9
$VISRETAIN
 70
     1
  9
$PLINEGEN
 70
     0
  9
$PSLTSCALE
 70
     1
  0
ENDSEC
  0
SECTION
  2
TABLES
  0
TABLE
  2
VPORT
 70
     1
  0
VPORT
  2
*ACTIVE
 70
     0
 10
0.0
 20
0.0
 11
1.0
 21
1.0
 12
467.1956833256729738
 22
100.3534714595759993
 13
0.0
 23
0.0
 14
1.0
 24
1.0
 15
0.0
 25
0.0
 16
0.0
 26
0.0
 36
60.4960186965801583
 17
3911.3653564453120453
 27
132.5796051025390057
 37
0.0
 40
6.2642557446924592
 41
2.400611620795106
 42
50.0
 43
0.0
 44
0.0
 50
0.0
 51
0.0
 71
     0
 72
   100
 73
     1
 74
     1
 75
     0
 76
     0
 77
     0
 78
     0
  0
ENDTAB
  0
TABLE
  2
LTYPE
 70
     2
  0
LTYPE
  2
CONTINUOUS
 70
     0
  3
Solid line
 72
    65
 73
     0
 40
0.0
  0
LTYPE
  2
PHANTOM2
 70
     0
  3
___ _ _ ___ _ _ ___ _ _ ___ _ _
 72
    65
 73
     6
 40
1.25
 49
0.625
 49
-0.125
 49
0.125
 49
-0.125
 49
0.125
 49
-0.125
  0
ENDTAB
  0
TABLE
  2
LAYER
 70
     2
  0
LAYER
  2
0
 70
     0
 62
   255
  6
CONTINUOUS
  0
LAYER
  2
DEFPOINTS
 70
     0
 62
     7
  6
CONTINUOUS
  0
ENDTAB
  0
TABLE
  2
STYLE
 70
     1
  0
STYLE
  2
STANDARD
 70
     0
 40
0.0
 41
0.8
 50
0.0
 71
     0
 42
0.2
  3
txt
  4

  0
ENDTAB
  0
TABLE
  2
VIEW
 70
     0
  0
ENDTAB
  0
TABLE
  2
UCS
 70
     0
  0
ENDTAB
  0
TABLE
  2
APPID
 70
    11
  0
APPID
  2
ACAD
 70
     0
  0
APPID
  2
ACAD_MLEADERVER
 70
     0
  0
APPID
  2
ACAD_EXEMPT_FROM_CAD_STANDARDS
 70
     0
  0
APPID
  2
ACAD_NAV_VCDISPLAY
 70
     0
  0
APPID
  2
ACAECLAYERSTANDARD
 70
     0
  0
APPID
  2
ACCMTRANSPARENCY
 70
     0
  0
APPID
  2
ACAD_DSTYLE_DIMJAG
 70
     0
  0
APPID
  2
ACAD_DSTYLE_DIMTALN
 70
     0
  0
APPID
  2
ACDBATTR
 70
     0
  0
APPID
  2
ACADANNOTATIVE
 70
     0
  0
APPID
  2
DCO15
 70
     0
  0
ENDTAB
  0
TABLE
  2
DIMSTYLE
 70
     1
  0
DIMSTYLE
  2
STANDARD
 70
     0
  3

  4

  5

  6

  7

 40
1.0
 41
0.1875
 42
0.0625
 43
0.38
 44
0.125
 45
0.0
 46
0.0
 47
0.01
 48
0.01
140
0.15625
141
0.09
142
0.0
143
25.3999999999999986
144
1.0
145
0.0
146
1.0
147
0.09
 71
     1
 72
     0
 73
     1
 74
     1
 75
     0
 76
     0
 77
     0
 78
     4
170
     0
171
     2
172
     0
173
     0
174
     0
175
     0
176
     0
177
     0
178
     0
  0
ENDTAB
  0
ENDSEC
  0
SECTION
  2
BLOCKS
  0
BLOCK
  8
0
  2
$MODEL_SPACE
 70
     0
 10
0.0
 20
0.0
 30
0.0
  3
$MODEL_SPACE
  1

  0
ENDBLK
  5
21
  8
0
  0
BLOCK
 67
     1
  8
0
  2
$PAPER_SPACE
 70
     0
 10
0.0
 20
0.0
 30
0.0
  3
$PAPER_SPACE
  1

  0
ENDBLK
  5
1D
 67
     1
  8
0
  0
ENDSEC
  0
SECTION
  2
ENTITIES
  0
ATTDEF
  5
1CDAA
  8
DEFPOINTS
 10
4378.5607294121282393
 20
230.4130789640703938
 30
0.0
 40
0.001
  1
K-18658T-BS5
  3

  2
MODELNUMBER
 70
     0
1001
ACDBATTR
1070
     0
1070
     1
  0
ATTDEF
  5
1CDAB
  8
DEFPOINTS
 10
4378.5606036024710193
 20
230.4114121236912069
 30
0.0
 40
0.001
  1
KUMIN
  3

  2
TRADENAME
 70
     0
1001
ACDBATTR
1070
     0
1070
     1
  0
ATTDEF
  5
1CDAC
  8
DEFPOINTS
 10
4378.5607294121282393
 20
230.4097456307370919
 30
0.0
 40
0.001
  1
BATHROOM SINK FAUCET
  3

  2
PRODUCT
 70
     0
1001
ACDBATTR
1070
     0
1070
     1
  0
ARC
  5
1E24D
  8
0
 10
4378.5455169423348707
 20
234.184858387138604
 30
0.0
 40
1.2716379822092241
 50
89.3226419004065235
 51
110.426043323502995
  0
ARC
  5
1E24E
  8
0
 10
4378.3428658521015677
 20
234.6486388767690983
 30
0.0
 40
0.7573568293893553
 50
133.7372751162305065
 51
158.6432622339549141
  0
ARC
  5
1E24F
  8
0
 10
4378.4205324055346864
 20
234.5670913030905922
 30
0.0
 40
0.869971394279295
 50
111.497809216379693
 51
133.7199750460912924
  0
ARC
  5
1E250
  8
0
 10
4377.8667739907841678
 20
234.993247738882701
 30
0.0
 40
0.2509692839188086
 50
201.661658897403413
 51
204.6071584660197118
  0
ARC
  5
1E251
  8
0
 10
4377.6517417784007193
 20
234.9067795915941019
 30
0.0
 40
0.0192613215782526
 50
167.6490181932489918
 51
184.4806961867903965
  0
ARC
  5
1E252
  8
0
 10
4377.651782181429553
 20
234.9069151143409897
 30
0.0
 40
0.0193126393773624
 50
184.8721682765909122
 51
199.0590358877580002
  0
ARC
  5
1E253
  8
0
 10
4377.663805486495221
 20
234.8999706240695104
 30
0.0
 40
0.0331682865326613
 50
164.1584938275159118
 51
176.5072905093607858
  0
ARC
  5
1E254
  8
0
 10
4377.747297101890581
 20
234.8789657092241043
 30
0.0
 40
0.1188300226817911
 50
157.4956670185148937
 51
163.7729133095290877
  0
ARC
  5
1E255
  8
0
 10
4377.6695794395945995
 20
234.9036501931400096
 30
0.0
 40
0.0373632185456146
 50
166.8156639797047944
 51
168.8122424933222021
  0
ARC
  5
1E256
  8
0
 10
4377.7416177060131304
 20
234.8745327140009067
 30
0.0
 40
0.1150145935098174
 50
158.4404627951180089
 51
162.5488101706168891
  0
ARC
  5
1E257
  8
0
 10
4235.5707718105313688
 20
234.0603900657442011
 30
0.0
 40
142.062419911724902
 50
358.5293046355325828
 51
359.6605683607572814
  0
ARC
  5
1E258
  8
0
 10
4378.2471093538633795
 20
234.7784293775802098
 30
0.0
 40
0.3447479847949601
 50
232.3489143346384083
 51
251.0223739626910913
  0
ARC
  5
1E259
  8
0
 10
4378.1013561275822212
 20
234.5748860438517056
 30
0.0
 40
0.0737652291878786
 50
139.7187369511678128
 51
157.1948683301500864
  0
ARC
  5
1E25A
  8
0
 10
4378.0826021728298656
 20
234.5825307906349053
 30
0.0
 40
0.0535146704760548
 50
156.9573393031141961
 51
185.6791352377657915
  0
ARC
  5
1E25B
  8
0
 10
4378.1040799943602906
 20
234.5893113658233915
 30
0.0
 40
0.0756992893356041
 50
189.1795703450204087
 51
231.8004879932946096
  0
ARC
  5
1E25C
  8
0
 10
4378.2232267287281502
 20
234.7250427976726996
 30
0.0
 40
0.2562295618151076
 50
229.6317558825465994
 51
248.0719065313764133
  0
ARC
  5
1E25D
  8
0
 10
4378.2530323926202982
 20
234.2685188989376002
 30
0.0
 40
0.4106109242652597
 50
104.5728833018910962
 51
120.4270659001795991
  0
ARC
  5
1E25E
  8
0
 10
4378.4953858041699277
 20
233.3926184799018984
 30
0.0
 40
1.319387150791935
 50
97.8694664094235947
 51
105.1882436216622949
  0
ARC
  5
1E25F
  8
0
 10
4378.5733284449834173
 20
232.9080529592422977
 30
0.0
 40
1.8100935555720969
 50
90.4026426745036105
 51
98.2133368865352452
  0
ARC
  5
1E260
  8
0
 10
4378.1158702013781294
 20
234.6096542297929091
 30
0.0
 40
0.0902528087619215
 50
203.332323875349914
 51
230.0580737559322984
  0
ARC
  5
1E261
  8
0
 10
4378.2197279209603948
 20
234.7307243497670015
 30
0.0
 40
0.2497617327488879
 50
229.6224529871531956
 51
248.3395835270713974
  0
LINE
  5
1E262
  8
0
 10
4378.0329979888838352
 20
234.5739083784814909
 30
0.0
 11
4378.0329979888838352
 21
234.6026117490607987
 31
0.0
  0
LINE
  5
1E263
  8
0
 10
4378.0334121364830935
 20
234.603607518581498
 30
0.0
 11
4378.0733851283839613
 21
234.603607518581498
 31
0.0
  0
LINE
  5
1E264
  8
0
 10
4378.0733851288905498
 20
234.5841336458395006
 30
0.0
 11
4378.0329979888838352
 21
234.5841336458815078
 31
0.0
  0
ARC
  5
1E265
  8
0
 10
4378.1194852066801104
 20
234.5938705834105065
 30
0.0
 40
0.0471171425845238
 50
168.0736736419154909
 51
191.9263293408477864
  0
ARC
  5
1E266
  8
0
 10
4379.2441571096851476
 20
235.5886452262382136
 30
0.0
 40
1.7514804511350299
 50
203.5534640008226006
 51
205.2209695082387952
  0
ARC
  5
1E267
  8
0
 10
4378.9363303869140509
 20
235.4427126456569965
 30
0.0
 40
1.4108153569469091
 50
205.1863347801285045
 51
208.6543146710820906
  0
ARC
  5
1E268
  8
0
 10
4378.4857952793790901
 20
235.1813500886831036
 30
0.0
 40
0.8902277404478171
 50
207.7975889834702059
 51
232.9586440158684013
  0
ARC
  5
1E269
  8
0
 10
4378.5526403249596115
 20
235.2298047284170934
 30
0.0
 40
0.9694724205989373
 50
231.5302201486061904
 51
244.05262810025161
  0
ARC
  5
1E26A
  8
0
 10
4378.5755831786336785
 20
234.184858387138604
 30
0.0
 40
1.2716379822092241
 50
69.573956676497005
 51
90.6773580995935049
  0
ARC
  5
1E26B
  8
0
 10
4378.7764563035607353
 20
234.6471450699714012
 30
0.0
 40
0.7596653736806598
 50
21.409637262488701
 51
46.2437287083770627
  0
ARC
  5
1E26C
  8
0
 10
4378.7005677154338628
 20
234.5670913030905922
 30
0.0
 40
0.869971394279295
 50
46.2800249539086934
 51
68.5021907836203354
  0
ARC
  5
1E26D
  8
0
 10
4515.7305758992843039
 20
234.0167188359851025
 30
0.0
 40
136.242525679971294
 50
179.6666917875942033
 51
179.670258042517105
  0
ARC
  5
1E26E
  8
0
 10
4515.7305758992843039
 20
234.0167188359851025
 30
0.0
 40
136.242525679971294
 50
180.3297419574828098
 51
181.5151618850115938
  0
LINE
  5
1E26F
  8
0
 10
4379.482633446023101
 20
234.8887754691724865
 30
0.0
 11
4377.6385967101823553
 21
234.8887455375285072
 31
0.0
  0
ARC
  5
1E270
  8
0
 10
4378.5605968467716593
 20
234.2528420210630031
 30
0.0
 40
0.0539688680034665
 50
76.4364071333299933
 51
103.3436548029524999
  0
ARC
  5
1E271
  8
0
 10
4378.5605968467716593
 20
234.3491242599185114
 30
0.0
 40
0.0539688680034665
 50
256.6563451970474716
 51
283.5635928666699783
  0
ARC
  5
1E272
  8
0
 10
4378.5522658443005639
 20
234.3131256267737967
 30
0.0
 40
0.0170205566661056
 50
239.175652193442204
 51
255.9760966213185043
  0
ARC
  5
1E273
  8
0
 10
4378.5519971030553279
 20
234.2894980215776002
 30
0.0
 40
0.0163179744092961
 50
103.6677464585398951
 51
121.2640749338080042
  0
ARC
  5
1E274
  8
0
 10
4378.5459526293461749
 20
234.3024983940443917
 30
0.0
 40
0.0046596244513565
 50
214.5902913928399869
 51
238.8798895249458099
  0
ARC
  5
1E275
  8
0
 10
4378.5461569818926364
 20
234.2992235200048867
 30
0.0
 40
0.0049741526211505
 50
121.9013755566632966
 51
142.4987527561771969
  0
ARC
  5
1E276
  8
0
 10
4378.5437650777030285
 20
234.3009895599346919
 30
0.0
 40
0.0020021891407278
 50
140.9226382949375136
 51
214.5834518336504004
  0
ARC
  5
1E277
  8
0
 10
4378.5692698907496379
 20
234.3124492829848862
 30
0.0
 40
0.0162835948680424
 50
284.1618549675927738
 51
300.6160867729320216
  0
ARC
  5
1E278
  8
0
 10
4378.5690503771356816
 20
234.2888799876268138
 30
0.0
 40
0.016955047905724
 50
61.0519687771097068
 51
75.6455595257785234
  0
ARC
  5
1E279
  8
0
 10
4378.5743320207329816
 20
234.2983699574809862
 30
0.0
 40
0.0060944293773259
 50
43.09934650670656
 51
61.3194549640125288
  0
ARC
  5
1E27A
  8
0
 10
4378.5746640553443285
 20
234.3032046906241987
 30
0.0
 40
0.005580939704002
 50
301.2926669402579023
 51
319.4950513153596034
  0
ARC
  5
1E27B
  8
0
 10
4378.5773737724775856
 20
234.3009944278742012
 30
0.0
 40
0.0020865228994592
 50
317.313505955363496
 51
47.5527264593663119
  0
ARC
  5
1E27C
  8
0
 10
4378.5606504238267007
 20
234.275065350234911
 30
0.0
 40
0.0539688680034665
 50
76.4364071333299933
 51
103.3436548029524999
  0
ARC
  5
1E27D
  8
0
 10
4378.5606504238267007
 20
234.3713475890905045
 30
0.0
 40
0.0539688680034665
 50
256.6563451970474716
 51
283.5635928666699783
  0
ARC
  5
1E27E
  8
0
 10
4378.5523194213546958
 20
234.3353489559457046
 30
0.0
 40
0.0170205566661056
 50
239.175652193442204
 51
255.9760966213185043
  0
ARC
  5
1E27F
  8
0
 10
4378.5520506801112788
 20
234.3117213507495933
 30
0.0
 40
0.0163179744092961
 50
103.6677464585398951
 51
121.2640749338080042
  0
ARC
  5
1E280
  8
0
 10
4378.5460062064012163
 20
234.3247217232162996
 30
0.0
 40
0.0046596244513565
 50
214.5902913928399869
 51
238.8798895249458099
  0
ARC
  5
1E281
  8
0
 10
4378.5462105589476778
 20
234.3214468491769082
 30
0.0
 40
0.0049741526211505
 50
121.9013755566632966
 51
142.4987527561771969
  0
ARC
  5
1E282
  8
0
 10
4378.5438186547571604
 20
234.3232128891065997
 30
0.0
 40
0.0020021891407278
 50
140.9226382949375136
 51
214.5834518336504004
  0
ARC
  5
1E283
  8
0
 10
4378.5693234678055887
 20
234.3346726121569077
 30
0.0
 40
0.0162835948680424
 50
284.1618549675927738
 51
300.6160867729320216
  0
ARC
  5
1E284
  8
0
 10
4378.5691039541898135
 20
234.3111033167986932
 30
0.0
 40
0.016955047905724
 50
61.0519687771097068
 51
75.6455595257785234
  0
ARC
  5
1E285
  8
0
 10
4378.574385597788023
 20
234.320593286652894
 30
0.0
 40
0.0060944293773259
 50
43.09934650670656
 51
61.3194549640125288
  0
ARC
  5
1E286
  8
0
 10
4378.5747176323993699
 20
234.3254280197961918
 30
0.0
 40
0.005580939704002
 50
301.2926669402579023
 51
319.4950513153596034
  0
ARC
  5
1E287
  8
0
 10
4378.577427349532627
 20
234.3232177570461943
 30
0.0
 40
0.0020865228994592
 50
317.313505955363496
 51
47.5527264593663119
  0
ARC
  5
1E288
  8
0
 10
4378.5605069577122777
 20
234.2983431511829906
 30
0.0
 40
0.0539688680034665
 50
76.4364071333299933
 51
103.3436548029524999
  0
ARC
  5
1E289
  8
0
 10
4378.5605069577122777
 20
234.3946253900384988
 30
0.0
 40
0.0539688680034665
 50
256.6563451970474716
 51
283.5635928666699783
  0
ARC
  5
1E28A
  8
0
 10
4378.5521759552402727
 20
234.3586267568936989
 30
0.0
 40
0.0170205566661056
 50
239.175652193442204
 51
255.9760966213185043
  0
ARC
  5
1E28B
  8
0
 10
4378.5519072139968557
 20
234.3349991516975876
 30
0.0
 40
0.0163179744092961
 50
103.6677464585398951
 51
121.2640749338080042
  0
ARC
  5
1E28C
  8
0
 10
4378.5458627402867933
 20
234.3479995241644076
 30
0.0
 40
0.0046596244513565
 50
214.5902913928399869
 51
238.8798895249458099
  0
ARC
  5
1E28D
  8
0
 10
4378.5460670928332547
 20
234.3447246501249026
 30
0.0
 40
0.0049741526211505
 50
121.9013755566632966
 51
142.4987527561771969
  0
ARC
  5
1E28E
  8
0
 10
4378.5436751886436468
 20
234.3464906900547078
 30
0.0
 40
0.0020021891407278
 50
140.9226382949375136
 51
214.5834518336504004
  0
ARC
  5
1E28F
  8
0
 10
4378.5691800016911657
 20
234.3579504131049021
 30
0.0
 40
0.0162835948680424
 50
284.1618549675927738
 51
300.6160867729320216
  0
ARC
  5
1E290
  8
0
 10
4378.5689604880772094
 20
234.3343811177468012
 30
0.0
 40
0.016955047905724
 50
61.0519687771097068
 51
75.6455595257785234
  0
ARC
  5
1E291
  8
0
 10
4378.5742421316726904
 20
234.343871087601002
 30
0.0
 40
0.0060944293773259
 50
43.09934650670656
 51
61.3194549640125288
  0
ARC
  5
1E292
  8
0
 10
4378.5745741662849468
 20
234.3487058207441862
 30
0.0
 40
0.005580939704002
 50
301.2926669402579023
 51
319.4950513153596034
  0
ARC
  5
1E293
  8
0
 10
4378.5772838834182039
 20
234.3464955579941886
 30
0.0
 40
0.0020865228994592
 50
317.313505955363496
 51
47.5527264593663119
  0
ARC
  5
1E294
  8
0
 10
4378.5605069577122777
 20
234.3199480307829958
 30
0.0
 40
0.0539688680034665
 50
76.4364071333299933
 51
103.3436548029524999
  0
ARC
  5
1E295
  8
0
 10
4378.5605069577122777
 20
234.4162302696385041
 30
0.0
 40
0.0539688680034665
 50
256.6563451970474716
 51
283.5635928666699783
  0
ARC
  5
1E296
  8
0
 10
4378.5521759552402727
 20
234.3802316364937042
 30
0.0
 40
0.0170205566661056
 50
239.175652193442204
 51
255.9760966213185043
  0
ARC
  5
1E297
  8
0
 10
4378.5519072139968557
 20
234.3566040312975929
 30
0.0
 40
0.0163179744092961
 50
103.6677464585398951
 51
121.2640749338080042
  0
ARC
  5
1E298
  8
0
 10
4378.5458627402867933
 20
234.3696044037644128
 30
0.0
 40
0.0046596244513565
 50
214.5902913928399869
 51
238.8798895249458099
  0
ARC
  5
1E299
  8
0
 10
4378.5460670928332547
 20
234.3663295297249931
 30
0.0
 40
0.0049741526211505
 50
121.9013755566632966
 51
142.4987527561771969
  0
ARC
  5
1E29A
  8
0
 10
4378.5436751886436468
 20
234.368095569654713
 30
0.0
 40
0.0020021891407278
 50
140.9226382949375136
 51
214.5834518336504004
  0
ARC
  5
1E29B
  8
0
 10
4378.5691800016911657
 20
234.3795552927049073
 30
0.0
 40
0.0162835948680424
 50
284.1618549675927738
 51
300.6160867729320216
  0
ARC
  5
1E29C
  8
0
 10
4378.5689604880772094
 20
234.3559859973466928
 30
0.0
 40
0.016955047905724
 50
61.0519687771097068
 51
75.6455595257785234
  0
ARC
  5
1E29D
  8
0
 10
4378.5742421316726904
 20
234.3654759672010073
 30
0.0
 40
0.0060944293773259
 50
43.09934650670656
 51
61.3194549640125288
  0
ARC
  5
1E29E
  8
0
 10
4378.5745741662849468
 20
234.3703107003443051
 30
0.0
 40
0.005580939704002
 50
301.2926669402579023
 51
319.4950513153596034
  0
ARC
  5
1E29F
  8
0
 10
4378.5772838834182039
 20
234.3681004375941939
 30
0.0
 40
0.0020865228994592
 50
317.313505955363496
 51
47.5527264593663119
  0
ARC
  5
1E2A0
  8
0
 10
4378.5605983064151587
 20
234.344115181852203
 30
0.0
 40
0.0539688680034665
 50
76.4364071333299933
 51
103.3436548029524999
  0
ARC
  5
1E2A1
  8
0
 10
4378.5605983064151587
 20
234.4403974207077965
 30
0.0
 40
0.0539688680034665
 50
256.6563451970474716
 51
283.5635928666699783
  0
ARC
  5
1E2A2
  8
0
 10
4378.5522673039440633
 20
234.4043987875629966
 30
0.0
 40
0.0170205566661056
 50
239.175652193442204
 51
255.9760966213185043
  0
ARC
  5
1E2A3
  8
0
 10
4378.5519985626988273
 20
234.3807711823669138
 30
0.0
 40
0.0163179744092961
 50
103.6677464585398951
 51
121.2640749338080042
  0
ARC
  5
1E2A4
  8
0
 10
4378.5459540889887649
 20
234.3937715548335916
 30
0.0
 40
0.0046596244513565
 50
214.5902913928399869
 51
238.8798895249458099
  0
ARC
  5
1E2A5
  8
0
 10
4378.5461584415370453
 20
234.3904966807942003
 30
0.0
 40
0.0049741526211505
 50
121.9013755566632966
 51
142.4987527561771969
  0
ARC
  5
1E2A6
  8
0
 10
4378.5437665373474374
 20
234.3922627207238918
 30
0.0
 40
0.0020021891407278
 50
140.9226382949375136
 51
214.5834518336504004
  0
ARC
  5
1E2A7
  8
0
 10
4378.5692713503940467
 20
234.4037224437741997
 30
0.0
 40
0.0162835948680424
 50
284.1618549675927738
 51
300.6160867729320216
  0
ARC
  5
1E2A8
  8
0
 10
4378.569051836779181
 20
234.3801531484160137
 30
0.0
 40
0.016955047905724
 50
61.0519687771097068
 51
75.6455595257785234
  0
ARC
  5
1E2A9
  8
0
 10
4378.5743334803773905
 20
234.3896431182702997
 30
0.0
 40
0.0060944293773259
 50
43.09934650670656
 51
61.3194549640125288
  0
ARC
  5
1E2AA
  8
0
 10
4378.5746655149878279
 20
234.3944778514135123
 30
0.0
 40
0.005580939704002
 50
301.2926669402579023
 51
319.4950513153596034
  0
ARC
  5
1E2AB
  8
0
 10
4378.577375232121085
 20
234.3922675886634863
 30
0.0
 40
0.0020865228994592
 50
317.313505955363496
 51
47.5527264593663119
  0
ARC
  5
1E2AC
  8
0
 10
4378.5605983064151587
 20
234.3682840761630075
 30
0.0
 40
0.0539688680034665
 50
76.4364071333299933
 51
103.3436548029524999
  0
ARC
  5
1E2AD
  8
0
 10
4378.5605983064151587
 20
234.4645663150184873
 30
0.0
 40
0.0539688680034665
 50
256.6563451970474716
 51
283.5635928666699783
  0
ARC
  5
1E2AE
  8
0
 10
4378.5522673039440633
 20
234.4285676818738011
 30
0.0
 40
0.0170205566661056
 50
239.175652193442204
 51
255.9760966213185043
  0
ARC
  5
1E2AF
  8
0
 10
4378.5519985626988273
 20
234.4049400766776046
 30
0.0
 40
0.0163179744092961
 50
103.6677464585398951
 51
121.2640749338080042
  0
ARC
  5
1E2B0
  8
0
 10
4378.5459540889887649
 20
234.4179404491443961
 30
0.0
 40
0.0046596244513565
 50
214.5902913928399869
 51
238.8798895249458099
  0
ARC
  5
1E2B1
  8
0
 10
4378.5461584415370453
 20
234.4146655751050048
 30
0.0
 40
0.0049741526211505
 50
121.9013755566632966
 51
142.4987527561771969
  0
ARC
  5
1E2B2
  8
0
 10
4378.5437665373474374
 20
234.4164316150346963
 30
0.0
 40
0.0020021891407278
 50
140.9226382949375136
 51
214.5834518336504004
  0
ARC
  5
1E2B3
  8
0
 10
4378.5692713503940467
 20
234.4278913380850042
 30
0.0
 40
0.0162835948680424
 50
284.1618549675927738
 51
300.6160867729320216
  0
ARC
  5
1E2B4
  8
0
 10
4378.569051836779181
 20
234.4043220427267897
 30
0.0
 40
0.016955047905724
 50
61.0519687771097068
 51
75.6455595257785234
  0
ARC
  5
1E2B5
  8
0
 10
4378.5743334803773905
 20
234.4138120125809905
 30
0.0
 40
0.0060944293773259
 50
43.09934650670656
 51
61.3194549640125288
  0
ARC
  5
1E2B6
  8
0
 10
4378.5746655149878279
 20
234.4186467457242031
 30
0.0
 40
0.005580939704002
 50
301.2926669402579023
 51
319.4950513153596034
  0
ARC
  5
1E2B7
  8
0
 10
4378.577375232121085
 20
234.4164364829742055
 30
0.0
 40
0.0020865228994592
 50
317.313505955363496
 51
47.5527264593663119
  0
ARC
  5
1E2B8
  8
0
 10
4378.5605983147042934
 20
234.3898889557503082
 30
0.0
 40
0.0539688680034665
 50
76.4364071333299933
 51
103.3436548029524999
  0
ARC
  5
1E2B9
  8
0
 10
4378.5605983147042934
 20
234.4861711946059017
 30
0.0
 40
0.0539688680034665
 50
256.6563451970474716
 51
283.5635928666699783
  0
ARC
  5
1E2BA
  8
0
 10
4378.5522673122322885
 20
234.4501725614611018
 30
0.0
 40
0.0170205566661056
 50
239.175652193442204
 51
255.9760966213185043
  0
ARC
  5
1E2BB
  8
0
 10
4378.5519985709888715
 20
234.4265449562649906
 30
0.0
 40
0.0163179744092961
 50
103.6677464585398951
 51
121.2640749338080042
  0
ARC
  5
1E2BC
  8
0
 10
4378.5459540972788091
 20
234.4395453287316968
 30
0.0
 40
0.0046596244513565
 50
214.5902913928399869
 51
238.8798895249458099
  0
ARC
  5
1E2BD
  8
0
 10
4378.54615844982618
 20
234.4362704546923055
 30
0.0
 40
0.0049741526211505
 50
121.9013755566632966
 51
142.4987527561771969
  0
ARC
  5
1E2BE
  8
0
 10
4378.5437665456347531
 20
234.438036494621997
 30
0.0
 40
0.0020021891407278
 50
140.9226382949375136
 51
214.5834518336504004
  0
ARC
  5
1E2BF
  8
0
 10
4378.5692713586831815
 20
234.449496217672305
 30
0.0
 40
0.0162835948680424
 50
284.1618549675927738
 51
300.6160867729320216
  0
ARC
  5
1E2C0
  8
0
 10
4378.5690518450683157
 20
234.4259269223142041
 30
0.0
 40
0.016955047905724
 50
61.0519687771097068
 51
75.6455595257785234
  0
ARC
  5
1E2C1
  8
0
 10
4378.5743334886647062
 20
234.4354168921682913
 30
0.0
 40
0.0060944293773259
 50
43.09934650670656
 51
61.3194549640125288
  0
ARC
  5
1E2C2
  8
0
 10
4378.5746655232760531
 20
234.4402516253115891
 30
0.0
 40
0.005580939704002
 50
301.2926669402579023
 51
319.4950513153596034
  0
ARC
  5
1E2C3
  8
0
 10
4378.5773752404102197
 20
234.4380413625615915
 30
0.0
 40
0.0020865228994592
 50
317.313505955363496
 51
47.5527264593663119
  0
ARC
  5
1E2C4
  8
0
 10
4378.5605983064151587
 20
234.4131665837630862
 30
0.0
 40
0.0539688680034665
 50
76.4364071333299933
 51
103.3436548029524999
  0
ARC
  5
1E2C5
  8
0
 10
4378.5605983064151587
 20
234.5094488226185945
 30
0.0
 40
0.0539688680034665
 50
256.6563451970474716
 51
283.5635928666699783
  0
ARC
  5
1E2C6
  8
0
 10
4378.5522673039440633
 20
234.4734501894737946
 30
0.0
 40
0.0170205566661056
 50
239.175652193442204
 51
255.9760966213185043
  0
ARC
  5
1E2C7
  8
0
 10
4378.5519985626988273
 20
234.4498225842777117
 30
0.0
 40
0.0163179744092961
 50
103.6677464585398951
 51
121.2640749338080042
  0
ARC
  5
1E2C8
  8
0
 10
4378.5459540889887649
 20
234.4628229567443896
 30
0.0
 40
0.0046596244513565
 50
214.5902913928399869
 51
238.8798895249458099
  0
ARC
  5
1E2C9
  8
0
 10
4378.5461584415370453
 20
234.4595480827049983
 30
0.0
 40
0.0049741526211505
 50
121.9013755566632966
 51
142.4987527561771969
  0
ARC
  5
1E2CA
  8
0
 10
4378.5437665373474374
 20
234.4613141226346897
 30
0.0
 40
0.0020021891407278
 50
140.9226382949375136
 51
214.5834518336504004
  0
ARC
  5
1E2CB
  8
0
 10
4378.5692713503940467
 20
234.4727738456849977
 30
0.0
 40
0.0162835948680424
 50
284.1618549675927738
 51
300.6160867729320216
  0
ARC
  5
1E2CC
  8
0
 10
4378.569051836779181
 20
234.4492045503268969
 30
0.0
 40
0.016955047905724
 50
61.0519687771097068
 51
75.6455595257785234
  0
ARC
  5
1E2CD
  8
0
 10
4378.5743334803773905
 20
234.4586945201810977
 30
0.0
 40
0.0060944293773259
 50
43.09934650670656
 51
61.3194549640125288
  0
ARC
  5
1E2CE
  8
0
 10
4378.5746655149878279
 20
234.4635292533243955
 30
0.0
 40
0.005580939704002
 50
301.2926669402579023
 51
319.4950513153596034
  0
ARC
  5
1E2CF
  8
0
 10
4378.577375232121085
 20
234.4613189905743127
 30
0.0
 40
0.0020865228994592
 50
317.313505955363496
 51
47.5527264593663119
  0
ARC
  5
1E2D0
  8
0
 10
4378.5605983064151587
 20
234.4353901110631
 30
0.0
 40
0.0539688680034665
 50
76.4364071333299933
 51
103.3436548029524999
  0
ARC
  5
1E2D1
  8
0
 10
4378.5605983064151587
 20
234.5316723499186082
 30
0.0
 40
0.0539688680034665
 50
256.6563451970474716
 51
283.5635928666699783
  0
ARC
  5
1E2D2
  8
0
 10
4378.5522673039440633
 20
234.4956737167738936
 30
0.0
 40
0.0170205566661056
 50
239.175652193442204
 51
255.9760966213185043
  0
ARC
  5
1E2D3
  8
0
 10
4378.5519985626988273
 20
234.472046111577697
 30
0.0
 40
0.0163179744092961
 50
103.6677464585398951
 51
121.2640749338080042
  0
ARC
  5
1E2D4
  8
0
 10
4378.5459540889887649
 20
234.4850464840444033
 30
0.0
 40
0.0046596244513565
 50
214.5902913928399869
 51
238.8798895249458099
  0
ARC
  5
1E2D5
  8
0
 10
4378.5461584415370453
 20
234.481771610005012
 30
0.0
 40
0.0049741526211505
 50
121.9013755566632966
 51
142.4987527561771969
  0
ARC
  5
1E2D6
  8
0
 10
4378.5437665373474374
 20
234.4835376499347035
 30
0.0
 40
0.0020021891407278
 50
140.9226382949375136
 51
214.5834518336504004
  0
ARC
  5
1E2D7
  8
0
 10
4378.5692713503940467
 20
234.4949973729850115
 30
0.0
 40
0.0162835948680424
 50
284.1618549675927738
 51
300.6160867729320216
  0
ARC
  5
1E2D8
  8
0
 10
4378.569051836779181
 20
234.4714280776269106
 30
0.0
 40
0.016955047905724
 50
61.0519687771097068
 51
75.6455595257785234
  0
ARC
  5
1E2D9
  8
0
 10
4378.5743334803773905
 20
234.4809180474811114
 30
0.0
 40
0.0060944293773259
 50
43.09934650670656
 51
61.3194549640125288
  0
ARC
  5
1E2DA
  8
0
 10
4378.5746655149878279
 20
234.4857527806244093
 30
0.0
 40
0.005580939704002
 50
301.2926669402579023
 51
319.4950513153596034
  0
ARC
  5
1E2DB
  8
0
 10
4378.577375232121085
 20
234.483542517874298
 30
0.0
 40
0.0020865228994592
 50
317.313505955363496
 51
47.5527264593663119
  0
ARC
  5
1E2DC
  8
0
 10
4378.5214113812589858
 20
234.3231860220284943
 30
0.0
 40
0.0539688680034665
 50
76.4364071333299933
 51
103.3436548029524999
  0
ARC
  5
1E2DD
  8
0
 10
4378.5214113812589858
 20
234.4194682608840026
 30
0.0
 40
0.0539688680034665
 50
256.6563451970474716
 51
283.5635928666699783
  0
ARC
  5
1E2DE
  8
0
 10
4378.5130803787869809
 20
234.3834696277392879
 30
0.0
 40
0.0170205566661056
 50
239.175652193442204
 51
255.9760966213185043
  0
ARC
  5
1E2DF
  8
0
 10
4378.5128116375435638
 20
234.3598420225430914
 30
0.0
 40
0.0163179744092961
 50
103.6677464585398951
 51
121.2640749338080042
  0
ARC
  5
1E2E0
  8
0
 10
4378.5067671638325919
 20
234.3728423950099113
 30
0.0
 40
0.0046596244513565
 50
214.5902913928399869
 51
238.8798895249458099
  0
ARC
  5
1E2E1
  8
0
 10
4378.5069715163799628
 20
234.3695675209704916
 30
0.0
 40
0.0049741526211505
 50
121.9013755566632966
 51
142.4987527561771969
  0
ARC
  5
1E2E2
  8
0
 10
4378.504579612190355
 20
234.3713335609002115
 30
0.0
 40
0.0020021891407278
 50
140.9226382949375136
 51
214.5834518336504004
  0
ARC
  5
1E2E3
  8
0
 10
4378.5300844252378738
 20
234.3827932839504911
 30
0.0
 40
0.0162835948680424
 50
284.1618549675927738
 51
300.6160867729320216
  0
ARC
  5
1E2E4
  8
0
 10
4378.5298649116239176
 20
234.359223988592305
 30
0.0
 40
0.016955047905724
 50
61.0519687771097068
 51
75.6455595257785234
  0
ARC
  5
1E2E5
  8
0
 10
4378.5351465552212176
 20
234.3687139584465058
 30
0.0
 40
0.0060944293773259
 50
43.09934650670656
 51
61.3194549640125288
  0
ARC
  5
1E2E6
  8
0
 10
4378.535478589831655
 20
234.37354869158969
 30
0.0
 40
0.005580939704002
 50
301.2926669402579023
 51
319.4950513153596034
  0
ARC
  5
1E2E7
  8
0
 10
4378.5381883069658215
 20
234.3713384288398061
 30
0.0
 40
0.0020865228994592
 50
317.313505955363496
 51
47.5527264593663119
  0
ARC
  5
1E2E8
  8
0
 10
4378.4930083371436922
 20
234.3319975797678865
 30
0.0
 40
0.0539688680034665
 50
76.4364071333299933
 51
103.3436548029524999
  0
ARC
  5
1E2E9
  8
0
 10
4378.4930083371436922
 20
234.4282798186233947
 30
0.0
 40
0.0539688680034665
 50
256.6563451970474716
 51
283.5635928666699783
  0
ARC
  5
1E2EA
  8
0
 10
4378.4846773346725968
 20
234.3922811854785948
 30
0.0
 40
0.0170205566661056
 50
239.175652193442204
 51
255.9760966213185043
  0
ARC
  5
1E2EB
  8
0
 10
4378.4844085934291797
 20
234.3686535802825119
 30
0.0
 40
0.0163179744092961
 50
103.6677464585398951
 51
121.2640749338080042
  0
ARC
  5
1E2EC
  8
0
 10
4378.4783641197200268
 20
234.3816539527491898
 30
0.0
 40
0.0046596244513565
 50
214.5902913928399869
 51
238.8798895249458099
  0
ARC
  5
1E2ED
  8
0
 10
4378.4785684722655787
 20
234.3783790787097985
 30
0.0
 40
0.0049741526211505
 50
121.9013755566632966
 51
142.4987527561771969
  0
ARC
  5
1E2EE
  8
0
 10
4378.4761765680759709
 20
234.38014511863949
 30
0.0
 40
0.0020021891407278
 50
140.9226382949375136
 51
214.5834518336504004
  0
ARC
  5
1E2EF
  8
0
 10
4378.5016813811225802
 20
234.3916048416897979
 30
0.0
 40
0.0162835948680424
 50
284.1618549675927738
 51
300.6160867729320216
  0
ARC
  5
1E2F0
  8
0
 10
4378.501461867510443
 20
234.3680355463316118
 30
0.0
 40
0.016955047905724
 50
61.0519687771097068
 51
75.6455595257785234
  0
ARC
  5
1E2F1
  8
0
 10
4378.506743511105924
 20
234.3775255161858979
 30
0.0
 40
0.0060944293773259
 50
43.09934650670656
 51
61.3194549640125288
  0
ARC
  5
1E2F2
  8
0
 10
4378.5070755457181804
 20
234.3823602493291105
 30
0.0
 40
0.005580939704002
 50
301.2926669402579023
 51
319.4950513153596034
  0
ARC
  5
1E2F3
  8
0
 10
4378.5097852628523469
 20
234.3801499865791129
 30
0.0
 40
0.0020865228994592
 50
317.313505955363496
 51
47.5527264593663119
  0
ARC
  5
1E2F4
  8
0
 10
4378.482322289082731
 20
234.344115249111411
 30
0.0
 40
0.0539688680034665
 50
76.4364071333299933
 51
103.3436548029524999
  0
ARC
  5
1E2F5
  8
0
 10
4378.482322289082731
 20
234.4403974879670045
 30
0.0
 40
0.0539688680034665
 50
256.6563451970474716
 51
283.5635928666699783
  0
ARC
  5
1E2F6
  8
0
 10
4378.4739912866107261
 20
234.4043988548222046
 30
0.0
 40
0.0170205566661056
 50
239.175652193442204
 51
255.9760966213185043
  0
ARC
  5
1E2F7
  8
0
 10
4378.4737225453682186
 20
234.3807712496260933
 30
0.0
 40
0.0163179744092961
 50
103.6677464585398951
 51
121.2640749338080042
  0
ARC
  5
1E2F8
  8
0
 10
4378.4676780716581561
 20
234.3937716220927996
 30
0.0
 40
0.0046596244513565
 50
214.5902913928399869
 51
238.8798895249458099
  0
ARC
  5
1E2F9
  8
0
 10
4378.4678824242064366
 20
234.3904967480534083
 30
0.0
 40
0.0049741526211505
 50
121.9013755566632966
 51
142.4987527561771969
  0
ARC
  5
1E2FA
  8
0
 10
4378.4654905200150097
 20
234.3922627879830998
 30
0.0
 40
0.0020021891407278
 50
140.9226382949375136
 51
214.5834518336504004
  0
ARC
  5
1E2FB
  8
0
 10
4378.490995333061619
 20
234.4037225110334077
 30
0.0
 40
0.0162835948680424
 50
284.1618549675927738
 51
300.6160867729320216
  0
ARC
  5
1E2FC
  8
0
 10
4378.4907758194476628
 20
234.3801532156751932
 30
0.0
 40
0.016955047905724
 50
61.0519687771097068
 51
75.6455595257785234
  0
ARC
  5
1E2FD
  8
0
 10
4378.4960574630458723
 20
234.389643185529394
 30
0.0
 40
0.0060944293773259
 50
43.09934650670656
 51
61.3194549640125288
  0
ARC
  5
1E2FE
  8
0
 10
4378.4963894976563097
 20
234.3944779186726919
 30
0.0
 40
0.005580939704002
 50
301.2926669402579023
 51
319.4950513153596034
  0
ARC
  5
1E2FF
  8
0
 10
4378.4990992147895668
 20
234.3922676559226943
 30
0.0
 40
0.0020865228994592
 50
317.313505955363496
 51
47.5527264593663119
  0
ARC
  5
1E300
  8
0
 10
4378.4927865340569042
 20
234.3561656109608862
 30
0.0
 40
0.0539688680034665
 50
76.4364071333299933
 51
103.3436548029524999
  0
ARC
  5
1E301
  8
0
 10
4378.4927865340569042
 20
234.4524478498163944
 30
0.0
 40
0.0539688680034665
 50
256.6563451970474716
 51
283.5635928666699783
  0
ARC
  5
1E302
  8
0
 10
4378.4844555315858088
 20
234.4164492166717082
 30
0.0
 40
0.0170205566661056
 50
239.175652193442204
 51
255.9760966213185043
  0
ARC
  5
1E303
  8
0
 10
4378.4841867903405728
 20
234.3928216114755116
 30
0.0
 40
0.0163179744092961
 50
103.6677464585398951
 51
121.2640749338080042
  0
ARC
  5
1E304
  8
0
 10
4378.4781423166323293
 20
234.4058219839423032
 30
0.0
 40
0.0046596244513565
 50
214.5902913928399869
 51
238.8798895249458099
  0
ARC
  5
1E305
  8
0
 10
4378.4783466691787908
 20
234.4025471099029119
 30
0.0
 40
0.0049741526211505
 50
121.9013755566632966
 51
142.4987527561771969
  0
ARC
  5
1E306
  8
0
 10
4378.4759547649882734
 20
234.4043131498326034
 30
0.0
 40
0.0020021891407278
 50
140.9226382949375136
 51
214.5834518336504004
  0
ARC
  5
1E307
  8
0
 10
4378.5014595780357922
 20
234.4157728728829113
 30
0.0
 40
0.0162835948680424
 50
284.1618549675927738
 51
300.6160867729320216
  0
ARC
  5
1E308
  8
0
 10
4378.501240064421836
 20
234.3922035775246968
 30
0.0
 40
0.016955047905724
 50
61.0519687771097068
 51
75.6455595257785234
  0
ARC
  5
1E309
  8
0
 10
4378.506521708019136
 20
234.4016935473788976
 30
0.0
 40
0.0060944293773259
 50
43.09934650670656
 51
61.3194549640125288
  0
ARC
  5
1E30A
  8
0
 10
4378.5068537426313924
 20
234.4065282805221955
 30
0.0
 40
0.005580939704002
 50
301.2926669402579023
 51
319.4950513153596034
  0
ARC
  5
1E30B
  8
0
 10
4378.50956345976374
 20
234.4043180177721979
 30
0.0
 40
0.0020865228994592
 50
317.313505955363496
 51
47.5527264593663119
  0
ARC
  5
1E30C
  8
0
 10
4378.5214480094919054
 20
234.3650462955878027
 30
0.0
 40
0.0539688680034665
 50
76.4364071333299933
 51
103.3436548029524999
  0
ARC
  5
1E30D
  8
0
 10
4378.5214480094919054
 20
234.4613285344433109
 30
0.0
 40
0.0539688680034665
 50
256.6563451970474716
 51
283.5635928666699783
  0
ARC
  5
1E30E
  8
0
 10
4378.5131170070199005
 20
234.4253299012985963
 30
0.0
 40
0.0170205566661056
 50
239.175652193442204
 51
255.9760966213185043
  0
ARC
  5
1E30F
  8
0
 10
4378.512848265777393
 20
234.4017022961025134
 30
0.0
 40
0.0163179744092961
 50
103.6677464585398951
 51
121.2640749338080042
  0
ARC
  5
1E310
  8
0
 10
4378.5068037920673305
 20
234.4147026685691912
 30
0.0
 40
0.0046596244513565
 50
214.5902913928399869
 51
238.8798895249458099
  0
ARC
  5
1E311
  8
0
 10
4378.5070081446147015
 20
234.4114277945297999
 30
0.0
 40
0.0049741526211505
 50
121.9013755566632966
 51
142.4987527561771969
  0
ARC
  5
1E312
  8
0
 10
4378.5046162404241841
 20
234.4131938344594914
 30
0.0
 40
0.0020021891407278
 50
140.9226382949375136
 51
214.5834518336504004
  0
ARC
  5
1E313
  8
0
 10
4378.5301210534707934
 20
234.4246535575097994
 30
0.0
 40
0.0162835948680424
 50
284.1618549675927738
 51
300.6160867729320216
  0
ARC
  5
1E314
  8
0
 10
4378.5299015398568372
 20
234.4010842621516133
 30
0.0
 40
0.016955047905724
 50
61.0519687771097068
 51
75.6455595257785234
  0
ARC
  5
1E315
  8
0
 10
4378.5351831834541372
 20
234.4105742320058141
 30
0.0
 40
0.0060944293773259
 50
43.09934650670656
 51
61.3194549640125288
  0
ARC
  5
1E316
  8
0
 10
4378.5355152180645746
 20
234.415408965149112
 30
0.0
 40
0.005580939704002
 50
301.2926669402579023
 51
319.4950513153596034
  0
ARC
  5
1E317
  8
0
 10
4378.5382249351987412
 20
234.4131987023990007
 30
0.0
 40
0.0020865228994592
 50
317.313505955363496
 51
47.5527264593663119
  0
ARC
  5
1E318
  8
0
 10
4378.4865351535718219
 20
234.304436902607307
 30
0.0
 40
0.0539688680034665
 50
76.4364071333299933
 51
103.3436548029524999
  0
ARC
  5
1E319
  8
0
 10
4378.4865351535718219
 20
234.4007191414627869
 30
0.0
 40
0.0539688680034665
 50
256.6563451970474716
 51
283.5635928666699783
  0
ARC
  5
1E31A
  8
0
 10
4378.478204151099817
 20
234.364720508317987
 30
0.0
 40
0.0170205566661056
 50
239.175652193442204
 51
255.9760966213185043
  0
ARC
  5
1E31B
  8
0
 10
4378.4779354098573094
 20
234.3410929031219041
 30
0.0
 40
0.0163179744092961
 50
103.6677464585398951
 51
121.2640749338080042
  0
ARC
  5
1E31C
  8
0
 10
4378.4718909361463375
 20
234.3540932755886956
 30
0.0
 40
0.0046596244513565
 50
214.5902913928399869
 51
238.8798895249458099
  0
ARC
  5
1E31D
  8
0
 10
4378.4720952886927989
 20
234.3508184015491906
 30
0.0
 40
0.0049741526211505
 50
121.9013755566632966
 51
142.4987527561771969
  0
ARC
  5
1E31E
  8
0
 10
4378.469703384503191
 20
234.3525844414789958
 30
0.0
 40
0.0020021891407278
 50
140.9226382949375136
 51
214.5834518336504004
  0
ARC
  5
1E31F
  8
0
 10
4378.4952081975507099
 20
234.3640441645291901
 30
0.0
 40
0.0162835948680424
 50
284.1618549675927738
 51
300.6160867729320216
  0
ARC
  5
1E320
  8
0
 10
4378.4949886839349347
 20
234.340474869171004
 30
0.0
 40
0.016955047905724
 50
61.0519687771097068
 51
75.6455595257785234
  0
ARC
  5
1E321
  8
0
 10
4378.5002703275340536
 20
234.3499648390252901
 30
0.0
 40
0.0060944293773259
 50
43.09934650670656
 51
61.3194549640125288
  0
ARC
  5
1E322
  8
0
 10
4378.5006023621435816
 20
234.3547995721685027
 30
0.0
 40
0.005580939704002
 50
301.2926669402579023
 51
319.4950513153596034
  0
ARC
  5
1E323
  8
0
 10
4378.5033120792786576
 20
234.3525893094185051
 30
0.0
 40
0.0020865228994592
 50
317.313505955363496
 51
47.5527264593663119
  0
ARC
  5
1E324
  8
0
 10
4378.4322555167400424
 20
234.3211960960582871
 30
0.0
 40
0.0539688680034665
 50
76.4364071333299933
 51
103.3436548029524999
  0
ARC
  5
1E325
  8
0
 10
4378.4322555167400424
 20
234.4174783349139091
 30
0.0
 40
0.0539688680034665
 50
256.6563451970474716
 51
283.5635928666699783
  0
ARC
  5
1E326
  8
0
 10
4378.423924514268947
 20
234.3814797017691092
 30
0.0
 40
0.0170205566661056
 50
239.175652193442204
 51
255.9760966213185043
  0
ARC
  5
1E327
  8
0
 10
4378.4236557730237109
 20
234.3578520965729979
 30
0.0
 40
0.0163179744092961
 50
103.6677464585398951
 51
121.2640749338080042
  0
ARC
  5
1E328
  8
0
 10
4378.4176112993136485
 20
234.3708524690397041
 30
0.0
 40
0.0046596244513565
 50
214.5902913928399869
 51
238.8798895249458099
  0
ARC
  5
1E329
  8
0
 10
4378.4178156518619289
 20
234.3675775950003128
 30
0.0
 40
0.0049741526211505
 50
121.9013755566632966
 51
142.4987527561771969
  0
ARC
  5
1E32A
  8
0
 10
4378.4154237476714115
 20
234.3693436349300043
 30
0.0
 40
0.0020021891407278
 50
140.9226382949375136
 51
214.5834518336504004
  0
ARC
  5
1E32B
  8
0
 10
4378.4409285607189304
 20
234.3808033579803123
 30
0.0
 40
0.0162835948680424
 50
284.1618549675927738
 51
300.6160867729320216
  0
ARC
  5
1E32C
  8
0
 10
4378.4407090471040647
 20
234.3572340626220978
 30
0.0
 40
0.016955047905724
 50
61.0519687771097068
 51
75.6455595257785234
  0
ARC
  5
1E32D
  8
0
 10
4378.4459906907022742
 20
234.3667240324762986
 30
0.0
 40
0.0060944293773259
 50
43.09934650670656
 51
61.3194549640125288
  0
ARC
  5
1E32E
  8
0
 10
4378.4463227253118021
 20
234.3715587656195964
 30
0.0
 40
0.005580939704002
 50
301.2926669402579023
 51
319.4950513153596034
  0
ARC
  5
1E32F
  8
0
 10
4378.4490324424459686
 20
234.3693485028695989
 30
0.0
 40
0.0020865228994592
 50
317.313505955363496
 51
47.5527264593663119
  0
ARC
  5
1E330
  8
0
 10
4378.4125399502963774
 20
234.3441104109095932
 30
0.0
 40
0.0539688680034665
 50
76.4364071333299933
 51
103.3436548029524999
  0
ARC
  5
1E331
  8
0
 10
4378.4125399502963774
 20
234.4403926497651014
 30
0.0
 40
0.0539688680034665
 50
256.6563451970474716
 51
283.5635928666699783
  0
ARC
  5
1E332
  8
0
 10
4378.4042089478252819
 20
234.4043940166203868
 30
0.0
 40
0.0170205566661056
 50
239.175652193442204
 51
255.9760966213185043
  0
ARC
  5
1E333
  8
0
 10
4378.4039402065800459
 20
234.3807664114241902
 30
0.0
 40
0.0163179744092961
 50
103.6677464585398951
 51
121.2640749338080042
  0
ARC
  5
1E334
  8
0
 10
4378.3978957328699835
 20
234.3937667838908965
 30
0.0
 40
0.0046596244513565
 50
214.5902913928399869
 51
238.8798895249458099
  0
ARC
  5
1E335
  8
0
 10
4378.3981000854182639
 20
234.3904919098515052
 30
0.0
 40
0.0049741526211505
 50
121.9013755566632966
 51
142.4987527561771969
  0
ARC
  5
1E336
  8
0
 10
4378.395708181226837
 20
234.3922579497811967
 30
0.0
 40
0.0020021891407278
 50
140.9226382949375136
 51
214.5834518336504004
  0
ARC
  5
1E337
  8
0
 10
4378.4212129942752654
 20
234.4037176728315046
 30
0.0
 40
0.0162835948680424
 50
284.1618549675927738
 51
300.6160867729320216
  0
ARC
  5
1E338
  8
0
 10
4378.4209934806613091
 20
234.3801483774734038
 30
0.0
 40
0.016955047905724
 50
61.0519687771097068
 51
75.6455595257785234
  0
ARC
  5
1E339
  8
0
 10
4378.4262751242576996
 20
234.3896383473276046
 30
0.0
 40
0.0060944293773259
 50
43.09934650670656
 51
61.3194549640125288
  0
ARC
  5
1E33A
  8
0
 10
4378.4266071588690465
 20
234.3944730804707888
 30
0.0
 40
0.005580939704002
 50
301.2926669402579023
 51
319.4950513153596034
  0
ARC
  5
1E33B
  8
0
 10
4378.4293168760032131
 20
234.3922628177207912
 30
0.0
 40
0.0020865228994592
 50
317.313505955363496
 51
47.5527264593663119
  0
ARC
  5
1E33C
  8
0
 10
4378.4323115768720527
 20
234.3672327140847074
 30
0.0
 40
0.0539688680034665
 50
76.4364071333299933
 51
103.3436548029524999
  0
ARC
  5
1E33D
  8
0
 10
4378.4323115768720527
 20
234.4635149529403009
 30
0.0
 40
0.0539688680034665
 50
256.6563451970474716
 51
283.5635928666699783
  0
ARC
  5
1E33E
  8
0
 10
4378.4239805744018668
 20
234.427516319795501
 30
0.0
 40
0.0170205566661056
 50
239.175652193442204
 51
255.9760966213185043
  0
ARC
  5
1E33F
  8
0
 10
4378.4237118331566307
 20
234.4038887145993897
 30
0.0
 40
0.0163179744092961
 50
103.6677464585398951
 51
121.2640749338080042
  0
ARC
  5
1E340
  8
0
 10
4378.4176673594465683
 20
234.416889087066096
 30
0.0
 40
0.0046596244513565
 50
214.5902913928399869
 51
238.8798895249458099
  0
ARC
  5
1E341
  8
0
 10
4378.4178717119939392
 20
234.4136142130267046
 30
0.0
 40
0.0049741526211505
 50
121.9013755566632966
 51
142.4987527561771969
  0
ARC
  5
1E342
  8
0
 10
4378.4154798078043314
 20
234.4153802529563961
 30
0.0
 40
0.0020021891407278
 50
140.9226382949375136
 51
214.5834518336504004
  0
ARC
  5
1E343
  8
0
 10
4378.4409846208509407
 20
234.4268399760067041
 30
0.0
 40
0.0162835948680424
 50
284.1618549675927738
 51
300.6160867729320216
  0
ARC
  5
1E344
  8
0
 10
4378.4407651072369845
 20
234.4032706806486033
 30
0.0
 40
0.016955047905724
 50
61.0519687771097068
 51
75.6455595257785234
  0
ARC
  5
1E345
  8
0
 10
4378.446046750835194
 20
234.4127606505026904
 30
0.0
 40
0.0060944293773259
 50
43.09934650670656
 51
61.3194549640125288
  0
ARC
  5
1E346
  8
0
 10
4378.4463787854447219
 20
234.4175953836459882
 30
0.0
 40
0.005580939704002
 50
301.2926669402579023
 51
319.4950513153596034
  0
ARC
  5
1E347
  8
0
 10
4378.4490885025797979
 20
234.4153851208959907
 30
0.0
 40
0.0020865228994592
 50
317.313505955363496
 51
47.5527264593663119
  0
ARC
  5
1E348
  8
0
 10
4378.4865813054011596
 20
234.3838105260599889
 30
0.0
 40
0.0539688680034665
 50
76.4364071333299933
 51
103.3436548029524999
  0
ARC
  5
1E349
  8
0
 10
4378.4865813054011596
 20
234.4800927649156108
 30
0.0
 40
0.0539688680034665
 50
256.6563451970474716
 51
283.5635928666699783
  0
ARC
  5
1E34A
  8
0
 10
4378.4782503029291547
 20
234.4440941317708109
 30
0.0
 40
0.0170205566661056
 50
239.175652193442204
 51
255.9760966213185043
  0
ARC
  5
1E34B
  8
0
 10
4378.4779815616857377
 20
234.4204665265746996
 30
0.0
 40
0.0163179744092961
 50
103.6677464585398951
 51
121.2640749338080042
  0
ARC
  5
1E34C
  8
0
 10
4378.4719370879756752
 20
234.4334668990414059
 30
0.0
 40
0.0046596244513565
 50
214.5902913928399869
 51
238.8798895249458099
  0
ARC
  5
1E34D
  8
0
 10
4378.4721414405239557
 20
234.4301920250019862
 30
0.0
 40
0.0049741526211505
 50
121.9013755566632966
 51
142.4987527561771969
  0
ARC
  5
1E34E
  8
0
 10
4378.4697495363334383
 20
234.4319580649317913
 30
0.0
 40
0.0020021891407278
 50
140.9226382949375136
 51
214.5834518336504004
  0
ARC
  5
1E34F
  8
0
 10
4378.4952543493800476
 20
234.443417787982014
 30
0.0
 40
0.0162835948680424
 50
284.1618549675927738
 51
300.6160867729320216
  0
ARC
  5
1E350
  8
0
 10
4378.4950348357660914
 20
234.4198484926237995
 30
0.0
 40
0.016955047905724
 50
61.0519687771097068
 51
75.6455595257785234
  0
ARC
  5
1E351
  8
0
 10
4378.5003164793633914
 20
234.4293384624780003
 30
0.0
 40
0.0060944293773259
 50
43.09934650670656
 51
61.3194549640125288
  0
ARC
  5
1E352
  8
0
 10
4378.5006485139738288
 20
234.4341731956212982
 30
0.0
 40
0.005580939704002
 50
301.2926669402579023
 51
319.4950513153596034
  0
ARC
  5
1E353
  8
0
 10
4378.5033582311089049
 20
234.4319629328713006
 30
0.0
 40
0.0020865228994592
 50
317.313505955363496
 51
47.5527264593663119
  0
ARC
  5
1E354
  8
0
 10
4378.4488636569903974
 20
234.2842764758838996
 30
0.0
 40
0.0539688680034665
 50
76.4364071333299933
 51
103.3436548029524999
  0
ARC
  5
1E355
  8
0
 10
4378.4488636569903974
 20
234.3805587147394078
 30
0.0
 40
0.0539688680034665
 50
256.6563451970474716
 51
283.5635928666699783
  0
ARC
  5
1E356
  8
0
 10
4378.4405326545183925
 20
234.3445600815946932
 30
0.0
 40
0.0170205566661056
 50
239.175652193442204
 51
255.9760966213185043
  0
ARC
  5
1E357
  8
0
 10
4378.440263913274066
 20
234.3209324763984966
 30
0.0
 40
0.0163179744092961
 50
103.6677464585398951
 51
121.2640749338080042
  0
ARC
  5
1E358
  8
0
 10
4378.4342194395640036
 20
234.3339328488652882
 30
0.0
 40
0.0046596244513565
 50
214.5902913928399869
 51
238.8798895249458099
  0
ARC
  5
1E359
  8
0
 10
4378.4344237921113745
 20
234.3306579748258116
 30
0.0
 40
0.0049741526211505
 50
121.9013755566632966
 51
142.4987527561771969
  0
ARC
  5
1E35A
  8
0
 10
4378.4320318879199476
 20
234.3324240147555884
 30
0.0
 40
0.0020021891407278
 50
140.9226382949375136
 51
214.5834518336504004
  0
ARC
  5
1E35B
  8
0
 10
4378.4575367009692854
 20
234.3438837378058963
 30
0.0
 40
0.0162835948680424
 50
284.1618549675927738
 51
300.6160867729320216
  0
ARC
  5
1E35C
  8
0
 10
4378.4573171873544197
 20
234.3203144424477102
 30
0.0
 40
0.016955047905724
 50
61.0519687771097068
 51
75.6455595257785234
  0
ARC
  5
1E35D
  8
0
 10
4378.4625988309517197
 20
234.329804412301911
 30
0.0
 40
0.0060944293773259
 50
43.09934650670656
 51
61.3194549640125288
  0
ARC
  5
1E35E
  8
0
 10
4378.4629308655630666
 20
234.3346391454452089
 30
0.0
 40
0.005580939704002
 50
301.2926669402579023
 51
319.4950513153596034
  0
ARC
  5
1E35F
  8
0
 10
4378.4656405826963237
 20
234.3324288826952113
 30
0.0
 40
0.0020865228994592
 50
317.313505955363496
 51
47.5527264593663119
  0
ARC
  5
1E360
  8
0
 10
4378.3672209390051648
 20
234.3096782930035999
 30
0.0
 40
0.0539688680034665
 50
76.4364071333299933
 51
103.3436548029524999
  0
ARC
  5
1E361
  8
0
 10
4378.3672209390051648
 20
234.4059605318591935
 30
0.0
 40
0.0539688680034665
 50
256.6563451970474716
 51
283.5635928666699783
  0
ARC
  5
1E362
  8
0
 10
4378.3588899365331599
 20
234.3699618987145072
 30
0.0
 40
0.0170205566661056
 50
239.175652193442204
 51
255.9760966213185043
  0
ARC
  5
1E363
  8
0
 10
4378.3586211952879239
 20
234.3463342935183107
 30
0.0
 40
0.0163179744092961
 50
103.6677464585398951
 51
121.2640749338080042
  0
ARC
  5
1E364
  8
0
 10
4378.3525767215796805
 20
234.3593346659849885
 30
0.0
 40
0.0046596244513565
 50
214.5902913928399869
 51
238.8798895249458099
  0
ARC
  5
1E365
  8
0
 10
4378.3527810741261419
 20
234.3560597919455972
 30
0.0
 40
0.0049741526211505
 50
121.9013755566632966
 51
142.4987527561771969
  0
ARC
  5
1E366
  8
0
 10
4378.3503891699374435
 20
234.3578258318752887
 30
0.0
 40
0.0020021891407278
 50
140.9226382949375136
 51
214.5834518336504004
  0
ARC
  5
1E367
  8
0
 10
4378.3758939829840529
 20
234.3692855549255967
 30
0.0
 40
0.0162835948680424
 50
284.1618549675927738
 51
300.6160867729320216
  0
ARC
  5
1E368
  8
0
 10
4378.3756744693691871
 20
234.3457162595674959
 30
0.0
 40
0.016955047905724
 50
61.0519687771097068
 51
75.6455595257785234
  0
ARC
  5
1E369
  8
0
 10
4378.3809561129655776
 20
234.3552062294216967
 30
0.0
 40
0.0060944293773259
 50
43.09934650670656
 51
61.3194549640125288
  0
ARC
  5
1E36A
  8
0
 10
4378.381288147577834
 20
234.3600409625649093
 30
0.0
 40
0.005580939704002
 50
301.2926669402579023
 51
319.4950513153596034
  0
ARC
  5
1E36B
  8
0
 10
4378.3839978647110911
 20
234.3578306998149117
 30
0.0
 40
0.0020865228994592
 50
317.313505955363496
 51
47.5527264593663119
  0
ARC
  5
1E36C
  8
0
 10
4378.3371118239547286
 20
234.3442064706237886
 30
0.0
 40
0.0539688680034665
 50
76.4364071333299933
 51
103.3436548029524999
  0
ARC
  5
1E36D
  8
0
 10
4378.3371118239547286
 20
234.4404887094792969
 30
0.0
 40
0.0539688680034665
 50
256.6563451970474716
 51
283.5635928666699783
  0
ARC
  5
1E36E
  8
0
 10
4378.3287808214818142
 20
234.404490076334497
 30
0.0
 40
0.0170205566661056
 50
239.175652193442204
 51
255.9760966213185043
  0
ARC
  5
1E36F
  8
0
 10
4378.3285120802402162
 20
234.3808624711384141
 30
0.0
 40
0.0163179744092961
 50
103.6677464585398951
 51
121.2640749338080042
  0
ARC
  5
1E370
  8
0
 10
4378.3224676065292442
 20
234.3938628436052056
 30
0.0
 40
0.0046596244513565
 50
214.5902913928399869
 51
238.8798895249458099
  0
ARC
  5
1E371
  8
0
 10
4378.3226719590757057
 20
234.3905879695657859
 30
0.0
 40
0.0049741526211505
 50
121.9013755566632966
 51
142.4987527561771969
  0
ARC
  5
1E372
  8
0
 10
4378.3202800548860978
 20
234.3923540094955058
 30
0.0
 40
0.0020021891407278
 50
140.9226382949375136
 51
214.5834518336504004
  0
ARC
  5
1E373
  8
0
 10
4378.3457848679336166
 20
234.4038137325457001
 30
0.0
 40
0.0162835948680424
 50
284.1618549675927738
 51
300.6160867729320216
  0
ARC
  5
1E374
  8
0
 10
4378.3455653543178414
 20
234.3802444371875993
 30
0.0
 40
0.016955047905724
 50
61.0519687771097068
 51
75.6455595257785234
  0
ARC
  5
1E375
  8
0
 10
4378.3508469979160509
 20
234.3897344070418001
 30
0.0
 40
0.0060944293773259
 50
43.09934650670656
 51
61.3194549640125288
  0
ARC
  5
1E376
  8
0
 10
4378.3511790325273978
 20
234.3945691401850979
 30
0.0
 40
0.005580939704002
 50
301.2926669402579023
 51
319.4950513153596034
  0
ARC
  5
1E377
  8
0
 10
4378.3538887496597454
 20
234.3923588774349867
 30
0.0
 40
0.0020865228994592
 50
317.313505955363496
 51
47.5527264593663119
  0
ARC
  5
1E378
  8
0
 10
4378.3048129740463992
 20
234.3897608858117962
 30
0.0
 40
0.0539688680034665
 50
76.4364071333299933
 51
103.3436548029524999
  0
ARC
  5
1E379
  8
0
 10
4378.3048129740463992
 20
234.4860431246673045
 30
0.0
 40
0.0539688680034665
 50
256.6563451970474716
 51
283.5635928666699783
  0
ARC
  5
1E37A
  8
0
 10
4378.2964819715743943
 20
234.4500444915225899
 30
0.0
 40
0.0170205566661056
 50
239.175652193442204
 51
255.9760966213185043
  0
ARC
  5
1E37B
  8
0
 10
4378.2962132303300677
 20
234.4264168863263933
 30
0.0
 40
0.0163179744092961
 50
103.6677464585398951
 51
121.2640749338080042
  0
ARC
  5
1E37C
  8
0
 10
4378.2901687566200053
 20
234.4394172587932133
 30
0.0
 40
0.0046596244513565
 50
214.5902913928399869
 51
238.8798895249458099
  0
ARC
  5
1E37D
  8
0
 10
4378.2903731091673762
 20
234.4361423847537083
 30
0.0
 40
0.0049741526211505
 50
121.9013755566632966
 51
142.4987527561771969
  0
ARC
  5
1E37E
  8
0
 10
4378.2879812049768589
 20
234.4379084246835134
 30
0.0
 40
0.0020021891407278
 50
140.9226382949375136
 51
214.5834518336504004
  0
ARC
  5
1E37F
  8
0
 10
4378.3134860180252872
 20
234.449368147733793
 30
0.0
 40
0.0162835948680424
 50
284.1618549675927738
 51
300.6160867729320216
  0
ARC
  5
1E380
  8
0
 10
4378.3132665044104215
 20
234.4257988523756069
 30
0.0
 40
0.016955047905724
 50
61.0519687771097068
 51
75.6455595257785234
  0
ARC
  5
1E381
  8
0
 10
4378.3185481480077215
 20
234.4352888222298077
 30
0.0
 40
0.0060944293773259
 50
43.09934650670656
 51
61.3194549640125288
  0
ARC
  5
1E382
  8
0
 10
4378.3188801826181589
 20
234.4401235553731055
 30
0.0
 40
0.005580939704002
 50
301.2926669402579023
 51
319.4950513153596034
  0
ARC
  5
1E383
  8
0
 10
4378.3215898997523254
 20
234.4379132926229943
 30
0.0
 40
0.0020865228994592
 50
317.313505955363496
 51
47.5527264593663119
  0
ARC
  5
1E384
  8
0
 10
4378.3673314948018742
 20
234.3786417094125056
 30
0.0
 40
0.0539688680034665
 50
76.4364071333299933
 51
103.3436548029524999
  0
ARC
  5
1E385
  8
0
 10
4378.3673314948018742
 20
234.4749239482680139
 30
0.0
 40
0.0539688680034665
 50
256.6563451970474716
 51
283.5635928666699783
  0
ARC
  5
1E386
  8
0
 10
4378.3590004923298693
 20
234.4389253151232992
 30
0.0
 40
0.0170205566661056
 50
239.175652193442204
 51
255.9760966213185043
  0
ARC
  5
1E387
  8
0
 10
4378.3587317510846333
 20
234.4152977099271027
 30
0.0
 40
0.0163179744092961
 50
103.6677464585398951
 51
121.2640749338080042
  0
ARC
  5
1E388
  8
0
 10
4378.3526872773763898
 20
234.4282980823938942
 30
0.0
 40
0.0046596244513565
 50
214.5902913928399869
 51
238.8798895249458099
  0
ARC
  5
1E389
  8
0
 10
4378.3528916299228513
 20
234.4250232083543892
 30
0.0
 40
0.0049741526211505
 50
121.9013755566632966
 51
142.4987527561771969
  0
ARC
  5
1E38A
  8
0
 10
4378.3504997257323339
 20
234.4267892482841944
 30
0.0
 40
0.0020021891407278
 50
140.9226382949375136
 51
214.5834518336504004
  0
ARC
  5
1E38B
  8
0
 10
4378.3760045387807622
 20
234.4382489713343887
 30
0.0
 40
0.0162835948680424
 50
284.1618549675927738
 51
300.6160867729320216
  0
ARC
  5
1E38C
  8
0
 10
4378.375785025164987
 20
234.4146796759762879
 30
0.0
 40
0.016955047905724
 50
61.0519687771097068
 51
75.6455595257785234
  0
ARC
  5
1E38D
  8
0
 10
4378.3810666687631965
 20
234.4241696458304887
 30
0.0
 40
0.0060944293773259
 50
43.09934650670656
 51
61.3194549640125288
  0
ARC
  5
1E38E
  8
0
 10
4378.3813987033736339
 20
234.4290043789737865
 30
0.0
 40
0.005580939704002
 50
301.2926669402579023
 51
319.4950513153596034
  0
ARC
  5
1E38F
  8
0
 10
4378.384108420506891
 20
234.4267941162237037
 30
0.0
 40
0.0020865228994592
 50
317.313505955363496
 51
47.5527264593663119
  0
ARC
  5
1E390
  8
0
 10
4378.4489014649861929
 20
234.4039313863372911
 30
0.0
 40
0.0539688680034665
 50
76.4364071333299933
 51
103.3436548029524999
  0
ARC
  5
1E391
  8
0
 10
4378.4489014649861929
 20
234.5002136251927993
 30
0.0
 40
0.0539688680034665
 50
256.6563451970474716
 51
283.5635928666699783
  0
ARC
  5
1E392
  8
0
 10
4378.440570462514188
 20
234.4642149920479994
 30
0.0
 40
0.0170205566661056
 50
239.175652193442204
 51
255.9760966213185043
  0
ARC
  5
1E393
  8
0
 10
4378.4403017212707709
 20
234.4405873868518881
 30
0.0
 40
0.0163179744092961
 50
103.6677464585398951
 51
121.2640749338080042
  0
ARC
  5
1E394
  8
0
 10
4378.4342572475607085
 20
234.4535877593187081
 30
0.0
 40
0.0046596244513565
 50
214.5902913928399869
 51
238.8798895249458099
  0
ARC
  5
1E395
  8
0
 10
4378.4344616001071699
 20
234.4503128852792031
 30
0.0
 40
0.0049741526211505
 50
121.9013755566632966
 51
142.4987527561771969
  0
ARC
  5
1E396
  8
0
 10
4378.4320696959166526
 20
234.4520789252090083
 30
0.0
 40
0.0020021891407278
 50
140.9226382949375136
 51
214.5834518336504004
  0
ARC
  5
1E397
  8
0
 10
4378.4575745089650809
 20
234.4635386482592025
 30
0.0
 40
0.0162835948680424
 50
284.1618549675927738
 51
300.6160867729320216
  0
ARC
  5
1E398
  8
0
 10
4378.4573549953511247
 20
234.439969352900988
 30
0.0
 40
0.016955047905724
 50
61.0519687771097068
 51
75.6455595257785234
  0
ARC
  5
1E399
  8
0
 10
4378.4626366389484247
 20
234.4494593227553025
 30
0.0
 40
0.0060944293773259
 50
43.09934650670656
 51
61.3194549640125288
  0
ARC
  5
1E39A
  8
0
 10
4378.4629686735579526
 20
234.4542940558984867
 30
0.0
 40
0.005580939704002
 50
301.2926669402579023
 51
319.4950513153596034
  0
ARC
  5
1E39B
  8
0
 10
4378.4656783906930286
 20
234.4520837931484891
 30
0.0
 40
0.0020865228994592
 50
317.313505955363496
 51
47.5527264593663119
  0
ARC
  5
1E39C
  8
0
 10
4378.4128697924716107
 20
234.423297680632686
 30
0.0
 40
0.0539688680034665
 50
76.4364071333299933
 51
103.3436548029524999
  0
ARC
  5
1E39D
  8
0
 10
4378.4128697924716107
 20
234.5195799194881943
 30
0.0
 40
0.0539688680034665
 50
256.6563451970474716
 51
283.5635928666699783
  0
ARC
  5
1E39E
  8
0
 10
4378.4045387900014248
 20
234.4835812863435081
 30
0.0
 40
0.0170205566661056
 50
239.175652193442204
 51
255.9760966213185043
  0
ARC
  5
1E39F
  8
0
 10
4378.4042700487570983
 20
234.4599536811473115
 30
0.0
 40
0.0163179744092961
 50
103.6677464585398951
 51
121.2640749338080042
  0
ARC
  5
1E3A0
  8
0
 10
4378.3982255750479453
 20
234.4729540536139893
 30
0.0
 40
0.0046596244513565
 50
214.5902913928399869
 51
238.8798895249458099
  0
ARC
  5
1E3A1
  8
0
 10
4378.3984299275944068
 20
234.469679179574598
 30
0.0
 40
0.0049741526211505
 50
121.9013755566632966
 51
142.4987527561771969
  0
ARC
  5
1E3A2
  8
0
 10
4378.3960380234038894
 20
234.4714452195042895
 30
0.0
 40
0.0020021891407278
 50
140.9226382949375136
 51
214.5834518336504004
  0
ARC
  5
1E3A3
  8
0
 10
4378.4215428364514082
 20
234.4829049425545975
 30
0.0
 40
0.0162835948680424
 50
284.1618549675927738
 51
300.6160867729320216
  0
ARC
  5
1E3A4
  8
0
 10
4378.4213233228383615
 20
234.4593356471964114
 30
0.0
 40
0.016955047905724
 50
61.0519687771097068
 51
75.6455595257785234
  0
ARC
  5
1E3A5
  8
0
 10
4378.4266049664338425
 20
234.4688256170506975
 30
0.0
 40
0.0060944293773259
 50
43.09934650670656
 51
61.3194549640125288
  0
ARC
  5
1E3A6
  8
0
 10
4378.4269370010451894
 20
234.4736603501939101
 30
0.0
 40
0.005580939704002
 50
301.2926669402579023
 51
319.4950513153596034
  0
ARC
  5
1E3A7
  8
0
 10
4378.4296467181802655
 20
234.4714500874439125
 30
0.0
 40
0.0020865228994592
 50
317.313505955363496
 51
47.5527264593663119
  0
ARC
  5
1E3A8
  8
0
 10
4378.4129656161876483
 20
234.2649294358483871
 30
0.0
 40
0.0539688680034665
 50
76.4364071333299933
 51
103.3436548029524999
  0
ARC
  5
1E3A9
  8
0
 10
4378.4129656161876483
 20
234.3612116747038954
 30
0.0
 40
0.0539688680034665
 50
256.6563451970474716
 51
283.5635928666699783
  0
ARC
  5
1E3AA
  8
0
 10
4378.4046346137156434
 20
234.3252130415592092
 30
0.0
 40
0.0170205566661056
 50
239.175652193442204
 51
255.9760966213185043
  0
ARC
  5
1E3AB
  8
0
 10
4378.4043658724722263
 20
234.3015854363630126
 30
0.0
 40
0.0163179744092961
 50
103.6677464585398951
 51
121.2640749338080042
  0
ARC
  5
1E3AC
  8
0
 10
4378.3983213987630734
 20
234.3145858088298041
 30
0.0
 40
0.0046596244513565
 50
214.5902913928399869
 51
238.8798895249458099
  0
ARC
  5
1E3AD
  8
0
 10
4378.3985257513086253
 20
234.3113109347902991
 30
0.0
 40
0.0049741526211505
 50
121.9013755566632966
 51
142.4987527561771969
  0
ARC
  5
1E3AE
  8
0
 10
4378.3961338471190174
 20
234.3130769747201043
 30
0.0
 40
0.0020021891407278
 50
140.9226382949375136
 51
214.5834518336504004
  0
ARC
  5
1E3AF
  8
0
 10
4378.4216386601674458
 20
234.3245366977702986
 30
0.0
 40
0.0162835948680424
 50
284.1618549675927738
 51
300.6160867729320216
  0
ARC
  5
1E3B0
  8
0
 10
4378.4214191465525801
 20
234.3009674024121978
 30
0.0
 40
0.016955047905724
 50
61.0519687771097068
 51
75.6455595257785234
  0
ARC
  5
1E3B1
  8
0
 10
4378.4267007901489706
 20
234.3104573722663986
 30
0.0
 40
0.0060944293773259
 50
43.09934650670656
 51
61.3194549640125288
  0
ARC
  5
1E3B2
  8
0
 10
4378.4270328247612269
 20
234.3152921054096112
 30
0.0
 40
0.005580939704002
 50
301.2926669402579023
 51
319.4950513153596034
  0
ARC
  5
1E3B3
  8
0
 10
4378.4297425418953935
 20
234.3130818426596989
 30
0.0
 40
0.0020865228994592
 50
317.313505955363496
 51
47.5527264593663119
  0
ARC
  5
1E3B4
  8
0
 10
4378.3047729497184264
 20
234.2984615757933113
 30
0.0
 40
0.0539688680034665
 50
76.4364071333299933
 51
103.3436548029524999
  0
ARC
  5
1E3B5
  8
0
 10
4378.3047729497184264
 20
234.3947438146487912
 30
0.0
 40
0.0539688680034665
 50
256.6563451970474716
 51
283.5635928666699783
  0
ARC
  5
1E3B6
  8
0
 10
4378.296441947247331
 20
234.3587451815039913
 30
0.0
 40
0.0170205566661056
 50
239.175652193442204
 51
255.9760966213185043
  0
ARC
  5
1E3B7
  8
0
 10
4378.2961732060030045
 20
234.3351175763079084
 30
0.0
 40
0.0163179744092961
 50
103.6677464585398951
 51
121.2640749338080042
  0
ARC
  5
1E3B8
  8
0
 10
4378.290128732292942
 20
234.3481179487746999
 30
0.0
 40
0.0046596244513565
 50
214.5902913928399869
 51
238.8798895249458099
  0
ARC
  5
1E3B9
  8
0
 10
4378.2903330848403129
 20
234.3448430747351949
 30
0.0
 40
0.0049741526211505
 50
121.9013755566632966
 51
142.4987527561771969
  0
ARC
  5
1E3BA
  8
0
 10
4378.2879411806497956
 20
234.3466091146650001
 30
0.0
 40
0.0020021891407278
 50
140.9226382949375136
 51
214.5834518336504004
  0
ARC
  5
1E3BB
  8
0
 10
4378.3134459936973144
 20
234.3580688377151944
 30
0.0
 40
0.0162835948680424
 50
284.1618549675927738
 51
300.6160867729320216
  0
ARC
  5
1E3BC
  8
0
 10
4378.3132264800833582
 20
234.3344995423570936
 30
0.0
 40
0.016955047905724
 50
61.0519687771097068
 51
75.6455595257785234
  0
ARC
  5
1E3BD
  8
0
 10
4378.3185081236806582
 20
234.3439895122112944
 30
0.0
 40
0.0060944293773259
 50
43.09934650670656
 51
61.3194549640125288
  0
ARC
  5
1E3BE
  8
0
 10
4378.3188401582910956
 20
234.348824245354507
 30
0.0
 40
0.005580939704002
 50
301.2926669402579023
 51
319.4950513153596034
  0
ARC
  5
1E3BF
  8
0
 10
4378.3215498754252621
 20
234.3466139826045094
 30
0.0
 40
0.0020865228994592
 50
317.313505955363496
 51
47.5527264593663119
  0
ARC
  5
1E3C0
  8
0
 10
4378.2653326907620794
 20
234.3441463275098045
 30
0.0
 40
0.0539688680034665
 50
76.4364071333299933
 51
103.3436548029524999
  0
ARC
  5
1E3C1
  8
0
 10
4378.2653326907620794
 20
234.4404285663653127
 30
0.0
 40
0.0539688680034665
 50
256.6563451970474716
 51
283.5635928666699783
  0
ARC
  5
1E3C2
  8
0
 10
4378.2570016882918935
 20
234.4044299332205128
 30
0.0
 40
0.0170205566661056
 50
239.175652193442204
 51
255.9760966213185043
  0
ARC
  5
1E3C3
  8
0
 10
4378.2567329470466575
 20
234.3808023280244015
 30
0.0
 40
0.0163179744092961
 50
103.6677464585398951
 51
121.2640749338080042
  0
ARC
  5
1E3C4
  8
0
 10
4378.2506884733365951
 20
234.393802700491193
 30
0.0
 40
0.0046596244513565
 50
214.5902913928399869
 51
238.8798895249458099
  0
ARC
  5
1E3C5
  8
0
 10
4378.250892825883966
 20
234.390527826451688
 30
0.0
 40
0.0049741526211505
 50
121.9013755566632966
 51
142.4987527561771969
  0
ARC
  5
1E3C6
  8
0
 10
4378.2485009216943581
 20
234.3922938663814932
 30
0.0
 40
0.0020021891407278
 50
140.9226382949375136
 51
214.5834518336504004
  0
ARC
  5
1E3C7
  8
0
 10
4378.2740057347409675
 20
234.4037535894316875
 30
0.0
 40
0.0162835948680424
 50
284.1618549675927738
 51
300.6160867729320216
  0
ARC
  5
1E3C8
  8
0
 10
4378.2737862211279207
 20
234.3801842940735014
 30
0.0
 40
0.016955047905724
 50
61.0519687771097068
 51
75.6455595257785234
  0
ARC
  5
1E3C9
  8
0
 10
4378.2790678647252207
 20
234.3896742639277875
 30
0.0
 40
0.0060944293773259
 50
43.09934650670656
 51
61.3194549640125288
  0
ARC
  5
1E3CA
  8
0
 10
4378.2793998993347486
 20
234.3945089970710001
 30
0.0
 40
0.005580939704002
 50
301.2926669402579023
 51
319.4950513153596034
  0
ARC
  5
1E3CB
  8
0
 10
4378.2821096164698247
 20
234.3922987343210025
 30
0.0
 40
0.0020865228994592
 50
317.313505955363496
 51
47.5527264593663119
  0
ARC
  5
1E3CC
  8
0
 10
4378.5397394313986297
 20
235.2090611554664008
 30
0.0
 40
0.9451785200515059
 50
244.205641640884096
 51
258.6099213129273835
  0
ARC
  5
1E3CD
  8
0
 10
4378.5592532215887331
 20
235.3112769091650875
 30
0.0
 40
1.0492354377112469
 50
258.667633984733925
 51
270.0739929318551162
  0
ARC
  5
1E3CE
  8
0
 10
4378.4276337800738474
 20
235.1610626279957899
 30
0.0
 40
0.8210841121292283
 50
226.9983723975782084
 51
254.9990157796258075
  0
ARC
  5
1E3CF
  8
0
 10
4378.4302100608347246
 20
235.1634447791809919
 30
0.0
 40
0.8245833746585265
 50
212.0785210875581868
 51
226.9803446479917
  0
ARC
  5
1E3D0
  8
0
 10
4379.129041117318593
 20
235.622682771769604
 30
0.0
 40
1.660707616575732
 50
205.7725061029780136
 51
212.6990701632012133
  0
ARC
  5
1E3D1
  8
0
 10
4378.087862917415805
 20
234.574247198422313
 30
0.0
 40
0.0858225417818904
 50
191.8916791074337027
 51
233.2553381599572901
  0
ARC
  5
1E3D2
  8
0
 10
4378.048153325678868
 20
234.5639895070557088
 30
0.0
 40
0.0448897796440486
 50
148.3333427805401072
 51
189.5234620736904105
  0
ARC
  5
1E3D3
  8
0
 10
4378.096545351550958
 20
234.5358141524413895
 30
0.0
 40
0.1008784945287396
 50
120.6738636162227039
 51
149.1422455547493087
  0
ARC
  5
1E3D4
  8
0
 10
4378.2117966631467425
 20
234.5368883659388928
 30
0.0
 40
0.1431882218699932
 50
115.6927888075903041
 51
141.0959541063338065
  0
ARC
  5
1E3D5
  8
0
 10
4378.1441168930559797
 20
234.59188566865501
 30
0.0
 40
0.0559813848984527
 50
141.3975958509554971
 51
192.9103233616905015
  0
ARC
  5
1E3D6
  8
0
 10
4378.5593134703849501
 20
233.2473569905378099
 30
0.0
 40
1.4669163777890759
 50
89.9494286151881255
 51
95.8102422621183649
  0
ARC
  5
1E3D7
  8
0
 10
4378.5045232071706778
 20
233.7141858544586057
 30
0.0
 40
0.9969655020310876
 50
95.3935932910322464
 51
105.7725360938491974
  0
ARC
  5
1E3D8
  8
0
 10
4378.3223757732312151
 20
234.3299014104067908
 30
0.0
 40
0.3550099843512251
 50
104.4932188410440972
 51
123.0061555986842023
  0
ARC
  5
1E3D9
  8
0
 10
4378.18767969046894
 20
234.5353688123447
 30
0.0
 40
0.1093345511090017
 50
122.4644579839780931
 51
140.4683623780036896
  0
ARC
  5
1E3DA
  8
0
 10
4378.1525021592788107
 20
234.5619294376600124
 30
0.0
 40
0.0653249001808939
 50
138.7971411836653886
 51
164.5079837680374908
  0
ARC
  5
1E3DB
  8
0
 10
4378.1350865186141164
 20
234.568150235282701
 30
0.0
 40
0.0468996421243712
 50
166.1488988353436866
 51
205.0525540176192862
  0
ARC
  5
1E3DC
  8
0
 10
4378.1659115654911147
 20
234.5832212038926059
 30
0.0
 40
0.0812086720224202
 50
205.4760506226060954
 51
227.2926059092532114
  0
ARC
  5
1E3DD
  8
0
 10
4378.8390499224733503
 20
235.3117574202875915
 30
0.0
 40
1.0731160501393
 50
227.2655192940484028
 51
228.4684800412447885
  0
ARC
  5
1E3DE
  8
0
 10
4378.1823701085641005
 20
234.5766155329345963
 30
0.0
 40
0.0874433710487048
 50
209.7023981168190971
 51
226.0777757033002047
  0
ARC
  5
1E3DF
  8
0
 10
4378.1496467240685888
 20
234.5577494403443097
 30
0.0
 40
0.0496717329576847
 50
180.8625754689032021
 51
209.5028244267585933
  0
ARC
  5
1E3E0
  8
0
 10
4378.149233887437731
 20
234.5563750662815892
 30
0.0
 40
0.0492572531789049
 50
150.1109442466168105
 51
179.2711164462959914
  0
ARC
  5
1E3E1
  8
0
 10
4378.1832054526239517
 20
234.5365546576103952
 30
0.0
 40
0.0885876432801843
 50
129.837986549781192
 51
149.9457903608887932
  0
ARC
  5
1E3E2
  8
0
 10
4378.2508137794720824
 20
234.4572315429211926
 30
0.0
 40
0.1928109069497523
 50
117.1818689809838929
 51
130.1642026853278082
  0
ARC
  5
1E3E3
  8
0
 10
4378.3393917010853329
 20
234.2883890163026877
 30
0.0
 40
0.383474097967633
 50
109.0422683620725053
 51
117.4307039004297053
  0
ARC
  5
1E3E4
  8
0
 10
4378.4861558415759646
 20
233.8261311503563036
 30
0.0
 40
0.868404549247184
 50
96.7650407738513252
 51
108.2448362577271013
  0
ARC
  5
1E3E5
  8
0
 10
4378.5580470447330299
 20
233.3024071135619124
 30
0.0
 40
1.3969844945570109
 50
89.894955949310372
 51
97.1627547939124554
  0
ARC
  5
1E3E6
  8
0
 10
4378.5596074562909052
 20
233.3389186407906095
 30
0.0
 40
1.351951814627036
 50
89.9575873667024268
 51
95.2542263148617536
  0
ARC
  5
1E3E7
  8
0
 10
4378.5245778809330659
 20
233.6746701750545014
 30
0.0
 40
1.014411644950225
 50
95.0206217376595532
 51
102.8634760430662993
  0
ARC
  5
1E3E8
  8
0
 10
4378.4147019805286618
 20
234.1434144449233088
 30
0.0
 40
0.5329769353471815
 50
102.566507046665194
 51
113.1750022626729049
  0
ARC
  5
1E3E9
  8
0
 10
4378.2959918465521696
 20
234.4209741522790864
 30
0.0
 40
0.2310970519721408
 50
113.199798649786203
 51
126.3859612176220963
  0
ARC
  5
1E3EA
  8
0
 10
4378.2161051838884305
 20
234.5287494286201024
 30
0.0
 40
0.0969439686185554
 50
126.1629893384057937
 51
145.4599735549722936
  0
ARC
  5
1E3EB
  8
0
 10
4378.1763164944914024
 20
234.5558745593006051
 30
0.0
 40
0.048789840079776
 50
145.206701065269101
 51
178.6762712019105948
  0
LINE
  5
1E3EC
  8
0
 10
4378.1275396750670552
 20
234.557001671481288
 30
0.0
 11
4378.1275396750670552
 21
234.4873506099391136
 31
0.0
  0
ARC
  5
1E3ED
  8
0
 10
4378.3048747835782706
 20
234.5841867058119874
 30
0.0
 40
0.2200674555103379
 50
231.1379691656306079
 51
243.4924865337985125
  0
ARC
  5
1E3EE
  8
0
 10
4378.2353796452098322
 20
234.5004756900295035
 30
0.0
 40
0.1112919215141646
 50
205.5817834517893061
 51
231.9559404721896101
  0
ARC
  5
1E3EF
  8
0
 10
4378.206961221819256
 20
234.4860463211336139
 30
0.0
 40
0.0794322557766492
 50
179.0591529645298863
 51
205.0452540516928082
  0
ARC
  5
1E3F0
  8
0
 10
4378.5586478788582099
 20
233.4838309640113039
 30
0.0
 40
1.0741190361269251
 50
89.895430928136264
 51
97.2636541891220361
  0
ARC
  5
1E3F1
  8
0
 10
4378.499986182730936
 20
233.8964386935965933
 30
0.0
 40
0.6574332209046174
 50
96.7387628243057378
 51
107.0819343853500953
  0
ARC
  5
1E3F2
  8
0
 10
4378.3876718503533993
 20
234.2526901031349951
 30
0.0
 40
0.2839194858229337
 50
106.5340818199515951
 51
120.5527492644093002
  0
ARC
  5
1E3F3
  8
0
 10
4378.2958095152380338
 20
234.4079396361256045
 30
0.0
 40
0.103528224935577
 50
120.4475441569627066
 51
140.6005125238428093
  0
ARC
  5
1E3F4
  8
0
 10
4378.2484793657849877
 20
234.4468973969617025
 30
0.0
 40
0.0422269968866634
 50
140.6854895390781905
 51
177.9334527074850882
  0
LINE
  5
1E3F5
  8
0
 10
4378.2062798325669064
 20
234.3922572369816066
 30
0.0
 11
4378.2062798325669064
 21
234.4484201123815978
 31
0.0
  0
ARC
  5
1E3F6
  8
0
 10
4378.2421505807697031
 20
234.3924333789717025
 30
0.0
 40
0.0358711806701895
 50
180.2813465577017098
 51
201.8954985288116006
  0
ARC
  5
1E3F7
  8
0
 10
4378.2540077084913719
 20
234.3971415406273877
 30
0.0
 40
0.0486287736838593
 50
201.8328658149222861
 51
216.8763004859424086
  0
ARC
  5
1E3F8
  8
0
 10
4378.2766304645183482
 20
234.4141544971980977
 30
0.0
 40
0.0769347636880302
 50
216.9012850750143002
 51
228.8103867957468083
  0
ARC
  5
1E3F9
  8
0
 10
4378.3210395852038346
 20
234.4669719264157095
 30
0.0
 40
0.145933824671893
 50
229.345800332863007
 51
242.9942776130965001
  0
ARC
  5
1E3FA
  8
0
 10
4378.414065525505066
 20
234.6537242997638089
 30
0.0
 40
0.3545692975510508
 50
243.3042008994451066
 51
254.5096755305588943
  0
ARC
  5
1E3FB
  8
0
 10
4378.536307904615569
 20
235.1278879941359037
 30
0.0
 40
0.8442034658024818
 50
255.1093540504195119
 51
266.5832096069972863
  0
ARC
  5
1E3FC
  8
0
 10
4378.5603882437580978
 20
235.4102773674231912
 30
0.0
 40
1.127549062740953
 50
266.2169651918500222
 51
270.0110578312084044
  0
ARC
  5
1E3FD
  8
0
 10
4378.5596490576217548
 20
233.4013021167644979
 30
0.0
 40
1.1004844493733179
 50
89.9500617590955045
 51
95.786517331437409
  0
ARC
  5
1E3FE
  8
0
 10
4378.5243145385784374
 20
233.7137686448596128
 30
0.0
 40
0.7860560817314127
 50
95.5204005884727678
 51
104.1895591308222038
  0
ARC
  5
1E3FF
  8
0
 10
4378.4019815254541754
 20
234.1660061055310962
 30
0.0
 40
0.3177231619092987
 50
102.7930454483924052
 51
116.7375899793625962
  0
ARC
  5
1E400
  8
0
 10
4378.3271691988338716
 20
234.3086791132348026
 30
0.0
 40
0.1566687960592796
 50
115.7779797033887945
 51
130.0309186948479123
  0
ARC
  5
1E401
  8
0
 10
4378.2645348608566565
 20
234.3815674334277048
 30
0.0
 40
0.0605815079654841
 50
129.0121637245212867
 51
156.6625653775359126
  0
ARC
  5
1E402
  8
0
 10
4378.2435383258143702
 20
234.3917299443380102
 30
0.0
 40
0.0372906865000129
 50
158.2198251259110862
 51
177.6190453630615878
  0
ARC
  5
1E403
  8
0
 10
4379.2544424594971133
 20
234.993247738882701
 30
0.0
 40
0.2509692839188086
 50
335.3928415339802882
 51
338.3383411025964733
  0
ARC
  5
1E404
  8
0
 10
4379.4694746718778333
 20
234.9067795915941019
 30
0.0
 40
0.0192613215782526
 50
355.5193038132096035
 51
12.3509818067509602
  0
ARC
  5
1E405
  8
0
 10
4379.4694342688499091
 20
234.9069151143409897
 30
0.0
 40
0.0193126393773624
 50
340.9409641122421135
 51
355.1278317234090878
  0
ARC
  5
1E406
  8
0
 10
4379.4498368988688526
 20
234.8996162396747991
 30
0.0
 40
0.0405881729993123
 50
4.3814227403013284
 51
13.4034061587497106
  0
ARC
  5
1E407
  8
0
 10
4379.3739193483879717
 20
234.8789657092241043
 30
0.0
 40
0.1188300226817911
 50
16.2270866904709017
 51
22.5043329814850814
  0
ARC
  5
1E408
  8
0
 10
4379.4516370106839531
 20
234.9036501931400096
 30
0.0
 40
0.0373632185456146
 50
11.1877575066777801
 51
13.1843360202951807
  0
ARC
  5
1E409
  8
0
 10
4379.3795987442663318
 20
234.8745327140009067
 30
0.0
 40
0.1150145935098174
 50
17.4511898293831109
 51
21.5595372048819591
  0
ARC
  5
1E40A
  8
0
 10
4378.8741070964169921
 20
234.7784293775802098
 30
0.0
 40
0.3447479847949601
 50
288.9776260373088803
 51
307.6510856653616202
  0
ARC
  5
1E40B
  8
0
 10
4379.0198603226981504
 20
234.5748860438517056
 30
0.0
 40
0.0737652291878786
 50
22.805131669849839
 51
40.2812630488322014
  0
ARC
  5
1E40C
  8
0
 10
4379.0386142774495966
 20
234.5825307906349053
 30
0.0
 40
0.0535146704760548
 50
354.32086476223418
 51
23.042660696885779
  0
ARC
  5
1E40D
  8
0
 10
4379.0171364559209906
 20
234.5893113658233915
 30
0.0
 40
0.0756992893356041
 50
308.1995120067053904
 51
350.8204296549795913
  0
ARC
  5
1E40E
  8
0
 10
4378.8979897215522215
 20
234.7250427976726996
 30
0.0
 40
0.2562295618151076
 50
291.9280934686235014
 51
310.3682441174534006
  0
ARC
  5
1E40F
  8
0
 10
4378.868184057659164
 20
234.2685188989376002
 30
0.0
 40
0.4106109242652597
 50
59.5729340998203512
 51
75.4271166981088328
  0
ARC
  5
1E410
  8
0
 10
4378.6258306461086249
 20
233.3926184799018984
 30
0.0
 40
1.319387150791935
 50
74.8117563783376767
 51
82.1305335905764196
  0
ARC
  5
1E411
  8
0
 10
4378.5478880052969544
 20
232.9080529592422977
 30
0.0
 40
1.8100935555720969
 50
81.786663113464769
 51
89.5973573254963753
  0
ARC
  5
1E412
  8
0
 10
4379.0053462489013327
 20
234.6096542297929091
 30
0.0
 40
0.0902528087619215
 50
309.9419262440677016
 51
336.667676124650086
  0
ARC
  5
1E413
  8
0
 10
4378.9014885293199768
 20
234.7307243497670015
 30
0.0
 40
0.2497617327488879
 50
291.6604164729286026
 51
310.3775470128467759
  0
LINE
  5
1E414
  8
0
 10
4379.0882184613947175
 20
234.5739083784814909
 30
0.0
 11
4379.0882184613947175
 21
234.6026117490607987
 31
0.0
  0
LINE
  5
1E415
  8
0
 10
4379.0878043137972782
 20
234.603607518581498
 30
0.0
 11
4379.0478313218945914
 21
234.603607518581498
 31
0.0
  0
LINE
  5
1E416
  8
0
 10
4379.0478313213880028
 20
234.5841336458395006
 30
0.0
 11
4379.0882184613947175
 21
234.5841336458815078
 31
0.0
  0
ARC
  5
1E417
  8
0
 10
4379.0017312436002612
 20
234.5938705834105065
 30
0.0
 40
0.0471171425845238
 50
348.0736706591521852
 51
11.9263263580844701
  0
ARC
  5
1E418
  8
0
 10
4377.8770593405952241
 20
235.5886452262382136
 30
0.0
 40
1.7514804511350299
 50
334.7790304917613184
 51
336.4465359991773994
  0
ARC
  5
1E419
  8
0
 10
4378.1848860633663207
 20
235.4427126456569965
 30
0.0
 40
1.4108153569469091
 50
331.3456853289177957
 51
334.8136652198700176
  0
ARC
  5
1E41A
  8
0
 10
4378.6354211709003721
 20
235.1813500886831036
 30
0.0
 40
0.8902277404478171
 50
307.0413559841317124
 51
332.2024110165282877
  0
ARC
  5
1E41B
  8
0
 10
4378.5685761253198507
 20
235.2298047284170934
 30
0.0
 40
0.9694724205989373
 50
295.9473718997484184
 51
308.4697798513938096
  0
ARC
  5
1E41C
  8
0
 10
4378.628208113133951
 20
234.3319975797678865
 30
0.0
 40
0.0539688680034665
 50
76.6563451970475001
 51
103.5635928666700067
  0
ARC
  5
1E41D
  8
0
 10
4378.628208113133951
 20
234.4282798186233947
 30
0.0
 40
0.0539688680034665
 50
256.4364071333300217
 51
283.3436548029525284
  0
ARC
  5
1E41E
  8
0
 10
4378.6365391156059559
 20
234.3922811854785948
 30
0.0
 40
0.0170205566661056
 50
284.0239033786814957
 51
300.824347806557796
  0
ARC
  5
1E41F
  8
0
 10
4378.6368078568511919
 20
234.3686535802825119
 30
0.0
 40
0.0163179744092961
 50
58.7359250661920314
 51
76.3322535414604602
  0
ARC
  5
1E420
  8
0
 10
4378.6428523305603449
 20
234.3816539527491898
 30
0.0
 40
0.0046596244513565
 50
301.1201104750542186
 51
325.4097086071599279
  0
ARC
  5
1E421
  8
0
 10
4378.6426479780138834
 20
234.3783790787097985
 30
0.0
 40
0.0049741526211505
 50
37.5012472438228031
 51
58.0986244433367105
  0
ARC
  5
1E422
  8
0
 10
4378.6450398822025818
 20
234.38014511863949
 30
0.0
 40
0.0020021891407278
 50
325.416548166349628
 51
39.0773617050625077
  0
ARC
  5
1E423
  8
0
 10
4378.6195350691559725
 20
234.3916048416897979
 30
0.0
 40
0.0162835948680424
 50
239.3839132270680068
 51
255.8381450324071977
  0
ARC
  5
1E424
  8
0
 10
4378.6197545827699287
 20
234.3680355463316118
 30
0.0
 40
0.016955047905724
 50
104.354440474221505
 51
118.9480312228902932
  0
ARC
  5
1E425
  8
0
 10
4378.6144729391726287
 20
234.3775255161858979
 30
0.0
 40
0.0060944293773259
 50
118.6805450359875067
 51
136.9006534932933903
  0
ARC
  5
1E426
  8
0
 10
4378.6141409045621913
 20
234.3823602493291105
 30
0.0
 40
0.005580939704002
 50
220.5049486846403966
 51
238.7073330597420977
  0
ARC
  5
1E427
  8
0
 10
4378.6114311874289342
 20
234.3801499865791129
 30
0.0
 40
0.0020865228994592
 50
132.4472735406336881
 51
222.686494044636504
  0
ARC
  5
1E428
  8
0
 10
4378.6388941611967311
 20
234.344115249111411
 30
0.0
 40
0.0539688680034665
 50
76.6563451970475001
 51
103.5635928666700067
  0
ARC
  5
1E429
  8
0
 10
4378.6388941611967311
 20
234.4403974879670045
 30
0.0
 40
0.0539688680034665
 50
256.4364071333300217
 51
283.3436548029525284
  0
ARC
  5
1E42A
  8
0
 10
4378.6472251636678266
 20
234.4043988548222046
 30
0.0
 40
0.0170205566661056
 50
284.0239033786814957
 51
300.824347806557796
  0
ARC
  5
1E42B
  8
0
 10
4378.6474939049121531
 20
234.3807712496260933
 30
0.0
 40
0.0163179744092961
 50
58.7359250661920314
 51
76.3322535414604602
  0
ARC
  5
1E42C
  8
0
 10
4378.6535383786222155
 20
234.3937716220927996
 30
0.0
 40
0.0046596244513565
 50
301.1201104750542186
 51
325.4097086071599279
  0
ARC
  5
1E42D
  8
0
 10
4378.6533340260748446
 20
234.3904967480534083
 30
0.0
 40
0.0049741526211505
 50
37.5012472438228031
 51
58.0986244433367105
  0
ARC
  5
1E42E
  8
0
 10
4378.655725930265362
 20
234.3922627879830998
 30
0.0
 40
0.0020021891407278
 50
325.416548166349628
 51
39.0773617050625077
  0
ARC
  5
1E42F
  8
0
 10
4378.6302211172178431
 20
234.4037225110334077
 30
0.0
 40
0.0162835948680424
 50
239.3839132270680068
 51
255.8381450324071977
  0
ARC
  5
1E430
  8
0
 10
4378.6304406308308899
 20
234.3801532156751932
 30
0.0
 40
0.016955047905724
 50
104.354440474221505
 51
118.9480312228902932
  0
ARC
  5
1E431
  8
0
 10
4378.6251589872335899
 20
234.389643185529394
 30
0.0
 40
0.0060944293773259
 50
118.6805450359875067
 51
136.9006534932933903
  0
ARC
  5
1E432
  8
0
 10
4378.624826952624062
 20
234.3944779186726919
 30
0.0
 40
0.005580939704002
 50
220.5049486846403966
 51
238.7073330597420977
  0
ARC
  5
1E433
  8
0
 10
4378.6221172354889859
 20
234.3922676559226943
 30
0.0
 40
0.0020865228994592
 50
132.4472735406336881
 51
222.686494044636504
  0
ARC
  5
1E434
  8
0
 10
4378.6284299162216485
 20
234.3561656109608862
 30
0.0
 40
0.0539688680034665
 50
76.6563451970475001
 51
103.5635928666700067
  0
ARC
  5
1E435
  8
0
 10
4378.6284299162216485
 20
234.4524478498163944
 30
0.0
 40
0.0539688680034665
 50
256.4364071333300217
 51
283.3436548029525284
  0
ARC
  5
1E436
  8
0
 10
4378.6367609186936534
 20
234.4164492166717082
 30
0.0
 40
0.0170205566661056
 50
284.0239033786814957
 51
300.824347806557796
  0
ARC
  5
1E437
  8
0
 10
4378.6370296599370704
 20
234.3928216114755116
 30
0.0
 40
0.0163179744092961
 50
58.7359250661920314
 51
76.3322535414604602
  0
ARC
  5
1E438
  8
0
 10
4378.6430741336471328
 20
234.4058219839423032
 30
0.0
 40
0.0046596244513565
 50
301.1201104750542186
 51
325.4097086071599279
  0
ARC
  5
1E439
  8
0
 10
4378.6428697811015809
 20
234.4025471099029119
 30
0.0
 40
0.0049741526211505
 50
37.5012472438228031
 51
58.0986244433367105
  0
ARC
  5
1E43A
  8
0
 10
4378.6452616852911888
 20
234.4043131498326034
 30
0.0
 40
0.0020021891407278
 50
325.416548166349628
 51
39.0773617050625077
  0
ARC
  5
1E43B
  8
0
 10
4378.6197568722427604
 20
234.4157728728829113
 30
0.0
 40
0.0162835948680424
 50
239.3839132270680068
 51
255.8381450324071977
  0
ARC
  5
1E43C
  8
0
 10
4378.6199763858576262
 20
234.3922035775246968
 30
0.0
 40
0.016955047905724
 50
104.354440474221505
 51
118.9480312228902932
  0
ARC
  5
1E43D
  8
0
 10
4378.6146947422612357
 20
234.4016935473788976
 30
0.0
 40
0.0060944293773259
 50
118.6805450359875067
 51
136.9006534932933903
  0
ARC
  5
1E43E
  8
0
 10
4378.6143627076498888
 20
234.4065282805221955
 30
0.0
 40
0.005580939704002
 50
220.5049486846403966
 51
238.7073330597420977
  0
ARC
  5
1E43F
  8
0
 10
4378.6116529905166317
 20
234.4043180177721979
 30
0.0
 40
0.0020865228994592
 50
132.4472735406336881
 51
222.686494044636504
  0
ARC
  5
1E440
  8
0
 10
4378.6346812967076403
 20
234.304436902607307
 30
0.0
 40
0.0539688680034665
 50
76.6563451970475001
 51
103.5635928666700067
  0
ARC
  5
1E441
  8
0
 10
4378.6346812967076403
 20
234.4007191414627869
 30
0.0
 40
0.0539688680034665
 50
256.4364071333300217
 51
283.3436548029525284
  0
ARC
  5
1E442
  8
0
 10
4378.6430122991787357
 20
234.364720508317987
 30
0.0
 40
0.0170205566661056
 50
284.0239033786814957
 51
300.824347806557796
  0
ARC
  5
1E443
  8
0
 10
4378.6432810404239717
 20
234.3410929031219041
 30
0.0
 40
0.0163179744092961
 50
58.7359250661920314
 51
76.3322535414604602
  0
ARC
  5
1E444
  8
0
 10
4378.6493255141340342
 20
234.3540932755886956
 30
0.0
 40
0.0046596244513565
 50
301.1201104750542186
 51
325.4097086071599279
  0
ARC
  5
1E445
  8
0
 10
4378.6491211615857537
 20
234.3508184015491906
 30
0.0
 40
0.0049741526211505
 50
37.5012472438228031
 51
58.0986244433367105
  0
ARC
  5
1E446
  8
0
 10
4378.6515130657771806
 20
234.3525844414789958
 30
0.0
 40
0.0020021891407278
 50
325.416548166349628
 51
39.0773617050625077
  0
ARC
  5
1E447
  8
0
 10
4378.6260082527287523
 20
234.3640441645291901
 30
0.0
 40
0.0162835948680424
 50
239.3839132270680068
 51
255.8381450324071977
  0
ARC
  5
1E448
  8
0
 10
4378.626227766343618
 20
234.340474869171004
 30
0.0
 40
0.016955047905724
 50
104.354440474221505
 51
118.9480312228902932
  0
ARC
  5
1E449
  8
0
 10
4378.620946122746318
 20
234.3499648390252901
 30
0.0
 40
0.0060944293773259
 50
118.6805450359875067
 51
136.9006534932933903
  0
ARC
  5
1E44A
  8
0
 10
4378.6206140881358806
 20
234.3547995721685027
 30
0.0
 40
0.005580939704002
 50
220.5049486846403966
 51
238.7073330597420977
  0
ARC
  5
1E44B
  8
0
 10
4378.617904371001714
 20
234.3525893094185051
 30
0.0
 40
0.0020865228994592
 50
132.4472735406336881
 51
222.686494044636504
  0
ARC
  5
1E44C
  8
0
 10
4378.6889609335403293
 20
234.3211960960582871
 30
0.0
 40
0.0539688680034665
 50
76.6563451970475001
 51
103.5635928666700067
  0
ARC
  5
1E44D
  8
0
 10
4378.6889609335403293
 20
234.4174783349139091
 30
0.0
 40
0.0539688680034665
 50
256.4364071333300217
 51
283.3436548029525284
  0
ARC
  5
1E44E
  8
0
 10
4378.6972919360123342
 20
234.3814797017691092
 30
0.0
 40
0.0170205566661056
 50
284.0239033786814957
 51
300.824347806557796
  0
ARC
  5
1E44F
  8
0
 10
4378.6975606772548417
 20
234.3578520965729979
 30
0.0
 40
0.0163179744092961
 50
58.7359250661920314
 51
76.3322535414604602
  0
ARC
  5
1E450
  8
0
 10
4378.7036051509649042
 20
234.3708524690397041
 30
0.0
 40
0.0046596244513565
 50
301.1201104750542186
 51
325.4097086071599279
  0
ARC
  5
1E451
  8
0
 10
4378.7034007984184427
 20
234.3675775950003128
 30
0.0
 40
0.0049741526211505
 50
37.5012472438228031
 51
58.0986244433367105
  0
ARC
  5
1E452
  8
0
 10
4378.7057927026089601
 20
234.3693436349300043
 30
0.0
 40
0.0020021891407278
 50
325.416548166349628
 51
39.0773617050625077
  0
ARC
  5
1E453
  8
0
 10
4378.6802878895614413
 20
234.3808033579803123
 30
0.0
 40
0.0162835948680424
 50
239.3839132270680068
 51
255.8381450324071977
  0
ARC
  5
1E454
  8
0
 10
4378.6805074031753975
 20
234.3572340626220978
 30
0.0
 40
0.016955047905724
 50
104.354440474221505
 51
118.9480312228902932
  0
ARC
  5
1E455
  8
0
 10
4378.6752257595780975
 20
234.3667240324762986
 30
0.0
 40
0.0060944293773259
 50
118.6805450359875067
 51
136.9006534932933903
  0
ARC
  5
1E456
  8
0
 10
4378.6748937249667506
 20
234.3715587656195964
 30
0.0
 40
0.005580939704002
 50
220.5049486846403966
 51
238.7073330597420977
  0
ARC
  5
1E457
  8
0
 10
4378.672184007832584
 20
234.3693485028695989
 30
0.0
 40
0.0020865228994592
 50
132.4472735406336881
 51
222.686494044636504
  0
ARC
  5
1E458
  8
0
 10
4378.7086764999839943
 20
234.3441104109095932
 30
0.0
 40
0.0539688680034665
 50
76.6563451970475001
 51
103.5635928666700067
  0
ARC
  5
1E459
  8
0
 10
4378.7086764999839943
 20
234.4403926497651014
 30
0.0
 40
0.0539688680034665
 50
256.4364071333300217
 51
283.3436548029525284
  0
ARC
  5
1E45A
  8
0
 10
4378.7170075024550897
 20
234.4043940166203868
 30
0.0
 40
0.0170205566661056
 50
284.0239033786814957
 51
300.824347806557796
  0
ARC
  5
1E45B
  8
0
 10
4378.7172762436994162
 20
234.3807664114241902
 30
0.0
 40
0.0163179744092961
 50
58.7359250661920314
 51
76.3322535414604602
  0
ARC
  5
1E45C
  8
0
 10
4378.7233207174076597
 20
234.3937667838908965
 30
0.0
 40
0.0046596244513565
 50
301.1201104750542186
 51
325.4097086071599279
  0
ARC
  5
1E45D
  8
0
 10
4378.7231163648621077
 20
234.3904919098515052
 30
0.0
 40
0.0049741526211505
 50
37.5012472438228031
 51
58.0986244433367105
  0
ARC
  5
1E45E
  8
0
 10
4378.7255082690517156
 20
234.3922579497811967
 30
0.0
 40
0.0020021891407278
 50
325.416548166349628
 51
39.0773617050625077
  0
ARC
  5
1E45F
  8
0
 10
4378.7000034560041968
 20
234.4037176728315046
 30
0.0
 40
0.0162835948680424
 50
239.3839132270680068
 51
255.8381450324071977
  0
ARC
  5
1E460
  8
0
 10
4378.7002229696190625
 20
234.3801483774734038
 30
0.0
 40
0.016955047905724
 50
104.354440474221505
 51
118.9480312228902932
  0
ARC
  5
1E461
  8
0
 10
4378.694941326020853
 20
234.3896383473276046
 30
0.0
 40
0.0060944293773259
 50
118.6805450359875067
 51
136.9006534932933903
  0
ARC
  5
1E462
  8
0
 10
4378.6946092914113251
 20
234.3944730804707888
 30
0.0
 40
0.005580939704002
 50
220.5049486846403966
 51
238.7073330597420977
  0
ARC
  5
1E463
  8
0
 10
4378.6918995742771585
 20
234.3922628177207912
 30
0.0
 40
0.0020865228994592
 50
132.4472735406336881
 51
222.686494044636504
  0
ARC
  5
1E464
  8
0
 10
4378.6889048734074095
 20
234.3672327140847074
 30
0.0
 40
0.0539688680034665
 50
76.6563451970475001
 51
103.5635928666700067
  0
ARC
  5
1E465
  8
0
 10
4378.6889048734074095
 20
234.4635149529403009
 30
0.0
 40
0.0539688680034665
 50
256.4364071333300217
 51
283.3436548029525284
  0
ARC
  5
1E466
  8
0
 10
4378.6972358758775954
 20
234.427516319795501
 30
0.0
 40
0.0170205566661056
 50
284.0239033786814957
 51
300.824347806557796
  0
ARC
  5
1E467
  8
0
 10
4378.6975046171228314
 20
234.4038887145993897
 30
0.0
 40
0.0163179744092961
 50
58.7359250661920314
 51
76.3322535414604602
  0
ARC
  5
1E468
  8
0
 10
4378.7035490908328939
 20
234.416889087066096
 30
0.0
 40
0.0046596244513565
 50
301.1201104750542186
 51
325.4097086071599279
  0
ARC
  5
1E469
  8
0
 10
4378.7033447382846134
 20
234.4136142130267046
 30
0.0
 40
0.0049741526211505
 50
37.5012472438228031
 51
58.0986244433367105
  0
ARC
  5
1E46A
  8
0
 10
4378.7057366424751308
 20
234.4153802529563961
 30
0.0
 40
0.0020021891407278
 50
325.416548166349628
 51
39.0773617050625077
  0
ARC
  5
1E46B
  8
0
 10
4378.680231829427612
 20
234.4268399760067041
 30
0.0
 40
0.0162835948680424
 50
239.3839132270680068
 51
255.8381450324071977
  0
ARC
  5
1E46C
  8
0
 10
4378.6804513430433872
 20
234.4032706806486033
 30
0.0
 40
0.016955047905724
 50
104.354440474221505
 51
118.9480312228902932
  0
ARC
  5
1E46D
  8
0
 10
4378.6751696994451777
 20
234.4127606505026904
 30
0.0
 40
0.0060944293773259
 50
118.6805450359875067
 51
136.9006534932933903
  0
ARC
  5
1E46E
  8
0
 10
4378.6748376648338308
 20
234.4175953836459882
 30
0.0
 40
0.005580939704002
 50
220.5049486846403966
 51
238.7073330597420977
  0
ARC
  5
1E46F
  8
0
 10
4378.6721279477005737
 20
234.4153851208959907
 30
0.0
 40
0.0020865228994592
 50
132.4472735406336881
 51
222.686494044636504
  0
ARC
  5
1E470
  8
0
 10
4378.6346351448783025
 20
234.3838105260599889
 30
0.0
 40
0.0539688680034665
 50
76.6563451970475001
 51
103.5635928666700067
  0
ARC
  5
1E471
  8
0
 10
4378.6346351448783025
 20
234.4800927649156108
 30
0.0
 40
0.0539688680034665
 50
256.4364071333300217
 51
283.3436548029525284
  0
ARC
  5
1E472
  8
0
 10
4378.6429661473493979
 20
234.4440941317708109
 30
0.0
 40
0.0170205566661056
 50
284.0239033786814957
 51
300.824347806557796
  0
ARC
  5
1E473
  8
0
 10
4378.6432348885937245
 20
234.4204665265746996
 30
0.0
 40
0.0163179744092961
 50
58.7359250661920314
 51
76.3322535414604602
  0
ARC
  5
1E474
  8
0
 10
4378.6492793623037869
 20
234.4334668990414059
 30
0.0
 40
0.0046596244513565
 50
301.1201104750542186
 51
325.4097086071599279
  0
ARC
  5
1E475
  8
0
 10
4378.649075009756416
 20
234.4301920250019862
 30
0.0
 40
0.0049741526211505
 50
37.5012472438228031
 51
58.0986244433367105
  0
ARC
  5
1E476
  8
0
 10
4378.6514669139469333
 20
234.4319580649317913
 30
0.0
 40
0.0020021891407278
 50
325.416548166349628
 51
39.0773617050625077
  0
ARC
  5
1E477
  8
0
 10
4378.6259621008994145
 20
234.443417787982014
 30
0.0
 40
0.0162835948680424
 50
239.3839132270680068
 51
255.8381450324071977
  0
ARC
  5
1E478
  8
0
 10
4378.6261816145133707
 20
234.4198484926237995
 30
0.0
 40
0.016955047905724
 50
104.354440474221505
 51
118.9480312228902932
  0
ARC
  5
1E479
  8
0
 10
4378.6208999709160707
 20
234.4293384624780003
 30
0.0
 40
0.0060944293773259
 50
118.6805450359875067
 51
136.9006534932933903
  0
ARC
  5
1E47A
  8
0
 10
4378.6205679363047238
 20
234.4341731956212982
 30
0.0
 40
0.005580939704002
 50
220.5049486846403966
 51
238.7073330597420977
  0
ARC
  5
1E47B
  8
0
 10
4378.6178582191705573
 20
234.4319629328713006
 30
0.0
 40
0.0020865228994592
 50
132.4472735406336881
 51
222.686494044636504
  0
ARC
  5
1E47C
  8
0
 10
4378.6723527932899742
 20
234.2842764758838996
 30
0.0
 40
0.0539688680034665
 50
76.6563451970475001
 51
103.5635928666700067
  0
ARC
  5
1E47D
  8
0
 10
4378.6723527932899742
 20
234.3805587147394078
 30
0.0
 40
0.0539688680034665
 50
256.4364071333300217
 51
283.3436548029525284
  0
ARC
  5
1E47E
  8
0
 10
4378.6806837957619791
 20
234.3445600815946932
 30
0.0
 40
0.0170205566661056
 50
284.0239033786814957
 51
300.824347806557796
  0
ARC
  5
1E47F
  8
0
 10
4378.6809525370053962
 20
234.3209324763984966
 30
0.0
 40
0.0163179744092961
 50
58.7359250661920314
 51
76.3322535414604602
  0
ARC
  5
1E480
  8
0
 10
4378.6869970107145491
 20
234.3339328488652882
 30
0.0
 40
0.0046596244513565
 50
301.1201104750542186
 51
325.4097086071599279
  0
ARC
  5
1E481
  8
0
 10
4378.6867926581689971
 20
234.3306579748258116
 30
0.0
 40
0.0049741526211505
 50
37.5012472438228031
 51
58.0986244433367105
  0
ARC
  5
1E482
  8
0
 10
4378.6891845623576955
 20
234.3324240147555884
 30
0.0
 40
0.0020021891407278
 50
325.416548166349628
 51
39.0773617050625077
  0
ARC
  5
1E483
  8
0
 10
4378.6636797493110862
 20
234.3438837378058963
 30
0.0
 40
0.0162835948680424
 50
239.3839132270680068
 51
255.8381450324071977
  0
ARC
  5
1E484
  8
0
 10
4378.6638992629250424
 20
234.3203144424477102
 30
0.0
 40
0.016955047905724
 50
104.354440474221505
 51
118.9480312228902932
  0
ARC
  5
1E485
  8
0
 10
4378.6586176193277424
 20
234.329804412301911
 30
0.0
 40
0.0060944293773259
 50
118.6805450359875067
 51
136.9006534932933903
  0
ARC
  5
1E486
  8
0
 10
4378.658285584717305
 20
234.3346391454452089
 30
0.0
 40
0.005580939704002
 50
220.5049486846403966
 51
238.7073330597420977
  0
ARC
  5
1E487
  8
0
 10
4378.655575867584048
 20
234.3324288826952113
 30
0.0
 40
0.0020865228994592
 50
132.4472735406336881
 51
222.686494044636504
  0
ARC
  5
1E488
  8
0
 10
4378.7539955112752068
 20
234.3096782930035999
 30
0.0
 40
0.0539688680034665
 50
76.6563451970475001
 51
103.5635928666700067
  0
ARC
  5
1E489
  8
0
 10
4378.7539955112752068
 20
234.4059605318591935
 30
0.0
 40
0.0539688680034665
 50
256.4364071333300217
 51
283.3436548029525284
  0
ARC
  5
1E48A
  8
0
 10
4378.7623265137472117
 20
234.3699618987145072
 30
0.0
 40
0.0170205566661056
 50
284.0239033786814957
 51
300.824347806557796
  0
ARC
  5
1E48B
  8
0
 10
4378.7625952549906287
 20
234.3463342935183107
 30
0.0
 40
0.0163179744092961
 50
58.7359250661920314
 51
76.3322535414604602
  0
ARC
  5
1E48C
  8
0
 10
4378.7686397287006912
 20
234.3593346659849885
 30
0.0
 40
0.0046596244513565
 50
301.1201104750542186
 51
325.4097086071599279
  0
ARC
  5
1E48D
  8
0
 10
4378.7684353761542297
 20
234.3560597919455972
 30
0.0
 40
0.0049741526211505
 50
37.5012472438228031
 51
58.0986244433367105
  0
ARC
  5
1E48E
  8
0
 10
4378.7708272803438376
 20
234.3578258318752887
 30
0.0
 40
0.0020021891407278
 50
325.416548166349628
 51
39.0773617050625077
  0
ARC
  5
1E48F
  8
0
 10
4378.7453224672963188
 20
234.3692855549255967
 30
0.0
 40
0.0162835948680424
 50
239.3839132270680068
 51
255.8381450324071977
  0
ARC
  5
1E490
  8
0
 10
4378.7455419809111845
 20
234.3457162595674959
 30
0.0
 40
0.016955047905724
 50
104.354440474221505
 51
118.9480312228902932
  0
ARC
  5
1E491
  8
0
 10
4378.7402603373138845
 20
234.3552062294216967
 30
0.0
 40
0.0060944293773259
 50
118.6805450359875067
 51
136.9006534932933903
  0
ARC
  5
1E492
  8
0
 10
4378.7399283027016281
 20
234.3600409625649093
 30
0.0
 40
0.005580939704002
 50
220.5049486846403966
 51
238.7073330597420977
  0
ARC
  5
1E493
  8
0
 10
4378.7372185855692805
 20
234.3578306998149117
 30
0.0
 40
0.0020865228994592
 50
132.4472735406336881
 51
222.686494044636504
  0
ARC
  5
1E494
  8
0
 10
4378.7841046263247335
 20
234.3442064706237886
 30
0.0
 40
0.0539688680034665
 50
76.6563451970475001
 51
103.5635928666700067
  0
ARC
  5
1E495
  8
0
 10
4378.7841046263247335
 20
234.4404887094792969
 30
0.0
 40
0.0539688680034665
 50
256.4364071333300217
 51
283.3436548029525284
  0
ARC
  5
1E496
  8
0
 10
4378.792435628795829
 20
234.404490076334497
 30
0.0
 40
0.0170205566661056
 50
284.0239033786814957
 51
300.824347806557796
  0
ARC
  5
1E497
  8
0
 10
4378.792704370041065
 20
234.3808624711384141
 30
0.0
 40
0.0163179744092961
 50
58.7359250661920314
 51
76.3322535414604602
  0
ARC
  5
1E498
  8
0
 10
4378.7987488437520369
 20
234.3938628436052056
 30
0.0
 40
0.0046596244513565
 50
301.1201104750542186
 51
325.4097086071599279
  0
ARC
  5
1E499
  8
0
 10
4378.798544491202847
 20
234.3905879695657859
 30
0.0
 40
0.0049741526211505
 50
37.5012472438228031
 51
58.0986244433367105
  0
ARC
  5
1E49A
  8
0
 10
4378.8009363953951834
 20
234.3923540094955058
 30
0.0
 40
0.0020021891407278
 50
325.416548166349628
 51
39.0773617050625077
  0
ARC
  5
1E49B
  8
0
 10
4378.7754315823458455
 20
234.4038137325457001
 30
0.0
 40
0.0162835948680424
 50
239.3839132270680068
 51
255.8381450324071977
  0
ARC
  5
1E49C
  8
0
 10
4378.7756510959616207
 20
234.3802444371875993
 30
0.0
 40
0.016955047905724
 50
104.354440474221505
 51
118.9480312228902932
  0
ARC
  5
1E49D
  8
0
 10
4378.7703694523643208
 20
234.3897344070418001
 30
0.0
 40
0.0060944293773259
 50
118.6805450359875067
 51
136.9006534932933903
  0
ARC
  5
1E49E
  8
0
 10
4378.7700374177529739
 20
234.3945691401850979
 30
0.0
 40
0.005580939704002
 50
220.5049486846403966
 51
238.7073330597420977
  0
ARC
  5
1E49F
  8
0
 10
4378.7673277006188073
 20
234.3923588774349867
 30
0.0
 40
0.0020865228994592
 50
132.4472735406336881
 51
222.686494044636504
  0
ARC
  5
1E4A0
  8
0
 10
4378.8164034762339725
 20
234.3897608858117962
 30
0.0
 40
0.0539688680034665
 50
76.6563451970475001
 51
103.5635928666700067
  0
ARC
  5
1E4A1
  8
0
 10
4378.8164034762339725
 20
234.4860431246673045
 30
0.0
 40
0.0539688680034665
 50
256.4364071333300217
 51
283.3436548029525284
  0
ARC
  5
1E4A2
  8
0
 10
4378.8247344787059774
 20
234.4500444915225899
 30
0.0
 40
0.0170205566661056
 50
284.0239033786814957
 51
300.824347806557796
  0
ARC
  5
1E4A3
  8
0
 10
4378.8250032199503039
 20
234.4264168863263933
 30
0.0
 40
0.0163179744092961
 50
58.7359250661920314
 51
76.3322535414604602
  0
ARC
  5
1E4A4
  8
0
 10
4378.8310476936585474
 20
234.4394172587932133
 30
0.0
 40
0.0046596244513565
 50
301.1201104750542186
 51
325.4097086071599279
  0
ARC
  5
1E4A5
  8
0
 10
4378.8308433411129954
 20
234.4361423847537083
 30
0.0
 40
0.0049741526211505
 50
37.5012472438228031
 51
58.0986244433367105
  0
ARC
  5
1E4A6
  8
0
 10
4378.8332352453026033
 20
234.4379084246835134
 30
0.0
 40
0.0020021891407278
 50
325.416548166349628
 51
39.0773617050625077
  0
ARC
  5
1E4A7
  8
0
 10
4378.8077304322550845
 20
234.449368147733793
 30
0.0
 40
0.0162835948680424
 50
239.3839132270680068
 51
255.8381450324071977
  0
ARC
  5
1E4A8
  8
0
 10
4378.8079499458699502
 20
234.4257988523756069
 30
0.0
 40
0.016955047905724
 50
104.354440474221505
 51
118.9480312228902932
  0
ARC
  5
1E4A9
  8
0
 10
4378.8026683022726502
 20
234.4352888222298077
 30
0.0
 40
0.0060944293773259
 50
118.6805450359875067
 51
136.9006534932933903
  0
ARC
  5
1E4AA
  8
0
 10
4378.8023362676613033
 20
234.4401235553731055
 30
0.0
 40
0.005580939704002
 50
220.5049486846403966
 51
238.7073330597420977
  0
ARC
  5
1E4AB
  8
0
 10
4378.7996265505271367
 20
234.4379132926229943
 30
0.0
 40
0.0020865228994592
 50
132.4472735406336881
 51
222.686494044636504
  0
ARC
  5
1E4AC
  8
0
 10
4378.7538849554775879
 20
234.3786417094125056
 30
0.0
 40
0.0539688680034665
 50
76.6563451970475001
 51
103.5635928666700067
  0
ARC
  5
1E4AD
  8
0
 10
4378.7538849554775879
 20
234.4749239482680139
 30
0.0
 40
0.0539688680034665
 50
256.4364071333300217
 51
283.3436548029525284
  0
ARC
  5
1E4AE
  8
0
 10
4378.7622159579514118
 20
234.4389253151232992
 30
0.0
 40
0.0170205566661056
 50
284.0239033786814957
 51
300.824347806557796
  0
ARC
  5
1E4AF
  8
0
 10
4378.7624846991939194
 20
234.4152977099271027
 30
0.0
 40
0.0163179744092961
 50
58.7359250661920314
 51
76.3322535414604602
  0
ARC
  5
1E4B0
  8
0
 10
4378.7685291729039818
 20
234.4282980823938942
 30
0.0
 40
0.0046596244513565
 50
301.1201104750542186
 51
325.4097086071599279
  0
ARC
  5
1E4B1
  8
0
 10
4378.7683248203584299
 20
234.4250232083543892
 30
0.0
 40
0.0049741526211505
 50
37.5012472438228031
 51
58.0986244433367105
  0
ARC
  5
1E4B2
  8
0
 10
4378.7707167245471283
 20
234.4267892482841944
 30
0.0
 40
0.0020021891407278
 50
325.416548166349628
 51
39.0773617050625077
  0
ARC
  5
1E4B3
  8
0
 10
4378.7452119114986999
 20
234.4382489713343887
 30
0.0
 40
0.0162835948680424
 50
239.3839132270680068
 51
255.8381450324071977
  0
ARC
  5
1E4B4
  8
0
 10
4378.7454314251135656
 20
234.4146796759762879
 30
0.0
 40
0.016955047905724
 50
104.354440474221505
 51
118.9480312228902932
  0
ARC
  5
1E4B5
  8
0
 10
4378.7401497815171751
 20
234.4241696458304887
 30
0.0
 40
0.0060944293773259
 50
118.6805450359875067
 51
136.9006534932933903
  0
ARC
  5
1E4B6
  8
0
 10
4378.7398177469058282
 20
234.4290043789737865
 30
0.0
 40
0.005580939704002
 50
220.5049486846403966
 51
238.7073330597420977
  0
ARC
  5
1E4B7
  8
0
 10
4378.7371080297716617
 20
234.4267941162237037
 30
0.0
 40
0.0020865228994592
 50
132.4472735406336881
 51
222.686494044636504
  0
ARC
  5
1E4B8
  8
0
 10
4378.6723149852932693
 20
234.4039313863372911
 30
0.0
 40
0.0539688680034665
 50
76.6563451970475001
 51
103.5635928666700067
  0
ARC
  5
1E4B9
  8
0
 10
4378.6723149852932693
 20
234.5002136251927993
 30
0.0
 40
0.0539688680034665
 50
256.4364071333300217
 51
283.3436548029525284
  0
ARC
  5
1E4BA
  8
0
 10
4378.6806459877652742
 20
234.4642149920479994
 30
0.0
 40
0.0170205566661056
 50
284.0239033786814957
 51
300.824347806557796
  0
ARC
  5
1E4BB
  8
0
 10
4378.6809147290086912
 20
234.4405873868518881
 30
0.0
 40
0.0163179744092961
 50
58.7359250661920314
 51
76.3322535414604602
  0
ARC
  5
1E4BC
  8
0
 10
4378.6869592027187537
 20
234.4535877593187081
 30
0.0
 40
0.0046596244513565
 50
301.1201104750542186
 51
325.4097086071599279
  0
ARC
  5
1E4BD
  8
0
 10
4378.6867548501722922
 20
234.4503128852792031
 30
0.0
 40
0.0049741526211505
 50
37.5012472438228031
 51
58.0986244433367105
  0
ARC
  5
1E4BE
  8
0
 10
4378.6891467543619001
 20
234.4520789252090083
 30
0.0
 40
0.0020021891407278
 50
325.416548166349628
 51
39.0773617050625077
  0
ARC
  5
1E4BF
  8
0
 10
4378.6636419413143813
 20
234.4635386482592025
 30
0.0
 40
0.0162835948680424
 50
239.3839132270680068
 51
255.8381450324071977
  0
ARC
  5
1E4C0
  8
0
 10
4378.6638614549301565
 20
234.439969352900988
 30
0.0
 40
0.016955047905724
 50
104.354440474221505
 51
118.9480312228902932
  0
ARC
  5
1E4C1
  8
0
 10
4378.6585798113310375
 20
234.4494593227553025
 30
0.0
 40
0.0060944293773259
 50
118.6805450359875067
 51
136.9006534932933903
  0
ARC
  5
1E4C2
  8
0
 10
4378.6582477767196906
 20
234.4542940558984867
 30
0.0
 40
0.005580939704002
 50
220.5049486846403966
 51
238.7073330597420977
  0
ARC
  5
1E4C3
  8
0
 10
4378.655538059587343
 20
234.4520837931484891
 30
0.0
 40
0.0020865228994592
 50
132.4472735406336881
 51
222.686494044636504
  0
ARC
  5
1E4C4
  8
0
 10
4378.7083466578060325
 20
234.423297680632686
 30
0.0
 40
0.0539688680034665
 50
76.6563451970475001
 51
103.5635928666700067
  0
ARC
  5
1E4C5
  8
0
 10
4378.7083466578060325
 20
234.5195799194881943
 30
0.0
 40
0.0539688680034665
 50
256.4364071333300217
 51
283.3436548029525284
  0
ARC
  5
1E4C6
  8
0
 10
4378.7166776602780374
 20
234.4835812863435081
 30
0.0
 40
0.0170205566661056
 50
284.0239033786814957
 51
300.824347806557796
  0
ARC
  5
1E4C7
  8
0
 10
4378.7169464015241829
 20
234.4599536811473115
 30
0.0
 40
0.0163179744092961
 50
58.7359250661920314
 51
76.3322535414604602
  0
ARC
  5
1E4C8
  8
0
 10
4378.7229908752324263
 20
234.4729540536139893
 30
0.0
 40
0.0046596244513565
 50
301.1201104750542186
 51
325.4097086071599279
  0
ARC
  5
1E4C9
  8
0
 10
4378.7227865226850554
 20
234.469679179574598
 30
0.0
 40
0.0049741526211505
 50
37.5012472438228031
 51
58.0986244433367105
  0
ARC
  5
1E4CA
  8
0
 10
4378.7251784268773918
 20
234.4714452195042895
 30
0.0
 40
0.0020021891407278
 50
325.416548166349628
 51
39.0773617050625077
  0
ARC
  5
1E4CB
  8
0
 10
4378.6996736138280539
 20
234.4829049425545975
 30
0.0
 40
0.0162835948680424
 50
239.3839132270680068
 51
255.8381450324071977
  0
ARC
  5
1E4CC
  8
0
 10
4378.6998931274429196
 20
234.4593356471964114
 30
0.0
 40
0.016955047905724
 50
104.354440474221505
 51
118.9480312228902932
  0
ARC
  5
1E4CD
  8
0
 10
4378.6946114838456197
 20
234.4688256170506975
 30
0.0
 40
0.0060944293773259
 50
118.6805450359875067
 51
136.9006534932933903
  0
ARC
  5
1E4CE
  8
0
 10
4378.6942794492333633
 20
234.4736603501939101
 30
0.0
 40
0.005580939704002
 50
220.5049486846403966
 51
238.7073330597420977
  0
ARC
  5
1E4CF
  8
0
 10
4378.6915697321010157
 20
234.4714500874439125
 30
0.0
 40
0.0020865228994592
 50
132.4472735406336881
 51
222.686494044636504
  0
ARC
  5
1E4D0
  8
0
 10
4378.7082508340909044
 20
234.2649294358483871
 30
0.0
 40
0.0539688680034665
 50
76.6563451970475001
 51
103.5635928666700067
  0
ARC
  5
1E4D1
  8
0
 10
4378.7082508340909044
 20
234.3612116747038954
 30
0.0
 40
0.0539688680034665
 50
256.4364071333300217
 51
283.3436548029525284
  0
ARC
  5
1E4D2
  8
0
 10
4378.7165818365629093
 20
234.3252130415592092
 30
0.0
 40
0.0170205566661056
 50
284.0239033786814957
 51
300.824347806557796
  0
ARC
  5
1E4D3
  8
0
 10
4378.7168505778081453
 20
234.3015854363630126
 30
0.0
 40
0.0163179744092961
 50
58.7359250661920314
 51
76.3322535414604602
  0
ARC
  5
1E4D4
  8
0
 10
4378.7228950515172983
 20
234.3145858088298041
 30
0.0
 40
0.0046596244513565
 50
301.1201104750542186
 51
325.4097086071599279
  0
ARC
  5
1E4D5
  8
0
 10
4378.7226906989699273
 20
234.3113109347902991
 30
0.0
 40
0.0049741526211505
 50
37.5012472438228031
 51
58.0986244433367105
  0
ARC
  5
1E4D6
  8
0
 10
4378.7250826031604447
 20
234.3130769747201043
 30
0.0
 40
0.0020021891407278
 50
325.416548166349628
 51
39.0773617050625077
  0
ARC
  5
1E4D7
  8
0
 10
4378.6995777901129259
 20
234.3245366977702986
 30
0.0
 40
0.0162835948680424
 50
239.3839132270680068
 51
255.8381450324071977
  0
ARC
  5
1E4D8
  8
0
 10
4378.6997973037277916
 20
234.3009674024121978
 30
0.0
 40
0.016955047905724
 50
104.354440474221505
 51
118.9480312228902932
  0
ARC
  5
1E4D9
  8
0
 10
4378.6945156601295821
 20
234.3104573722663986
 30
0.0
 40
0.0060944293773259
 50
118.6805450359875067
 51
136.9006534932933903
  0
ARC
  5
1E4DA
  8
0
 10
4378.6941836255191447
 20
234.3152921054096112
 30
0.0
 40
0.005580939704002
 50
220.5049486846403966
 51
238.7073330597420977
  0
ARC
  5
1E4DB
  8
0
 10
4378.6914739083858876
 20
234.3130818426596989
 30
0.0
 40
0.0020865228994592
 50
132.4472735406336881
 51
222.686494044636504
  0
ARC
  5
1E4DC
  8
0
 10
4378.8164435005619453
 20
234.2984615757933113
 30
0.0
 40
0.0539688680034665
 50
76.6563451970475001
 51
103.5635928666700067
  0
ARC
  5
1E4DD
  8
0
 10
4378.8164435005619453
 20
234.3947438146487912
 30
0.0
 40
0.0539688680034665
 50
256.4364071333300217
 51
283.3436548029525284
  0
ARC
  5
1E4DE
  8
0
 10
4378.8247745030330407
 20
234.3587451815039913
 30
0.0
 40
0.0170205566661056
 50
284.0239033786814957
 51
300.824347806557796
  0
ARC
  5
1E4DF
  8
0
 10
4378.8250432442773672
 20
234.3351175763079084
 30
0.0
 40
0.0163179744092961
 50
58.7359250661920314
 51
76.3322535414604602
  0
ARC
  5
1E4E0
  8
0
 10
4378.8310877179874296
 20
234.3481179487746999
 30
0.0
 40
0.0046596244513565
 50
301.1201104750542186
 51
325.4097086071599279
  0
ARC
  5
1E4E1
  8
0
 10
4378.8308833654409682
 20
234.3448430747351949
 30
0.0
 40
0.0049741526211505
 50
37.5012472438228031
 51
58.0986244433367105
  0
ARC
  5
1E4E2
  8
0
 10
4378.8332752696296666
 20
234.3466091146650001
 30
0.0
 40
0.0020021891407278
 50
325.416548166349628
 51
39.0773617050625077
  0
ARC
  5
1E4E3
  8
0
 10
4378.8077704565830572
 20
234.3580688377151944
 30
0.0
 40
0.0162835948680424
 50
239.3839132270680068
 51
255.8381450324071977
  0
ARC
  5
1E4E4
  8
0
 10
4378.8079899701970135
 20
234.3344995423570936
 30
0.0
 40
0.016955047905724
 50
104.354440474221505
 51
118.9480312228902932
  0
ARC
  5
1E4E5
  8
0
 10
4378.802708326598804
 20
234.3439895122112944
 30
0.0
 40
0.0060944293773259
 50
118.6805450359875067
 51
136.9006534932933903
  0
ARC
  5
1E4E6
  8
0
 10
4378.8023762919883666
 20
234.348824245354507
 30
0.0
 40
0.005580939704002
 50
220.5049486846403966
 51
238.7073330597420977
  0
ARC
  5
1E4E7
  8
0
 10
4378.7996665748551095
 20
234.3466139826045094
 30
0.0
 40
0.0020865228994592
 50
132.4472735406336881
 51
222.686494044636504
  0
ARC
  5
1E4E8
  8
0
 10
4378.8558837595173827
 20
234.3441463275098045
 30
0.0
 40
0.0539688680034665
 50
76.6563451970475001
 51
103.5635928666700067
  0
ARC
  5
1E4E9
  8
0
 10
4378.8558837595173827
 20
234.4404285663653127
 30
0.0
 40
0.0539688680034665
 50
256.4364071333300217
 51
283.3436548029525284
  0
ARC
  5
1E4EA
  8
0
 10
4378.8642147619875686
 20
234.4044299332205128
 30
0.0
 40
0.0170205566661056
 50
284.0239033786814957
 51
300.824347806557796
  0
ARC
  5
1E4EB
  8
0
 10
4378.8644835032328047
 20
234.3808023280244015
 30
0.0
 40
0.0163179744092961
 50
58.7359250661920314
 51
76.3322535414604602
  0
ARC
  5
1E4EC
  8
0
 10
4378.8705279769419576
 20
234.393802700491193
 30
0.0
 40
0.0046596244513565
 50
301.1201104750542186
 51
325.4097086071599279
  0
ARC
  5
1E4ED
  8
0
 10
4378.8703236243945867
 20
234.390527826451688
 30
0.0
 40
0.0049741526211505
 50
37.5012472438228031
 51
58.0986244433367105
  0
ARC
  5
1E4EE
  8
0
 10
4378.8727155285860135
 20
234.3922938663814932
 30
0.0
 40
0.0020021891407278
 50
325.416548166349628
 51
39.0773617050625077
  0
ARC
  5
1E4EF
  8
0
 10
4378.8472107155375852
 20
234.4037535894316875
 30
0.0
 40
0.0162835948680424
 50
239.3839132270680068
 51
255.8381450324071977
  0
ARC
  5
1E4F0
  8
0
 10
4378.8474302291533604
 20
234.3801842940735014
 30
0.0
 40
0.016955047905724
 50
104.354440474221505
 51
118.9480312228902932
  0
ARC
  5
1E4F1
  8
0
 10
4378.8421485855551509
 20
234.3896742639277875
 30
0.0
 40
0.0060944293773259
 50
118.6805450359875067
 51
136.9006534932933903
  0
ARC
  5
1E4F2
  8
0
 10
4378.841816550943804
 20
234.3945089970710001
 30
0.0
 40
0.005580939704002
 50
220.5049486846403966
 51
238.7073330597420977
  0
ARC
  5
1E4F3
  8
0
 10
4378.839106833810547
 20
234.3922987343210025
 30
0.0
 40
0.0020865228994592
 50
132.4472735406336881
 51
222.686494044636504
  0
ARC
  5
1E4F4
  8
0
 10
4378.581477018879923
 20
235.2090611554664008
 30
0.0
 40
0.9451785200515059
 50
281.3900786870726165
 51
295.794358359115904
  0
ARC
  5
1E4F5
  8
0
 10
4378.5619632286898195
 20
235.3112769091650875
 30
0.0
 40
1.0492354377112469
 50
269.9260070681448838
 51
281.332366015266075
  0
ARC
  5
1E4F6
  8
0
 10
4378.6935826702047052
 20
235.1610626279957899
 30
0.0
 40
0.8210841121292283
 50
285.000984220374221
 51
313.00162760242182
  0
ARC
  5
1E4F7
  8
0
 10
4378.6910063894456471
 20
235.1634447791809919
 30
0.0
 40
0.8245833746585265
 50
313.0196553520082716
 51
327.921478912441728
  0
ARC
  5
1E4F8
  8
0
 10
4377.9921753329608691
 20
235.622682771769604
 30
0.0
 40
1.660707616575732
 50
327.3009298367989004
 51
334.2274938970219864
  0
ARC
  5
1E4F9
  8
0
 10
4379.0333535328636572
 20
234.574247198422313
 30
0.0
 40
0.0858225417818904
 50
306.7446618400426814
 51
348.108320892566212
  0
ARC
  5
1E4FA
  8
0
 10
4379.0730631245996847
 20
234.5639895070557088
 30
0.0
 40
0.0448897796440486
 50
350.4765379263095042
 51
31.6666572194598892
  0
ARC
  5
1E4FB
  8
0
 10
4379.0246710987294136
 20
234.5358141524413895
 30
0.0
 40
0.1008784945287396
 50
30.8577544452507091
 51
59.3261363837772819
  0
ARC
  5
1E4FC
  8
0
 10
4378.9094197871327196
 20
234.5368883659388928
 30
0.0
 40
0.1431882218699932
 50
38.9040458936662006
 51
64.3072111924096248
  0
ARC
  5
1E4FD
  8
0
 10
4378.9770995572225729
 20
234.59188566865501
 30
0.0
 40
0.0559813848984527
 50
347.0896766383095269
 51
38.6024041490445313
  0
ARC
  5
1E4FE
  8
0
 10
4378.5619029798954216
 20
233.2473569905378099
 30
0.0
 40
1.4669163777890759
 50
84.1897577378816635
 51
90.0505713848118745
  0
ARC
  5
1E4FF
  8
0
 10
4378.6166932431096939
 20
233.7141858544586057
 30
0.0
 40
0.9969655020310876
 50
74.227463906150831
 51
84.6064067089677394
  0
ARC
  5
1E500
  8
0
 10
4378.7988406770491565
 20
234.3299014104067908
 30
0.0
 40
0.3550099843512251
 50
56.9938444013157977
 51
75.506781158955917
  0
ARC
  5
1E501
  8
0
 10
4378.9335367598096127
 20
234.5353688123447
 30
0.0
 40
0.1093345511090017
 50
39.5316376219962606
 51
57.5355420160218927
  0
ARC
  5
1E502
  8
0
 10
4378.9687142910006514
 20
234.5619294376600124
 30
0.0
 40
0.0653249001808939
 50
15.4920162319624293
 51
41.2028588163346328
  0
ARC
  5
1E503
  8
0
 10
4378.9861299316653458
 20
234.568150235282701
 30
0.0
 40
0.0468996421243712
 50
334.9474459823808274
 51
13.8511011646562601
  0
ARC
  5
1E504
  8
0
 10
4378.9553048847883474
 20
234.5832212038926059
 30
0.0
 40
0.0812086720224202
 50
312.7073940907467886
 51
334.5239493773938761
  0
ARC
  5
1E505
  8
0
 10
4378.2821665278070213
 20
235.3117574202875915
 30
0.0
 40
1.0731160501393
 50
311.5315199587552115
 51
312.7344807059504888
  0
ARC
  5
1E506
  8
0
 10
4378.9388463417153616
 20
234.5766155329345963
 30
0.0
 40
0.0874433710487048
 50
313.9222242966998238
 51
330.2976018831809029
  0
ARC
  5
1E507
  8
0
 10
4378.9715697262108733
 20
234.5577494403443097
 30
0.0
 40
0.0496717329576847
 50
330.4971755732414067
 51
359.1374245310968263
  0
ARC
  5
1E508
  8
0
 10
4378.9719825628408216
 20
234.5563750662815892
 30
0.0
 40
0.0492572531789049
 50
0.7288835537039459
 51
29.8890557533831611
  0
ARC
  5
1E509
  8
0
 10
4378.9380109976546009
 20
234.5365546576103952
 30
0.0
 40
0.0885876432801843
 50
30.0542096391111997
 51
50.1620134502187511
  0
ARC
  5
1E50A
  8
0
 10
4378.8704026708073798
 20
234.4572315429211926
 30
0.0
 40
0.1928109069497523
 50
49.8357973146722415
 51
62.8181310190161213
  0
ARC
  5
1E50B
  8
0
 10
4378.7818247491959482
 20
234.2883890163026877
 30
0.0
 40
0.383474097967633
 50
62.5692960995702805
 51
70.9577316379274805
  0
ARC
  5
1E50C
  8
0
 10
4378.6350606087025881
 20
233.8261311503563036
 30
0.0
 40
0.868404549247184
 50
71.7551637422729414
 51
83.2349592261486748
  0
ARC
  5
1E50D
  8
0
 10
4378.5631694055473417
 20
233.3024071135619124
 30
0.0
 40
1.3969844945570109
 50
82.8372452060875446
 51
90.1050440506896138
  0
ARC
  5
1E50E
  8
0
 10
4378.5616089939885569
 20
233.3389186407906095
 30
0.0
 40
1.351951814627036
 50
84.7457736851382464
 51
90.0424126332975732
  0
ARC
  5
1E50F
  8
0
 10
4378.5966385693463963
 20
233.6746701750545014
 30
0.0
 40
1.014411644950225
 50
77.1365239569337007
 51
84.9793782623404468
  0
ARC
  5
1E510
  8
0
 10
4378.7065144697508003
 20
234.1434144449233088
 30
0.0
 40
0.5329769353471815
 50
66.8249977373270525
 51
77.4334929533347918
  0
ARC
  5
1E511
  8
0
 10
4378.8252246037272926
 20
234.4209741522790864
 30
0.0
 40
0.2310970519721408
 50
53.6140387823778966
 51
66.8002013502137686
  0
ARC
  5
1E512
  8
0
 10
4378.9051112663919412
 20
234.5287494286201024
 30
0.0
 40
0.0969439686185554
 50
34.5400264450276708
 51
53.8370106615941921
  0
ARC
  5
1E513
  8
0
 10
4378.9448999557889692
 20
234.5558745593006051
 30
0.0
 40
0.048789840079776
 50
1.3237287980893551
 51
34.7932989347308634
  0
LINE
  5
1E514
  8
0
 10
4378.9936767752133164
 20
234.557001671481288
 30
0.0
 11
4378.9936767752133164
 21
234.4873506099391136
 31
0.0
  0
ARC
  5
1E515
  8
0
 10
4378.8163416667021011
 20
234.5841867058119874
 30
0.0
 40
0.2200674555103379
 50
296.5075134662014875
 51
308.8620308343694205
  0
ARC
  5
1E516
  8
0
 10
4378.8858368050696299
 20
234.5004756900295035
 30
0.0
 40
0.1112919215141646
 50
308.0440595278103046
 51
334.4182165482105802
  0
ARC
  5
1E517
  8
0
 10
4378.9142552284611156
 20
234.4860463211336139
 30
0.0
 40
0.0794322557766492
 50
334.9547459483072203
 51
0.9408470354701128
  0
ARC
  5
1E518
  8
0
 10
4378.5625685714212523
 20
233.4838309640113039
 30
0.0
 40
1.0741190361269251
 50
82.7363458108779639
 51
90.1045690718637502
  0
ARC
  5
1E519
  8
0
 10
4378.6212302675476167
 20
233.8964386935965933
 30
0.0
 40
0.6574332209046174
 50
72.9180656146498336
 51
83.2612371756942622
  0
ARC
  5
1E51A
  8
0
 10
4378.7335445999278818
 20
234.2526901031349951
 30
0.0
 40
0.2839194858229337
 50
59.4472507355907211
 51
73.4659181800484191
  0
ARC
  5
1E51B
  8
0
 10
4378.8254069350423379
 20
234.4079396361256045
 30
0.0
 40
0.103528224935577
 50
39.3994874761571765
 51
59.5524558430372721
  0
ARC
  5
1E51C
  8
0
 10
4378.8727370844953839
 20
234.4468973969617025
 30
0.0
 40
0.0422269968866634
 50
2.066547292514878
 51
39.3145104609218023
  0
LINE
  5
1E51D
  8
0
 10
4378.9149366177143747
 20
234.3922572369816066
 30
0.0
 11
4378.9149366177143747
 21
234.4484201123815978
 31
0.0
  0
ARC
  5
1E51E
  8
0
 10
4378.8790658695097591
 20
234.3924333789717025
 30
0.0
 40
0.0358711806701895
 50
338.1045014711883141
 51
359.7186534422982049
  0
ARC
  5
1E51F
  8
0
 10
4378.8672087417889998
 20
234.3971415406273877
 30
0.0
 40
0.0486287736838593
 50
323.1236995140575914
 51
338.1671341850776003
  0
ARC
  5
1E520
  8
0
 10
4378.8445859857620235
 20
234.4141544971980977
 30
0.0
 40
0.0769347636880302
 50
311.1896132042533054
 51
323.0987149249855861
  0
ARC
  5
1E521
  8
0
 10
4378.8001768650756276
 20
234.4669719264157095
 30
0.0
 40
0.145933824671893
 50
297.0057223869035283
 51
310.654199667136993
  0
ARC
  5
1E522
  8
0
 10
4378.7071509247743961
 20
234.6537242997638089
 30
0.0
 40
0.3545692975510508
 50
285.4903244694410773
 51
296.6957991005547797
  0
ARC
  5
1E523
  8
0
 10
4378.5849085456638932
 20
235.1278879941359037
 30
0.0
 40
0.8442034658024818
 50
273.4167903930027137
 51
284.8906459495804029
  0
ARC
  5
1E524
  8
0
 10
4378.5608281648128468
 20
235.410278209834388
 30
0.0
 40
1.12754990606845
 50
269.9887034953845273
 51
273.7830340986345732
  0
ARC
  5
1E525
  8
0
 10
4378.5615673926567979
 20
233.4013021167644979
 30
0.0
 40
1.1004844493733421
 50
84.213482668562591
 51
90.0499382409045097
  0
ARC
  5
1E526
  8
0
 10
4378.5969019117010248
 20
233.7137686448596128
 30
0.0
 40
0.7860560817314127
 50
75.8104408691778104
 51
84.4795994115272606
  0
ARC
  5
1E527
  8
0
 10
4378.7192349248261962
 20
234.1660061055310962
 30
0.0
 40
0.3177231619092987
 50
63.262410020637347
 51
77.206954551607538
  0
ARC
  5
1E528
  8
0
 10
4378.7940472514455905
 20
234.3086791132348026
 30
0.0
 40
0.1566687960592796
 50
49.9690813051521232
 51
64.2220202966112055
  0
ARC
  5
1E529
  8
0
 10
4378.8566815894218962
 20
234.3815674334277048
 30
0.0
 40
0.0605815079654841
 50
23.3374346224641194
 51
50.9878362754786991
  0
ARC
  5
1E52A
  8
0
 10
4378.8776781244660015
 20
234.3917299443380102
 30
0.0
 40
0.0372906865000129
 50
2.3809546369383781
 51
21.7801748740889316
  0
ARC
  5
1E52B
  8
0
 10
4378.5992737948254216
 20
234.323883611861902
 30
0.0
 40
0.0539688680034664
 50
77.6829736327580633
 51
104.590221302322206
  0
ARC
  5
1E52C
  8
0
 10
4378.5975486975139574
 20
234.4201503951169911
 30
0.0
 40
0.0539688680034664
 50
257.463035569014778
 51
284.3702832386161958
  0
ARC
  5
1E52D
  8
0
 10
4378.6065233533254286
 20
234.3843068079144984
 30
0.0
 40
0.0170205566661056
 50
285.0505318143357272
 51
301.8509762422635845
  0
ARC
  5
1E52E
  8
0
 10
4378.6072153893028371
 20
234.3606878105740918
 30
0.0
 40
0.0163179744092961
 50
59.7625535018760274
 51
77.3588819771796778
  0
ARC
  5
1E52F
  8
0
 10
4378.6130259639166979
 20
234.3737943955354979
 30
0.0
 40
0.0046596244513565
 50
302.1467389107452277
 51
326.4363370428234816
  0
ARC
  5
1E530
  8
0
 10
4378.6128803203791904
 20
234.3705163857891023
 30
0.0
 40
0.0049741526211505
 50
38.5278756794835502
 51
59.1252528789868705
  0
ARC
  5
1E531
  8
0
 10
4378.6152401983199525
 20
234.3723249981842969
 30
0.0
 40
0.0020021891407278
 50
326.4431766020347254
 51
40.1039901407330674
  0
ARC
  5
1E532
  8
0
 10
4378.5895341545410702
 20
234.3833259097046948
 30
0.0
 40
0.0162835948680424
 50
240.4105416627297132
 51
256.8647734680877193
  0
ARC
  5
1E533
  8
0
 10
4378.590175926048687
 20
234.3597643308264082
 30
0.0
 40
0.016955047905724
 50
105.3810689099290983
 51
119.9746596585654004
  0
ARC
  5
1E534
  8
0
 10
4378.5847250976603391
 20
234.3691581456425013
 30
0.0
 40
0.0060944293773259
 50
119.7071734716590043
 51
137.9272819289735992
  0
ARC
  5
1E535
  8
0
 10
4378.5843064920118195
 20
234.3739861536024023
 30
0.0
 40
0.005580939704002
 50
221.5315771203171096
 51
239.7339614954406954
  0
ARC
  5
1E536
  8
0
 10
4378.5816368113237331
 20
234.371727695413
 30
0.0
 40
0.0020865228994592
 50
133.4739019763036936
 51
223.7131224803345901
  0
ARC
  5
1E537
  8
0
 10
4378.5984871582813867
 20
234.365736509575612
 30
0.0
 40
0.0539688680034664
 50
77.6829736327580633
 51
104.590221302322206
  0
ARC
  5
1E538
  8
0
 10
4378.596762060970832
 20
234.4620032928307864
 30
0.0
 40
0.0539688680034664
 50
257.463035569014778
 51
284.3702832386161958
  0
ARC
  5
1E539
  8
0
 10
4378.6057367167823031
 20
234.4261597056282938
 30
0.0
 40
0.0170205566661056
 50
285.0505318143357272
 51
301.8509762422635845
  0
ARC
  5
1E53A
  8
0
 10
4378.6064287527588021
 20
234.4025407082878871
 30
0.0
 40
0.0163179744092961
 50
59.7625535018760274
 51
77.3588819771796778
  0
ARC
  5
1E53B
  8
0
 10
4378.6122393273735725
 20
234.4156472932492932
 30
0.0
 40
0.0046596244513565
 50
302.1467389107452277
 51
326.4363370428234816
  0
ARC
  5
1E53C
  8
0
 10
4378.6120936838360649
 20
234.4123692835028976
 30
0.0
 40
0.0049741526211505
 50
38.5278756794835502
 51
59.1252528789868705
  0
ARC
  5
1E53D
  8
0
 10
4378.6144535617759175
 20
234.4141778958980069
 30
0.0
 40
0.0020021891407278
 50
326.4431766020347254
 51
40.1039901407330674
  0
ARC
  5
1E53E
  8
0
 10
4378.5887475179988542
 20
234.4251788074184901
 30
0.0
 40
0.0162835948680424
 50
240.4105416627297132
 51
256.8647734680877193
  0
ARC
  5
1E53F
  8
0
 10
4378.5893892895073805
 20
234.4016172285402035
 30
0.0
 40
0.016955047905724
 50
105.3810689099290983
 51
119.9746596585654004
  0
ARC
  5
1E540
  8
0
 10
4378.5839384611172136
 20
234.4110110433562966
 30
0.0
 40
0.0060944293773259
 50
119.7071734716590043
 51
137.9272819289735992
  0
ARC
  5
1E541
  8
0
 10
4378.5835198554677845
 20
234.4158390513161123
 30
0.0
 40
0.005580939704002
 50
221.5315771203171096
 51
239.7339614954406954
  0
ARC
  5
1E542
  8
0
 10
4378.5808501747796981
 20
234.4135805931267953
 30
0.0
 40
0.0020865228994592
 50
133.4739019763036936
 51
223.7131224803345901
  0
LINE
  5
1E543
  8
0
 10
4379.5356856602884363
 20
230.4142646106813004
 30
0.0
 11
4377.5863939101482174
 21
230.4142646106813004
 31
0.0
  0
LINE
  5
1E545
  8
0
 10
4377.6306988081187228
 20
234.9019912869314908
 30
0.0
 11
4377.6306988081187228
 21
233.2187888445583894
 31
0.0
  0
LINE
  5
1E546
  8
0
 10
4379.4903064559657651
 20
233.2326361426395067
 30
0.0
 11
4379.4903064559657651
 21
234.9027170034036089
 31
0.0
  0
ARC
  5
1E547
  8
0
 10
4378.3828935343235571
 20
234.9132303077192887
 30
0.0
 40
0.5391112338757836
 50
234.7770119533853972
 51
244.7686067329318007
  0
ARC
  5
1E548
  8
0
 10
4378.1888797015481032
 20
234.647822476961494
 30
0.0
 40
0.2104662308816728
 50
213.4224072983222982
 51
213.4224960425929964
  0
ARC
  5
1E549
  8
0
 10
4378.1888797015481032
 20
234.647822476961494
 30
0.0
 40
0.2104662308816728
 50
218.7127304271083972
 51
236.2515534023941939
  0
ARC
  5
1E54A
  8
0
 10
4378.7342134070140673
 20
234.920917787014389
 30
0.0
 40
0.5478192068253698
 50
295.2769603821324722
 51
304.3260420661388252
  0
ARC
  5
1E54B
  8
0
 10
4378.9016231595724093
 20
234.6840092784806018
 30
0.0
 40
0.2578097234841115
 50
303.290130878045602
 51
318.6345491721879739
  0
ARC
  5
1E54C
  8
0
 10
4379.0261322855385515
 20
234.5741043176126936
 30
0.0
 40
0.0917329083506145
 50
318.7605356346646772
 51
327.3675496549662967
  0
LINE
  5
1E54D
  8
0
 10
4378.5350176407700928
 20
235.3484679070631955
 30
0.0
 11
4378.5350176431647924
 21
235.3142178580762902
 31
0.0
  0
LINE
  5
1E54E
  8
0
 10
4378.5350176431647924
 20
235.3142178580762902
 30
0.0
 11
4378.5861987417401906
 21
235.3142176860812924
 31
0.0
  0
LINE
  5
1E54F
  8
0
 10
4378.5861987417401906
 20
235.3142176860812924
 30
0.0
 11
4378.5861987421403683
 21
235.3484677263813012
 31
0.0
  0
LINE
  5
1E550
  8
0
 10
4378.5861987421403683
 20
235.3484677263813012
 30
0.0
 11
4378.5350176407700928
 21
235.3484679070631955
 31
0.0
  0
ARC
  5
1E551
  8
0
 10
4378.5606124422101857
 20
235.6118611789129886
 30
0.0
 40
0.310044011656637
 50
260.3211231727688073
 51
279.6772657860274194
  0
ARC
  5
1E552
  8
0
 10
4378.5606017389964109
 20
235.6683256486039113
 30
0.0
 40
0.3862201078774279
 50
259.0652860771306791
 51
280.9363118418431782
  0
LINE
  5
1E553
  8
0
 10
4378.5084859920389135
 20
235.3062304828812898
 30
0.0
 11
4378.487339406639876
 21
235.2891177880813132
 31
0.0
  0
LINE
  5
1E554
  8
0
 10
4378.487339406639876
 20
235.2891177880813132
 30
0.0
 11
4378.4873395115528183
 21
235.2778034297990928
 31
0.0
  0
LINE
  5
1E555
  8
0
 10
4378.6127302979348315
 20
235.3062290171911002
 30
0.0
 11
4378.6338745420316627
 21
235.2891198099567873
 31
0.0
  0
LINE
  5
1E556
  8
0
 10
4378.6338745420316627
 20
235.2891198099567873
 30
0.0
 11
4378.6338768697405612
 21
235.2778047885813066
 31
0.0
  0
ARC
  5
1E557
  8
0
 10
4378.5606047074279559
 20
235.6534505031110882
 30
0.0
 40
0.3827251136448337
 50
258.9637314398760282
 51
281.0373311217572905
  0
ARC
  5
1E558
  8
0
 10
4378.5606082825570411
 20
235.7327916664337977
 30
0.0
 40
0.4795924310787674
 50
257.7825689830266924
 51
282.2174082509775985
  0
ARC
  5
1E559
  8
0
 10
4378.5606083339598626
 20
235.77431557576719
 30
0.0
 40
0.5447911674859247
 50
256.9906495752026103
 51
283.0093414227113158
  0
ARC
  5
1E55A
  8
0
 10
4378.5606081381956756
 20
235.7567115299524119
 30
0.0
 40
0.5391400700710512
 50
256.8518817175494178
 51
283.1481384599147191
  0
LINE
  5
1E55B
  8
0
 10
4378.4379703808390332
 20
235.2317048674929083
 30
0.0
 11
4378.4379703556396635
 21
235.2435073740813039
 31
0.0
  0
LINE
  5
1E55C
  8
0
 10
4378.4379703556396635
 20
235.2435073740813039
 30
0.0
 11
4378.4591159037681791
 21
235.2640612567140863
 31
0.0
  0
LINE
  5
1E55D
  8
0
 10
4378.6832460804398579
 20
235.2317049106812874
 30
0.0
 11
4378.6832462253405538
 21
235.2435079911813034
 31
0.0
  0
LINE
  5
1E55E
  8
0
 10
4378.6832462253405538
 20
235.2435079911813034
 30
0.0
 11
4378.6621004750986685
 21
235.2640612163868923
 31
0.0
  0
ENDSEC
  0
EOF
