  0
SECTION
  2
HEADER
  9
$ACADVER
  1
AC1009
  9
$INSBASE
 10
4338.6687348413306609
 20
28.0213548996039208
 30
0.0
  9
$EXTMIN
 10
4332.5053894724724159
 20
28.0165805021224799
 30
-0.0015258207003583
  9
$EXTMAX
 10
4339.7965979724704084
 20
33.0652008364187466
 30
0.0000000349246037
  9
$LIMMIN
 10
0.0
 20
0.0
  9
$LIMMAX
 10
11.6929133858000007
 20
8.2677165353999982
  9
$ORTHOMODE
 70
     1
  9
$REGENMODE
 70
     1
  9
$FILLMODE
 70
     1
  9
$QTEXTMODE
 70
     0
  9
$MIRRTEXT
 70
     0
  9
$DRAGMODE
 70
     2
  9
$LTSCALE
 40
0.6431102362
  9
$OSMODE
 70
   575
  9
$ATTMODE
 70
     1
  9
$TEXTSIZE
 40
0.2
  9
$TRACEWID
 40
0.05
  9
$TEXTSTYLE
  7
STANDARD
  9
$CLAYER
  8
0
  9
$CELTYPE
  6
BYLAYER
  9
$CECOLOR
 62
   256
  9
$DIMSCALE
 40
1.0
  9
$DIMASZ
 40
0.1875
  9
$DIMEXO
 40
0.0625
  9
$DIMDLI
 40
0.4443307087
  9
$DIMRND
 40
0.0
  9
$DIMDLE
 40
0.0
  9
$DIMEXE
 40
0.125
  9
$DIMTP
 40
0.01
  9
$DIMTM
 40
0.01
  9
$DIMTXT
 40
2.0
  9
$DIMCEN
 40
0.1052362205
  9
$DIMTSZ
 40
0.0
  9
$DIMTOL
 70
     1
  9
$DIMLIM
 70
     0
  9
$DIMTIH
 70
     1
  9
$DIMTOH
 70
     1
  9
$DIMSE1
 70
     0
  9
$DIMSE2
 70
     0
  9
$DIMTAD
 70
     0
  9
$DIMZIN
 70
     0
  9
$DIMBLK
  1

  9
$DIMASO
 70
     1
  9
$DIMSHO
 70
     1
  9
$DIMPOST
  1
\X
  9
$DIMAPOST
  1

  9
$DIMALT
 70
     1
  9
$DIMALTD
 70
     2
  9
$DIMALTF
 40
25.3999999999999986
  9
$DIMLFAC
 40
1.0
  9
$DIMTOFL
 70
     0
  9
$DIMTVP
 40
0.0
  9
$DIMTIX
 70
     0
  9
$DIMSOXD
 70
     0
  9
$DIMSAH
 70
     0
  9
$DIMBLK1
  1

  9
$DIMBLK2
  1

  9
$DIMSTYLE
  2
STANDARD
  9
$DIMCLRD
 70
     0
  9
$DIMCLRE
 70
     0
  9
$DIMCLRT
 70
     0
  9
$DIMTFAC
 40
1.0
  9
$DIMGAP
 40
0.09
  9
$LUNITS
 70
     2
  9
$LUPREC
 70
     4
  9
$SKETCHINC
 40
0.1
  9
$FILLETRAD
 40
0.0
  9
$AUNITS
 70
     0
  9
$AUPREC
 70
     0
  9
$MENU
  1
.
  9
$ELEVATION
 40
0.0
  9
$PELEVATION
 40
0.0
  9
$THICKNESS
 40
0.0
  9
$LIMCHECK
 70
     0
  9
$BLIPMODE
 70
     0
  9
$CHAMFERA
 40
0.0
  9
$CHAMFERB
 40
0.0
  9
$SKPOLY
 70
     0
  9
$TDCREATE
 40
2458060.468368056230247
  9
$TDUPDATE
 40
2459383.7515972228720784
  9
$TDINDWG
 40
0.4593357639
  9
$TDUSRTIMER
 40
0.4593357639
  9
$USRTIMER
 70
     1
  9
$ANGBASE
 50
0.0
  9
$ANGDIR
 70
     0
  9
$PDMODE
 70
     0
  9
$PDSIZE
 40
0.3125
  9
$PLINEWID
 40
0.0
  9
$COORDS
 70
     2
  9
$SPLFRAME
 70
     0
  9
$SPLINETYPE
 70
     6
  9
$SPLINESEGS
 70
     8
  9
$ATTDIA
 70
     1
  9
$ATTREQ
 70
     1
  9
$HANDLING
 70
     1
  9
$HANDSEED
  5
13B43
  9
$SURFTAB1
 70
     6
  9
$SURFTAB2
 70
     6
  9
$SURFTYPE
 70
     6
  9
$SURFU
 70
     6
  9
$SURFV
 70
     6
  9
$UCSNAME
  2

  9
$UCSORG
 10
0.0
 20
0.0
 30
0.0
  9
$UCSXDIR
 10
1.0
 20
0.0
 30
0.0
  9
$UCSYDIR
 10
0.0
 20
1.0
 30
0.0
  9
$PUCSNAME
  2

  9
$PUCSORG
 10
0.0
 20
0.0
 30
0.0
  9
$PUCSXDIR
 10
1.0
 20
0.0
 30
0.0
  9
$PUCSYDIR
 10
0.0
 20
1.0
 30
0.0
  9
$USERI1
 70
     0
  9
$USERI2
 70
     0
  9
$USERI3
 70
     0
  9
$USERI4
 70
     0
  9
$USERI5
 70
     0
  9
$USERR1
 40
0.0
  9
$USERR2
 40
0.0
  9
$USERR3
 40
0.0
  9
$USERR4
 40
0.0
  9
$USERR5
 40
0.0
  9
$WORLDVIEW
 70
     1
  9
$SHADEDGE
 70
     3
  9
$SHADEDIF
 70
    70
  9
$TILEMODE
 70
     1
  9
$MAXACTVP
 70
    64
  9
$PLIMCHECK
 70
     0
  9
$PEXTMIN
 10
1.0000000000000000E+20
 20
1.0000000000000000E+20
 30
1.0000000000000000E+20
  9
$PEXTMAX
 10
-1.0000000000000000E+20
 20
-1.0000000000000000E+20
 30
-1.0000000000000000E+20
  9
$PLIMMIN
 10
0.0
 20
0.0
  9
$PLIMMAX
 10
12.0
 20
9.0
  9
$UNITMODE
 70
     0
  9
$VISRETAIN
 70
     1
  9
$PLINEGEN
 70
     0
  9
$PSLTSCALE
 70
     1
  0
ENDSEC
  0
SECTION
  2
TABLES
  0
TABLE
  2
VPORT
 70
     1
  0
VPORT
  2
*ACTIVE
 70
     0
 10
0.0
 20
0.0
 11
1.0
 21
1.0
 12
544.6576592673269488
 22
-89.2030213539709962
 13
0.0
 23
0.0
 14
1.0
 24
1.0
 15
0.0
 25
0.0
 16
0.0
 26
0.0
 36
5.1040778033513332
 17
3792.35791015625
 27
120.1806564331053977
 37
0.0
 40
5.6063727384534348
 41
2.4101748807631158
 42
50.0
 43
0.0
 44
0.0
 50
0.0
 51
0.0
 71
     0
 72
   100
 73
     1
 74
     1
 75
     0
 76
     0
 77
     0
 78
     0
  0
ENDTAB
  0
TABLE
  2
LTYPE
 70
     2
  0
LTYPE
  2
CONTINUOUS
 70
     0
  3
Solid line
 72
    65
 73
     0
 40
0.0
  0
LTYPE
  2
PHANTOM2
 70
     0
  3
___ _ _ ___ _ _ ___ _ _ ___ _ _
 72
    65
 73
     6
 40
1.25
 49
0.625
 49
-0.125
 49
0.125
 49
-0.125
 49
0.125
 49
-0.125
  0
ENDTAB
  0
TABLE
  2
LAYER
 70
     2
  0
LAYER
  2
0
 70
     0
 62
   255
  6
CONTINUOUS
  0
LAYER
  2
DEFPOINTS
 70
     0
 62
     7
  6
CONTINUOUS
  0
ENDTAB
  0
TABLE
  2
STYLE
 70
     1
  0
STYLE
  2
STANDARD
 70
     0
 40
0.0
 41
0.8
 50
0.0
 71
     0
 42
0.2
  3
txt
  4

  0
ENDTAB
  0
TABLE
  2
VIEW
 70
     2
  0
ENDTAB
  0
TABLE
  2
UCS
 70
     0
  0
ENDTAB
  0
TABLE
  2
APPID
 70
     9
  0
APPID
  2
ACAD
 70
     0
  0
APPID
  2
ACAD_MLEADERVER
 70
     0
  0
APPID
  2
ACAD_EXEMPT_FROM_CAD_STANDARDS
 70
     0
  0
APPID
  2
ACAD_NAV_VCDISPLAY
 70
     0
  0
APPID
  2
ACAECLAYERSTANDARD
 70
     0
  0
APPID
  2
ACCMTRANSPARENCY
 70
     0
  0
APPID
  2
ACAD_DSTYLE_DIMJAG
 70
     0
  0
APPID
  2
ACAD_DSTYLE_DIMTALN
 70
     0
  0
APPID
  2
ACDBATTR
 70
     0
  0
ENDTAB
  0
TABLE
  2
DIMSTYLE
 70
     1
  0
DIMSTYLE
  2
STANDARD
 70
     0
  3

  4

  5

  6

  7

 40
1.0
 41
0.1875
 42
0.0625
 43
0.38
 44
0.125
 45
0.0
 46
0.0
 47
0.01
 48
0.01
140
0.15625
141
0.09
142
0.0
143
25.3999999999999986
144
1.0
145
0.0
146
1.0
147
0.09
 71
     1
 72
     0
 73
     1
 74
     1
 75
     0
 76
     0
 77
     0
 78
     4
170
     0
171
     2
172
     0
173
     0
174
     0
175
     0
176
     0
177
     0
178
     0
  0
ENDTAB
  0
ENDSEC
  0
SECTION
  2
BLOCKS
  0
BLOCK
  8
0
  2
$MODEL_SPACE
 70
     0
 10
0.0
 20
0.0
 30
0.0
  3
$MODEL_SPACE
  1

  0
ENDBLK
  5
21
  8
0
  0
BLOCK
 67
     1
  8
0
  2
$PAPER_SPACE
 70
     0
 10
0.0
 20
0.0
 30
0.0
  3
$PAPER_SPACE
  1

  0
ENDBLK
  5
1D
 67
     1
  8
0
  0
BLOCK
  8
0
  2
_FILLED
 70
     0
 10
0.0
 20
0.0
 30
0.0
  3
_FILLED
  1

  0
SOLID
  5
13A32
  8
0
  6
BYBLOCK
 62
     0
 10
0.0
 20
0.0
 30
0.0
 11
-1.0
 21
0.1666666667
 31
0.0
 12
-1.0
 22
-0.1666666667
 32
0.0
 13
-1.0
 23
-0.1666666667
 33
0.0
  0
ENDBLK
  5
13A33
  8
0
  6
BYBLOCK
 62
     0
  0
ENDSEC
  0
SECTION
  2
ENTITIES
  0
ATTDEF
  5
3930
  8
DEFPOINTS
 10
4338.6687387863648837
 20
28.0202076720765199
 30
0.0
 40
0.001
  1
K-18657T
  3

  2
MODELNUMBER
 70
     0
1001
ACDBATTR
1070
     0
1070
     1
  0
ATTDEF
  5
3931
  8
DEFPOINTS
 10
4338.6687387863648837
 20
28.0185410054098583
 30
0.0
 40
0.001
  1
KUMIN
  3

  2
TRADENAME
 70
     0
1001
ACDBATTR
1070
     0
1070
     1
  0
ATTDEF
  5
3932
  8
DEFPOINTS
 10
4338.6687387863648837
 20
28.0168743387431896
 30
0.0
 40
0.001
  1
BATHROOM SINK FAUCET
  3

  2
PRODUCT
 70
     0
1001
ACDBATTR
1070
     0
1070
     1
  0
LINE
  5
13A6D
  8
0
 10
4334.1503589945968997
 20
33.063517832170298
 30
0.0
 11
4338.1177336775972435
 21
33.063517832170298
 31
0.0
  0
ARC
  5
13A6E
  8
0
 10
4338.0649343552677237
 20
-25.9925166064524795
 30
0.0
 40
59.056058041357943
 50
89.7219979791371998
 51
89.9487744554278237
  0
ARC
  5
13A6F
  8
0
 10
4338.3518405009899652
 20
29.9718658643366211
 30
0.0
 40
3.0909804328783381
 50
84.2252647199988189
 51
90.0067526164710756
  0
ARC
  5
13A70
  8
0
 10
4338.4965779698095503
 20
31.4514098305823211
 30
0.0
 40
1.604389137195255
 50
75.2473136281378743
 51
84.0515189257886135
  0
ARC
  5
13A71
  8
0
 10
4334.1808905696088914
 20
27.5049225192273887
 30
0.0
 40
5.5586791623679419
 50
90.3147041113272167
 51
98.4614250809588185
  0
ARC
  5
13A72
  8
0
 10
4333.6765832308074096
 20
31.8323050878287397
 30
0.0
 40
1.212067339831264
 50
104.9956020309993932
 51
119.8707386029031028
  0
ARC
  5
13A73
  8
0
 10
4333.6303000842972324
 20
31.8596460246404192
 30
0.0
 40
1.1624918816922161
 50
133.2858798867794121
 51
144.689564312398403
  0
ARC
  5
13A74
  8
0
 10
4333.6987331237360195
 20
31.7876791977208804
 30
0.0
 40
1.2617999871500609
 50
119.7336793959675987
 51
133.3073126707259917
  0
ARC
  5
13A75
  8
0
 10
4332.7224359790970993
 20
32.5021560229618984
 30
0.0
 40
0.0502725645106862
 50
144.1855695997327871
 51
157.9576948985360048
  0
ARC
  5
13A76
  8
0
 10
4332.6913263318438112
 20
32.5145634107261188
 30
0.0
 40
0.0167813415900064
 50
157.3612862494537126
 51
211.300936472689699
  0
ARC
  5
13A77
  8
0
 10
4332.7307181168052921
 20
32.5382189096809995
 30
0.0
 40
0.0627299895040809
 50
211.0699568412534859
 51
222.4018732407745915
  0
ARC
  5
13A78
  8
0
 10
4333.8486281125560708
 20
33.479812650618328
 30
0.0
 40
1.5242978077573781
 50
220.2012056537415106
 51
226.0645555944063858
  0
ARC
  5
13A79
  8
0
 10
4333.6607961971194527
 20
33.2747585916896114
 30
0.0
 40
1.246326908618818
 50
225.7420928598735088
 51
229.5654547616045988
  0
ARC
  5
13A7A
  8
0
 10
4333.265053621476909
 20
33.4182809082528465
 30
0.0
 40
1.167498604225967
 50
249.3043323878079889
 51
255.6692174090638048
  0
ARC
  5
13A7B
  8
0
 10
4332.9939086014646819
 20
32.2146150246876033
 30
0.0
 40
0.0393700786641465
 50
161.9940999965689059
 51
251.9941000354060066
  0
LINE
  5
13A7C
  8
0
 10
4332.9564666845890315
 20
32.2267849037164922
 30
0.0
 11
4332.9760748478738606
 21
32.2871114871332594
 31
0.0
  0
LINE
  5
13A7D
  8
0
 10
4332.9817387224966296
 20
32.1771731078039025
 30
0.0
 11
4333.7327834143206928
 21
31.9331289781678294
 31
0.0
  0
ARC
  5
13A7E
  8
0
 10
4333.7427469403792202
 20
31.9712174443641501
 30
0.0
 40
0.039370078850654
 50
255.3405354623506014
 51
341.9940997618016922
  0
LINE
  5
13A7F
  8
0
 10
4333.0191806394841478
 20
32.1650032287641281
 30
0.0
 11
4333.0009301164964199
 21
32.1088389571038988
 31
0.0
  0
LINE
  5
13A80
  8
0
 10
4333.0009301164964199
 20
32.1088389571038988
 30
0.0
 11
4333.6748760303962626
 21
31.889783927103899
 31
0.0
  0
LINE
  5
13A81
  8
0
 10
4333.6748760303962626
 20
31.889783927103899
 30
0.0
 11
4333.6931308489283765
 21
31.945946802497371
 31
0.0
  0
LINE
  5
13A82
  8
0
 10
4333.7801888573967517
 20
31.9590475652038997
 30
0.0
 11
4333.7951428778778791
 21
32.0050551870481286
 31
0.0
  0
ARC
  5
13A83
  8
0
 10
4337.3414051708896295
 20
38.8476441287296765
 30
0.0
 40
7.7069448989635561
 50
242.6039530791667005
 51
243.5726723333027905
  0
ARC
  5
13A84
  8
0
 10
4332.7331376588517742
 20
29.94841880859029
 30
0.0
 40
2.3146507897380779
 50
62.6890891366447107
 51
66.0241682149116684
  0
ARC
  5
13A85
  8
0
 10
4332.79987341226024
 20
30.0883926350656914
 30
0.0
 40
2.1596400653556742
 50
66.1329170250299825
 51
69.0930383301691933
  0
LINE
  5
13A86
  8
0
 10
4333.570544222636272
 20
32.1058444223234432
 30
0.0
 11
4333.1801450008397296
 21
32.2317355051312973
 31
0.0
  0
LINE
  5
13A87
  8
0
 10
4332.9760748478738606
 20
32.2871114871332594
 30
0.0
 11
4333.1801450008397296
 21
32.2317355051312973
 31
0.0
  0
ARC
  5
13A88
  8
0
 10
4334.3551747297560723
 20
37.7772410728932613
 30
0.0
 40
5.8480300375687477
 50
265.6473092343118765
 51
268.9130856555423748
  0
ARC
  5
13A89
  8
0
 10
4334.5618569664711686
 20
30.4817918681910314
 30
0.0
 40
1.4828850602101999
 50
89.4303699185125538
 51
102.3678101900682975
  0
ARC
  5
13A8A
  8
0
 10
4334.819039037802213
 20
30.5815925530802701
 30
0.0
 40
1.377827645638326
 50
74.419061047549917
 51
88.6213129322225939
  0
LINE
  5
13A8B
  8
0
 10
4334.2498277893955674
 20
31.931476625112051
 30
0.0
 11
4334.2498277893955674
 21
31.9258269353084394
 31
0.0
  0
LINE
  5
13A8C
  8
0
 10
4334.2498277893955674
 20
31.9258269353084394
 30
0.0
 11
4335.1789616476971787
 21
31.9047419381038999
 31
0.0
  0
LINE
  5
13A8D
  8
0
 10
4335.1789616476971787
 20
31.9115792958610811
 30
0.0
 11
4335.1789616476971787
 21
31.9047419381038999
 31
0.0
  0
LINE
  5
13A8E
  8
0
 10
4334.5765994488956494
 20
31.9646036435038994
 30
0.0
 11
4334.8521899934967223
 21
31.9590213299039014
 31
0.0
  0
LINE
  5
13A8F
  8
0
 10
4334.5765994519970263
 20
31.9586314207038988
 30
0.0
 11
4334.8521899614970607
 21
31.9530204859038989
 31
0.0
  0
ARC
  5
13A90
  8
0
 10
4334.5594768611590553
 20
30.4852734652716499
 30
0.0
 40
1.4734574468037931
 50
89.3341690420452892
 51
102.1312218839132981
  0
ARC
  5
13A91
  8
0
 10
4334.814891355796135
 20
30.5705554289134511
 30
0.0
 40
1.382968119209586
 50
74.7368376262173228
 51
88.4545455472194391
  0
LINE
  5
13A92
  8
0
 10
4335.1891226928955803
 20
31.9087877570039105
 30
0.0
 11
4336.9354408797980795
 21
31.8690965480969197
 31
0.0
  0
ARC
  5
13A93
  8
0
 10
4336.9526527129028182
 20
30.6162068113353989
 30
0.0
 40
1.253007956750924
 50
77.1202700134682146
 51
90.7870631666291104
  0
ARC
  5
13A94
  8
0
 10
4337.0962497369309858
 20
31.2863368405002404
 30
0.0
 40
0.5678074621147881
 50
47.5288499187025195
 51
76.1725718999007881
  0
ARC
  5
13A95
  8
0
 10
4336.8361247889506558
 20
31.0689640423193794
 30
0.0
 40
0.9049111971899568
 50
355.4136261830118997
 51
44.6721904517446475
  0
LINE
  5
13A96
  8
0
 10
4337.7381383910969816
 20
30.9966056541039094
 30
0.0
 11
4337.6945402711971838
 21
28.0213548996038888
 31
0.0
  0
LINE
  5
13A97
  8
0
 10
4337.6945402711971838
 20
28.0213548996038888
 30
0.0
 11
4339.6429294114650475
 21
28.0213548996039385
 31
0.0
  0
LINE
  5
13A98
  8
0
 10
4339.6429294114650475
 20
28.0213548996039385
 30
0.0
 11
4339.5986135367193128
 21
32.4959010653353033
 31
0.0
  0
ARC
  5
13A99
  8
0
 10
4339.4004030767127915
 20
32.3966526885966175
 30
0.0
 40
0.2296239647626621
 50
31.5132056934312992
 51
35.9048050467194386
  0
ARC
  5
13A9A
  8
0
 10
4339.5829485062113235
 20
32.508269443753413
 30
0.0
 40
0.015661019883406
 50
359.6703888436338161
 51
32.464867210712292
  0
ARC
  5
13A9B
  8
0
 10
4340.0790077161827867
 20
32.502207265209563
 30
0.0
 40
0.4804355688530423
 50
179.2877628932940013
 51
180.7520863091274919
  0
ARC
  5
13A9C
  8
0
 10
4338.6554646226841214
 20
31.8738869511820013
 30
0.0
 40
1.1396684945460971
 50
35.2307209401900465
 51
43.5416441639191589
  0
ARC
  5
13A9D
  8
0
 10
4338.5860164579262346
 20
31.8161339487597914
 30
0.0
 40
1.2289298374907931
 50
68.5916909265150849
 51
74.9495833946401859
  0
ARC
  5
13A9E
  8
0
 10
4338.57499622126943
 20
31.797723709060179
 30
0.0
 40
1.2500973523585659
 50
56.3520597653973994
 51
68.4294454837805546
  0
ARC
  5
13A9F
  8
0
 10
4338.5801338620622118
 20
31.8012849566905693
 30
0.0
 40
1.2442881894747331
 50
43.5754110161791175
 51
56.4581348862979766
  0
LINE
  5
13AA0
  8
0
 10
4332.6845115303603961
 20
32.4957819652274011
 30
0.0
 11
4339.5986147162857378
 21
32.4957819652274011
 31
0.0
  0
ENDSEC
  0
EOF
