  0
SECTION
  2
HEADER
  9
$ACADVER
  1
AC1009
  9
$INSBASE
 10
95.7461725378737043
 20
-86.2451213069117415
 30
0.0
  9
$EXTMIN
 10
81.9722089518556629
 20
-86.2451213069117415
 30
0.0
  9
$EXTMAX
 10
109.5201221335057937
 20
-78.7449160584757237
 30
0.0
  9
$LIMMIN
 10
0.0
 20
0.0
  9
$LIMMAX
 10
11.6929133858000007
 20
8.2677165353999982
  9
$ORTHOMODE
 70
     0
  9
$REGENMODE
 70
     1
  9
$FILLMODE
 70
     1
  9
$QTEXTMODE
 70
     0
  9
$MIRRTEXT
 70
     0
  9
$DRAGMODE
 70
     2
  9
$LTSCALE
 40
0.6431102362
  9
$OSMODE
 70
  4095
  9
$ATTMODE
 70
     1
  9
$TEXTSIZE
 40
0.2
  9
$TRACEWID
 40
0.05
  9
$TEXTSTYLE
  7
STANDARD
  9
$CLAYER
  8
0
  9
$CELTYPE
  6
BYLAYER
  9
$CECOLOR
 62
   256
  9
$DIMSCALE
 40
1.0
  9
$DIMASZ
 40
0.1875
  9
$DIMEXO
 40
0.0625
  9
$DIMDLI
 40
0.4443307087
  9
$DIMRND
 40
0.0
  9
$DIMDLE
 40
0.0
  9
$DIMEXE
 40
0.125
  9
$DIMTP
 40
0.01
  9
$DIMTM
 40
0.01
  9
$DIMTXT
 40
1.0
  9
$DIMCEN
 40
0.1052362205
  9
$DIMTSZ
 40
0.0
  9
$DIMTOL
 70
     1
  9
$DIMLIM
 70
     0
  9
$DIMTIH
 70
     1
  9
$DIMTOH
 70
     1
  9
$DIMSE1
 70
     0
  9
$DIMSE2
 70
     0
  9
$DIMTAD
 70
     0
  9
$DIMZIN
 70
     0
  9
$DIMBLK
  1

  9
$DIMASO
 70
     1
  9
$DIMSHO
 70
     1
  9
$DIMPOST
  1
\X
  9
$DIMAPOST
  1

  9
$DIMALT
 70
     1
  9
$DIMALTD
 70
     2
  9
$DIMALTF
 40
25.3999999999999986
  9
$DIMLFAC
 40
1.0
  9
$DIMTOFL
 70
     0
  9
$DIMTVP
 40
0.0
  9
$DIMTIX
 70
     0
  9
$DIMSOXD
 70
     0
  9
$DIMSAH
 70
     0
  9
$DIMBLK1
  1

  9
$DIMBLK2
  1

  9
$DIMSTYLE
  2
STANDARD
  9
$DIMCLRD
 70
     0
  9
$DIMCLRE
 70
     0
  9
$DIMCLRT
 70
     0
  9
$DIMTFAC
 40
1.0
  9
$DIMGAP
 40
0.09
  9
$LUNITS
 70
     2
  9
$LUPREC
 70
     4
  9
$SKETCHINC
 40
0.1
  9
$FILLETRAD
 40
0.0
  9
$AUNITS
 70
     0
  9
$AUPREC
 70
     0
  9
$MENU
  1
.
  9
$ELEVATION
 40
0.0
  9
$PELEVATION
 40
0.0
  9
$THICKNESS
 40
0.0
  9
$LIMCHECK
 70
     0
  9
$BLIPMODE
 70
     0
  9
$CHAMFERA
 40
0.0
  9
$CHAMFERB
 40
0.0
  9
$SKPOLY
 70
     0
  9
$TDCREATE
 40
2458172.4620254631154239
  9
$TDUPDATE
 40
2459152.5429629632271826
  9
$TDINDWG
 40
0.137586956
  9
$TDUSRTIMER
 40
0.137586956
  9
$USRTIMER
 70
     1
  9
$ANGBASE
 50
0.0
  9
$ANGDIR
 70
     0
  9
$PDMODE
 70
     0
  9
$PDSIZE
 40
0.3125
  9
$PLINEWID
 40
0.0
  9
$COORDS
 70
     1
  9
$SPLFRAME
 70
     0
  9
$SPLINETYPE
 70
     6
  9
$SPLINESEGS
 70
     8
  9
$ATTDIA
 70
     1
  9
$ATTREQ
 70
     1
  9
$HANDLING
 70
     1
  9
$HANDSEED
  5
6CE8
  9
$SURFTAB1
 70
     6
  9
$SURFTAB2
 70
     6
  9
$SURFTYPE
 70
     6
  9
$SURFU
 70
     6
  9
$SURFV
 70
     6
  9
$UCSNAME
  2

  9
$UCSORG
 10
0.0
 20
0.0
 30
0.0
  9
$UCSXDIR
 10
1.0
 20
0.0
 30
0.0
  9
$UCSYDIR
 10
0.0
 20
1.0
 30
0.0
  9
$PUCSNAME
  2

  9
$PUCSORG
 10
0.0
 20
0.0
 30
0.0
  9
$PUCSXDIR
 10
1.0
 20
0.0
 30
0.0
  9
$PUCSYDIR
 10
0.0
 20
1.0
 30
0.0
  9
$USERI1
 70
     0
  9
$USERI2
 70
     0
  9
$USERI3
 70
     0
  9
$USERI4
 70
     0
  9
$USERI5
 70
     0
  9
$USERR1
 40
0.0
  9
$USERR2
 40
0.0
  9
$USERR3
 40
0.0
  9
$USERR4
 40
0.0
  9
$USERR5
 40
0.0
  9
$WORLDVIEW
 70
     1
  9
$SHADEDGE
 70
     3
  9
$SHADEDIF
 70
    70
  9
$TILEMODE
 70
     1
  9
$MAXACTVP
 70
    64
  9
$PLIMCHECK
 70
     0
  9
$PEXTMIN
 10
1.0000000000000000E+20
 20
1.0000000000000000E+20
 30
1.0000000000000000E+20
  9
$PEXTMAX
 10
-1.0000000000000000E+20
 20
-1.0000000000000000E+20
 30
-1.0000000000000000E+20
  9
$PLIMMIN
 10
0.0
 20
0.0
  9
$PLIMMAX
 10
12.0
 20
9.0
  9
$UNITMODE
 70
     0
  9
$VISRETAIN
 70
     1
  9
$PLINEGEN
 70
     0
  9
$PSLTSCALE
 70
     1
  0
ENDSEC
  0
SECTION
  2
TABLES
  0
TABLE
  2
VPORT
 70
     1
  0
VPORT
  2
*ACTIVE
 70
     0
 10
0.0
 20
0.0
 11
1.0
 21
1.0
 12
-12.5910704009874301
 22
-89.8212733468134132
 13
0.0
 23
0.0
 14
1.0
 24
1.0
 15
0.0
 25
0.0
 16
0.0
 26
0.0
 36
30.6214257250603907
 17
124.6111586000725993
 27
5.3122741703778242
 37
0.0
 40
36.7702705532238028
 41
2.005224660397074
 42
50.0
 43
0.0
 44
0.0
 50
0.0
 51
0.0
 71
     0
 72
   100
 73
     1
 74
     1
 75
     0
 76
     0
 77
     0
 78
     0
  0
ENDTAB
  0
TABLE
  2
LTYPE
 70
     2
  0
LTYPE
  2
CONTINUOUS
 70
     0
  3
Solid line
 72
    65
 73
     0
 40
0.0
  0
LTYPE
  2
PHANTOM2
 70
     0
  3
___ _ _ ___ _ _ ___ _ _ ___ _ _
 72
    65
 73
     6
 40
1.25
 49
0.625
 49
-0.125
 49
0.125
 49
-0.125
 49
0.125
 49
-0.125
  0
ENDTAB
  0
TABLE
  2
LAYER
 70
     2
  0
LAYER
  2
0
 70
     0
 62
   255
  6
CONTINUOUS
  0
LAYER
  2
DEFPOINTS
 70
     0
 62
     7
  6
CONTINUOUS
  0
ENDTAB
  0
TABLE
  2
STYLE
 70
     1
  0
STYLE
  2
STANDARD
 70
     0
 40
0.0
 41
0.8
 50
0.0
 71
     0
 42
0.2
  3
txt
  4

  0
ENDTAB
  0
TABLE
  2
VIEW
 70
     0
  0
ENDTAB
  0
TABLE
  2
UCS
 70
     0
  0
ENDTAB
  0
TABLE
  2
APPID
 70
     9
  0
APPID
  2
ACAD
 70
     0
  0
APPID
  2
ACAD_MLEADERVER
 70
     0
  0
APPID
  2
ACAD_EXEMPT_FROM_CAD_STANDARDS
 70
     0
  0
APPID
  2
ACAD_DSTYLE_DIMJAG
 70
     0
  0
APPID
  2
ACAD_DSTYLE_DIMTALN
 70
     0
  0
APPID
  2
ACAD_NAV_VCDISPLAY
 70
     0
  0
APPID
  2
ACAECLAYERSTANDARD
 70
     0
  0
APPID
  2
ACCMTRANSPARENCY
 70
     0
  0
APPID
  2
ACDBATTR
 70
     0
  0
ENDTAB
  0
TABLE
  2
DIMSTYLE
 70
     1
  0
DIMSTYLE
  2
STANDARD
 70
     0
  3

  4

  5

  6

  7

 40
1.0
 41
0.1875
 42
0.0625
 43
0.38
 44
0.125
 45
0.0
 46
0.0
 47
0.01
 48
0.01
140
0.15625
141
0.09
142
0.0
143
25.3999999999999986
144
1.0
145
0.0
146
1.0
147
0.09
 71
     1
 72
     0
 73
     1
 74
     1
 75
     0
 76
     0
 77
     0
 78
     4
170
     0
171
     2
172
     0
173
     0
174
     0
175
     0
176
     0
177
     0
178
     0
  0
ENDTAB
  0
ENDSEC
  0
SECTION
  2
BLOCKS
  0
BLOCK
  8
0
  2
$MODEL_SPACE
 70
     0
 10
0.0
 20
0.0
 30
0.0
  3
$MODEL_SPACE
  1

  0
ENDBLK
  5
21
  8
0
  0
BLOCK
 67
     1
  8
0
  2
$PAPER_SPACE
 70
     0
 10
0.0
 20
0.0
 30
0.0
  3
$PAPER_SPACE
  1

  0
ENDBLK
  5
1D
 67
     1
  8
0
  0
BLOCK
  8
0
  2
_FILLED
 70
     0
 10
0.0
 20
0.0
 30
0.0
  3
_FILLED
  1

  0
SOLID
  5
69C2
  8
0
  6
BYBLOCK
 62
     0
 10
0.0
 20
0.0
 30
0.0
 11
-1.0
 21
0.1666666667
 31
0.0
 12
-1.0
 22
-0.1666666667
 32
0.0
 13
-1.0
 23
-0.1666666667
 33
0.0
  0
ENDBLK
  5
69C3
  8
0
  6
BYBLOCK
 62
     0
  0
ENDSEC
  0
SECTION
  2
ENTITIES
  0
ATTDEF
  5
6869
  8
DEFPOINTS
 10
95.7463302541848265
 20
-86.2416178078283338
 30
0.0
 40
0.001
  1
K-18572W
  3

  2
MODELNUMBER
 70
     0
1001
ACDBATTR
1070
     0
1070
     1
  0
ATTDEF
  5
686A
  8
DEFPOINTS
 10
95.7463302541848265
 20
-86.2432844744949847
 30
0.0
 40
0.001
  1
REACH
  3

  2
TRADENAME
 70
     0
1001
ACDBATTR
1070
     0
1070
     1
  0
ATTDEF
  5
686B
  8
DEFPOINTS
 10
95.7463302541848265
 20
-86.2449511411616356
 30
0.0
 40
0.001
  1
BATHROOM SINK
  3

  2
PRODUCT
 70
     0
1001
ACDBATTR
1070
     0
1070
     1
  0
ARC
  5
6B3D
  8
0
 10
82.2842724710412057
 20
-79.155820884453334
 30
0.0
 40
0.3121162214525908
 50
89.9760276719652126
 51
178.9470682543451971
  0
LINE
  5
6B3E
  8
0
 10
81.9722089518556629
 20
-79.1500854082419778
 30
0.0
 11
82.0085960992037144
 21
-81.2478454739326281
 31
0.0
  0
ARC
  5
6B3F
  8
0
 10
82.1660528535181385
 20
-81.245121303732077
 30
0.0
 40
0.1574803180797913
 50
180.9911793578640129
 51
269.9999267037730988
  0
LINE
  5
6B40
  8
0
 10
82.1660526520597898
 20
-81.4026016218117405
 30
0.0
 11
109.3262403806096046
 21
-81.4026047265633537
 31
0.0
  0
LINE
  5
6B41
  8
0
 10
83.8384926353597848
 20
-81.4026016218117405
 30
0.0
 11
84.0389726081737081
 21
-85.2419036665020684
 31
0.0
  0
ARC
  5
6B42
  8
0
 10
84.2010751193508753
 20
-84.5511518084882994
 30
0.0
 40
0.1979056921802726
 50
183.3176741495337012
 51
269.8947063526845795
  0
LINE
  5
6B43
  8
0
 10
84.2007114241432646
 20
-84.7490571664833539
 30
0.0
 11
107.2916336516041014
 21
-84.7490571664833539
 31
0.0
  0
ARC
  5
6B44
  8
0
 10
93.9832936907102834
 20
-85.1278432876314639
 30
0.0
 40
0.3790283707362134
 50
66.5644684677384362
 51
87.9532718450664106
  0
ARC
  5
6B45
  8
0
 10
94.0388046326612823
 20
-84.9523960966679539
 30
0.0
 40
0.1968806276564813
 50
10.2373901567969696
 51
61.0713658887776418
  0
LINE
  5
6B46
  8
0
 10
94.2325508884791105
 20
-84.9174050992117486
 30
0.0
 11
94.4437184833418968
 21
-86.1149873540080932
 31
0.0
  0
ARC
  5
6B47
  8
0
 10
94.598806284579112
 20
-86.0876409919117549
 30
0.0
 40
0.1574803150000009
 50
190.0000710723641077
 51
269.9999999999992042
  0
LINE
  5
6B48
  8
0
 10
94.598806284579112
 20
-86.2451213069117415
 30
0.0
 11
96.8935385337659341
 21
-86.2451213069117415
 31
0.0
  0
ARC
  5
6B49
  8
0
 10
82.8185601256996762
 20
765.6238974381619755
 30
0.0
 40
844.4677710655389546
 50
269.9637583000856011
 51
270.8771519643651118
  0
ARC
  5
6B4A
  8
0
 10
109.2079934360321971
 20
-79.1558872889730623
 30
0.0
 40
0.3121826157981562
 50
1.0648972802233561
 51
90.0189887900825738
  0
LINE
  5
6B4B
  8
0
 10
109.5201221335057937
 20
-79.1500854082419778
 30
0.0
 11
109.4836969334658932
 21
-81.2478454739326281
 31
0.0
  0
ARC
  5
6B4C
  8
0
 10
109.326234805450099
 20
-81.2451189957447752
 30
0.0
 40
0.1574857309172673
 50
270.002028330456028
 51
359.0080149049592251
  0
LINE
  5
6B4D
  8
0
 10
107.6538003973097943
 20
-81.4026016218117405
 30
0.0
 11
107.4533724676737023
 21
-85.2419036665020684
 31
0.0
  0
ARC
  5
6B4E
  8
0
 10
107.2911864123652066
 20
-84.5510731907591406
 30
0.0
 40
0.1979844808728741
 50
270.1294290466793768
 51
356.6602135027446252
  0
ARC
  5
6B4F
  8
0
 10
97.5090511276347769
 20
-85.1278432876314639
 30
0.0
 40
0.379028370736213
 50
92.0467281549327652
 51
113.4355315322607964
  0
ARC
  5
6B50
  8
0
 10
97.4535401856837638
 20
-84.9523960966679539
 30
0.0
 40
0.1968806276564813
 50
118.9286341112227063
 51
169.7626098432029949
  0
LINE
  5
6B51
  8
0
 10
97.2597939298659355
 20
-84.9174050992117486
 30
0.0
 11
97.0486263350031635
 21
-86.1149873540080932
 31
0.0
  0
ARC
  5
6B52
  8
0
 10
96.8935385337659341
 20
-86.0876409919117549
 30
0.0
 40
0.1574803150000009
 50
270.0000000000007958
 51
349.9999289276360059
  0
ARC
  5
6B53
  8
0
 10
108.6737347544003995
 20
765.6173387700617923
 30
0.0
 40
844.4612123975820168
 50
269.1228446286554004
 51
270.0362418560465017
  0
ARC
  5
6B54
  8
0
 10
84.1548123794219975
 20
-85.236694360776653
 30
0.0
 40
0.1159568430600346
 50
182.5748521187657047
 51
268.9580564423062015
  0
ARC
  5
6B55
  8
0
 10
85.1871612556932263
 20
-85.2678768842919794
 30
0.0
 40
0.084858385809074
 50
272.8265549429734165
 51
303.5410662341781745
  0
LINE
  5
6B56
  8
0
 10
85.2340484434737107
 20
-85.3386055013020552
 30
0.0
 11
86.2726188338942137
 21
-84.7490571664833539
 31
0.0
  0
ARC
  5
6B57
  8
0
 10
107.3375555875265945
 20
-85.2367050035313554
 30
0.0
 40
0.1159332401038562
 50
270.5931857953777921
 51
357.4298884121431001
  0
ARC
  5
6B58
  8
0
 10
106.3109894687487014
 20
-85.2550520369674985
 30
0.0
 40
0.0987812914709786
 50
237.7623696017298869
 51
261.055279847260806
  0
LINE
  5
6B59
  8
0
 10
106.258296374871307
 20
-85.3386055013020552
 30
0.0
 11
105.219725206471594
 21
-84.7490567248605515
 31
0.0
  0
LINE
  5
6B5B
  8
0
 10
85.1913458503215253
 20
-85.352632030506939
 30
0.0
 11
84.1527037803703024
 21
-85.352632030506939
 31
0.0
  0
LINE
  5
6B5C
  8
0
 10
106.295630809773499
 20
-85.352632030506939
 30
0.0
 11
107.338755828160501
 21
-85.352632030506939
 31
0.0
  0
ENDSEC
  0
EOF
