  0
SECTION
  2
HEADER
  9
$ACADVER
  1
AC1009
  9
$INSBASE
 10
4789.5263552071637605
 20
533.345742943480559
 30
0.0
  9
$EXTMIN
 10
4787.3019457583131953
 20
530.089135536370236
 30
0.0
  9
$EXTMAX
 10
4791.7507646560134162
 20
533.3500825340950087
 30
0.0
  9
$LIMMIN
 10
0.0
 20
0.0
  9
$LIMMAX
 10
11.6929133858000007
 20
8.2677165353999982
  9
$ORTHOMODE
 70
     0
  9
$REGENMODE
 70
     1
  9
$FILLMODE
 70
     1
  9
$QTEXTMODE
 70
     0
  9
$MIRRTEXT
 70
     0
  9
$DRAGMODE
 70
     2
  9
$LTSCALE
 40
0.6431102362
  9
$OSMODE
 70
  4095
  9
$ATTMODE
 70
     1
  9
$TEXTSIZE
 40
0.2
  9
$TRACEWID
 40
0.05
  9
$TEXTSTYLE
  7
STANDARD
  9
$CLAYER
  8
0
  9
$CELTYPE
  6
BYLAYER
  9
$CECOLOR
 62
   256
  9
$DIMSCALE
 40
1.0
  9
$DIMASZ
 40
0.1875
  9
$DIMEXO
 40
0.0625
  9
$DIMDLI
 40
0.4443307087
  9
$DIMRND
 40
0.0
  9
$DIMDLE
 40
0.0
  9
$DIMEXE
 40
0.125
  9
$DIMTP
 40
0.01
  9
$DIMTM
 40
0.01
  9
$DIMTXT
 40
2.0
  9
$DIMCEN
 40
0.1052362205
  9
$DIMTSZ
 40
0.0
  9
$DIMTOL
 70
     1
  9
$DIMLIM
 70
     0
  9
$DIMTIH
 70
     1
  9
$DIMTOH
 70
     1
  9
$DIMSE1
 70
     0
  9
$DIMSE2
 70
     0
  9
$DIMTAD
 70
     0
  9
$DIMZIN
 70
     0
  9
$DIMBLK
  1

  9
$DIMASO
 70
     1
  9
$DIMSHO
 70
     1
  9
$DIMPOST
  1
\X
  9
$DIMAPOST
  1

  9
$DIMALT
 70
     1
  9
$DIMALTD
 70
     2
  9
$DIMALTF
 40
25.3999999999999986
  9
$DIMLFAC
 40
1.0
  9
$DIMTOFL
 70
     0
  9
$DIMTVP
 40
0.0
  9
$DIMTIX
 70
     0
  9
$DIMSOXD
 70
     0
  9
$DIMSAH
 70
     0
  9
$DIMBLK1
  1

  9
$DIMBLK2
  1

  9
$DIMSTYLE
  2
STANDARD
  9
$DIMCLRD
 70
     0
  9
$DIMCLRE
 70
     0
  9
$DIMCLRT
 70
     0
  9
$DIMTFAC
 40
1.0
  9
$DIMGAP
 40
0.09
  9
$LUNITS
 70
     2
  9
$LUPREC
 70
     4
  9
$SKETCHINC
 40
0.1
  9
$FILLETRAD
 40
0.0
  9
$AUNITS
 70
     0
  9
$AUPREC
 70
     0
  9
$MENU
  1
.
  9
$ELEVATION
 40
0.0
  9
$PELEVATION
 40
0.0
  9
$THICKNESS
 40
0.0
  9
$LIMCHECK
 70
     0
  9
$BLIPMODE
 70
     0
  9
$CHAMFERA
 40
0.0
  9
$CHAMFERB
 40
0.0
  9
$SKPOLY
 70
     0
  9
$TDCREATE
 40
2458060.468368056230247
  9
$TDUPDATE
 40
2459383.575509259942919
  9
$TDINDWG
 40
1.6299737730999999
  9
$TDUSRTIMER
 40
1.6299737730999999
  9
$USRTIMER
 70
     1
  9
$ANGBASE
 50
0.0
  9
$ANGDIR
 70
     0
  9
$PDMODE
 70
     0
  9
$PDSIZE
 40
0.3125
  9
$PLINEWID
 40
0.0
  9
$COORDS
 70
     1
  9
$SPLFRAME
 70
     0
  9
$SPLINETYPE
 70
     6
  9
$SPLINESEGS
 70
     8
  9
$ATTDIA
 70
     1
  9
$ATTREQ
 70
     1
  9
$HANDLING
 70
     1
  9
$HANDSEED
  5
1E5DC
  9
$SURFTAB1
 70
     6
  9
$SURFTAB2
 70
     6
  9
$SURFTYPE
 70
     6
  9
$SURFU
 70
     6
  9
$SURFV
 70
     6
  9
$UCSNAME
  2

  9
$UCSORG
 10
0.0
 20
0.0
 30
0.0
  9
$UCSXDIR
 10
1.0
 20
0.0
 30
0.0
  9
$UCSYDIR
 10
0.0
 20
1.0
 30
0.0
  9
$PUCSNAME
  2

  9
$PUCSORG
 10
0.0
 20
0.0
 30
0.0
  9
$PUCSXDIR
 10
1.0
 20
0.0
 30
0.0
  9
$PUCSYDIR
 10
0.0
 20
1.0
 30
0.0
  9
$USERI1
 70
     0
  9
$USERI2
 70
     0
  9
$USERI3
 70
     0
  9
$USERI4
 70
     0
  9
$USERI5
 70
     0
  9
$USERR1
 40
0.0
  9
$USERR2
 40
0.0
  9
$USERR3
 40
0.0
  9
$USERR4
 40
0.0
  9
$USERR5
 40
0.0
  9
$WORLDVIEW
 70
     1
  9
$SHADEDGE
 70
     3
  9
$SHADEDIF
 70
    70
  9
$TILEMODE
 70
     1
  9
$MAXACTVP
 70
    64
  9
$PLIMCHECK
 70
     0
  9
$PEXTMIN
 10
1.0000000000000000E+20
 20
1.0000000000000000E+20
 30
1.0000000000000000E+20
  9
$PEXTMAX
 10
-1.0000000000000000E+20
 20
-1.0000000000000000E+20
 30
-1.0000000000000000E+20
  9
$PLIMMIN
 10
0.0
 20
0.0
  9
$PLIMMAX
 10
12.0
 20
9.0
  9
$UNITMODE
 70
     0
  9
$VISRETAIN
 70
     1
  9
$PLINEGEN
 70
     0
  9
$PSLTSCALE
 70
     1
  0
ENDSEC
  0
SECTION
  2
TABLES
  0
TABLE
  2
VPORT
 70
     1
  0
VPORT
  2
*ACTIVE
 70
     0
 10
0.0
 20
0.0
 11
1.0
 21
1.0
 12
878.1609987618506921
 22
399.140003932693503
 13
0.0
 23
0.0
 14
1.0
 24
1.0
 15
0.0
 25
0.0
 16
0.0
 26
0.0
 36
60.4960186965801583
 17
3911.3653564453120453
 27
132.5796051025390057
 37
0.0
 40
3.2877493018156652
 41
2.6159122085048012
 42
50.0
 43
0.0
 44
0.0
 50
0.0
 51
0.0
 71
     0
 72
   100
 73
     1
 74
     1
 75
     0
 76
     0
 77
     0
 78
     0
  0
ENDTAB
  0
TABLE
  2
LTYPE
 70
     2
  0
LTYPE
  2
CONTINUOUS
 70
     0
  3
Solid line
 72
    65
 73
     0
 40
0.0
  0
LTYPE
  2
PHANTOM2
 70
     0
  3
___ _ _ ___ _ _ ___ _ _ ___ _ _
 72
    65
 73
     6
 40
1.25
 49
0.625
 49
-0.125
 49
0.125
 49
-0.125
 49
0.125
 49
-0.125
  0
ENDTAB
  0
TABLE
  2
LAYER
 70
     2
  0
LAYER
  2
0
 70
     0
 62
   255
  6
CONTINUOUS
  0
LAYER
  2
DEFPOINTS
 70
     0
 62
     7
  6
CONTINUOUS
  0
ENDTAB
  0
TABLE
  2
STYLE
 70
     1
  0
STYLE
  2
STANDARD
 70
     0
 40
0.0
 41
0.8
 50
0.0
 71
     0
 42
0.2
  3
txt
  4

  0
ENDTAB
  0
TABLE
  2
VIEW
 70
     0
  0
ENDTAB
  0
TABLE
  2
UCS
 70
     0
  0
ENDTAB
  0
TABLE
  2
APPID
 70
    11
  0
APPID
  2
ACAD
 70
     0
  0
APPID
  2
ACAD_MLEADERVER
 70
     0
  0
APPID
  2
ACAD_EXEMPT_FROM_CAD_STANDARDS
 70
     0
  0
APPID
  2
ACAD_NAV_VCDISPLAY
 70
     0
  0
APPID
  2
ACAECLAYERSTANDARD
 70
     0
  0
APPID
  2
ACCMTRANSPARENCY
 70
     0
  0
APPID
  2
ACAD_DSTYLE_DIMJAG
 70
     0
  0
APPID
  2
ACAD_DSTYLE_DIMTALN
 70
     0
  0
APPID
  2
ACDBATTR
 70
     0
  0
APPID
  2
ACADANNOTATIVE
 70
     0
  0
APPID
  2
DCO15
 70
     0
  0
ENDTAB
  0
TABLE
  2
DIMSTYLE
 70
     1
  0
DIMSTYLE
  2
STANDARD
 70
     0
  3

  4

  5

  6

  7

 40
1.0
 41
0.1875
 42
0.0625
 43
0.38
 44
0.125
 45
0.0
 46
0.0
 47
0.01
 48
0.01
140
0.15625
141
0.09
142
0.0
143
25.3999999999999986
144
1.0
145
0.0
146
1.0
147
0.09
 71
     1
 72
     0
 73
     1
 74
     1
 75
     0
 76
     0
 77
     0
 78
     4
170
     0
171
     2
172
     0
173
     0
174
     0
175
     0
176
     0
177
     0
178
     0
  0
ENDTAB
  0
ENDSEC
  0
SECTION
  2
BLOCKS
  0
BLOCK
  8
0
  2
$MODEL_SPACE
 70
     0
 10
0.0
 20
0.0
 30
0.0
  3
$MODEL_SPACE
  1

  0
ENDBLK
  5
21
  8
0
  0
BLOCK
 67
     1
  8
0
  2
$PAPER_SPACE
 70
     0
 10
0.0
 20
0.0
 30
0.0
  3
$PAPER_SPACE
  1

  0
ENDBLK
  5
1D
 67
     1
  8
0
  0
ENDSEC
  0
SECTION
  2
ENTITIES
  0
ATTDEF
  5
159BF
  8
DEFPOINTS
 10
4789.5263657244140632
 20
533.3490825340945776
 30
0.0
 40
0.001
  1
K-18470IN-4FP
  3

  2
MODELNUMBER
 70
     0
1001
ACDBATTR
1070
     0
1070
     1
  0
ATTDEF
  5
159C0
  8
DEFPOINTS
 10
4789.5263657244140632
 20
533.3474156937154476
 30
0.0
 40
0.001
  1
SYMBOL
  3

  2
TRADENAME
 70
     0
1001
ACDBATTR
1070
     0
1070
     1
  0
ATTDEF
  5
159C1
  8
DEFPOINTS
 10
4789.5263657244140632
 20
533.3457492007612473
 30
0.0
 40
0.001
  1
VALVE TRIM
  3

  2
PRODUCT
 70
     0
1001
ACDBATTR
1070
     0
1070
     1
  0
LINE
  5
1E385
  8
0
 10
4791.7507646560134162
 20
533.345742943480559
 30
0.0
 11
4787.3019457583131953
 21
533.345742943480559
 31
0.0
  0
LINE
  5
1E386
  8
0
 10
4787.335379545313117
 20
532.9635930102805332
 30
0.0
 11
4787.3019457583131953
 21
533.345742943480559
 31
0.0
  0
LINE
  5
1E387
  8
0
 10
4791.7173805266138515
 20
532.9641596986805325
 30
0.0
 11
4791.7507646560134162
 21
533.345742943480559
 31
0.0
  0
ARC
  5
1E389
  8
0
 10
4787.3549817397088191
 20
532.9652290818346501
 30
0.0
 40
0.0196703521894382
 50
184.771059213794814
 51
262.9813005024420249
  0
ARC
  5
1E38A
  8
0
 10
4789.5243122153196964
 20
550.5195024806273523
 30
0.0
 40
17.7074771466964584
 50
262.9552205334871928
 51
266.8840421093967734
  0
LINE
  5
1E38B
  8
0
 10
4788.5617882780143191
 20
532.8576825272127735
 30
0.0
 11
4788.5617882780143191
 21
532.1685775891803587
 31
0.0
  0
LINE
  5
1E38C
  8
0
 10
4788.5735993016132852
 20
532.1567665655804831
 30
0.0
 11
4790.4791111127133263
 21
532.1567665655804831
 31
0.0
  0
LINE
  5
1E38D
  8
0
 10
4788.6573301354128489
 20
532.0387378708803681
 30
0.0
 11
4790.3953802789146721
 21
532.0387378708803681
 31
0.0
  0
LINE
  5
1E38E
  8
0
 10
4790.418077159335553
 20
532.0150362538805666
 30
0.0
 11
4790.342573629929575
 21
532.0150362538805666
 31
0.0
  0
LINE
  5
1E38F
  8
0
 10
4788.7101367843970365
 20
532.0150362538805666
 30
0.0
 11
4788.634633254991968
 21
532.0150362538805666
 31
0.0
  0
LINE
  5
1E390
  8
0
 10
4788.5814733174129287
 20
532.1567665655804831
 30
0.0
 11
4788.5821845115133328
 21
532.1160222815803991
 31
0.0
  0
ARC
  5
1E391
  8
0
 10
4788.6609126773191747
 20
532.1173964872284614
 30
0.0
 40
0.0787401583201655
 50
181.000000292556706
 51
267.3922402356317889
  0
ARC
  5
1E392
  8
0
 10
4788.6537475951363376
 20
531.9600792561708431
 30
0.0
 40
0.0787401566094995
 50
3.427237821150952
 51
87.3922413659263242
  0
ARC
  5
1E393
  8
0
 10
4789.5969395828096822
 20
532.0165651691803532
 30
0.0
 40
0.866141732297275
 50
183.4272381283967945
 51
186.7837251131242056
  0
ARC
  5
1E394
  8
0
 10
4789.5263552071637605
 20
533.4555892091052556
 30
0.0
 40
1.8360288764259509
 50
252.3319144670182936
 51
287.6680855329817064
  0
ARC
  5
1E395
  8
0
 10
4789.2030786189343416
 20
532.3949219039390073
 30
0.0
 40
0.7274098865779669
 50
230.2642598623586139
 51
251.2379980921380138
  0
ARC
  5
1E396
  8
0
 10
4788.9288786715897004
 20
532.0650653501727447
 30
0.0
 40
0.2984682155011514
 50
189.6494411306107963
 51
230.2642598623586139
  0
ARC
  5
1E397
  8
0
 10
4781.7804787283830592
 20
531.0244195454230294
 30
0.0
 40
6.9253704404677414
 50
4.4827026725443666
 51
8.2238943339098132
  0
ARC
  5
1E398
  8
0
 10
4876.1350377550570556
 20
539.7506117014133906
 30
0.0
 40
87.8325720070926792
 50
185.3470217468021133
 51
185.8836385644667075
  0
ARC
  5
1E399
  8
0
 10
4773.8067159530619392
 20
529.2487856096804535
 30
0.0
 40
15.0332853298526299
 50
4.9114417494322611
 51
5.7196880312441118
  0
ARC
  5
1E39A
  8
0
 10
4791.0594304611822736
 20
530.7205799336328482
 30
0.0
 40
2.2821151253253391
 50
184.6423938490285082
 51
190.0249512480648093
  0
ARC
  5
1E39B
  8
0
 10
4789.5263552071637605
 20
509.9345483597446105
 30
0.0
 40
20.4754097360358109
 50
88.741335167901795
 51
91.2586648320982192
  0
ARC
  5
1E39C
  8
0
 10
4789.1271915521883784
 20
529.1911074674213751
 30
0.0
 40
1.214964419411005
 50
92.3869434763738155
 51
99.6803401182669546
  0
ARC
  5
1E39D
  8
0
 10
4788.9790223201962363
 20
530.0597276788506633
 30
0.0
 40
0.3337974698421954
 50
99.6803401182669546
 51
114.7357983268890962
  0
ARC
  5
1E39E
  8
0
 10
4788.8723369435701898
 20
530.2958291574476561
 30
0.0
 40
0.0747422352837165
 50
116.1896702651688003
 51
139.94788625143849
  0
ARC
  5
1E39F
  8
0
 10
4788.8455606115221599
 20
530.3290262166048024
 30
0.0
 40
0.0338865889014256
 50
153.9181801000437986
 51
189.7009746275089128
  0
ARC
  5
1E3A0
  8
0
 10
4788.9012857335856097
 20
530.3370646266307631
 30
0.0
 40
0.0901813224564058
 50
188.7691696845249965
 51
230.2395001835108133
  0
ARC
  5
1E3A1
  8
0
 10
4788.6726596861271901
 20
530.0818222847748302
 30
0.0
 40
0.2525640222160782
 50
37.1732856641381204
 51
47.4020432416372586
  0
ARC
  5
1E3A2
  8
0
 10
4788.8143766613547996
 20
530.1950599494225571
 30
0.0
 40
0.0713693278601695
 50
23.5235646706997485
 51
33.4779880498303584
  0
ARC
  5
1E3A3
  8
0
 10
4781.384200916509144
 20
526.9096617194055625
 30
0.0
 40
8.1954898379932875
 50
23.3737786994566896
 51
23.8506861975694413
  0
ARC
  5
1E3A4
  8
0
 10
4789.2040139067521523
 20
530.282707052085243
 30
0.0
 40
0.3208391601175376
 50
202.2849362727353082
 51
213.1972813181810977
  0
ARC
  5
1E3A5
  8
0
 10
4788.983174379924094
 20
530.1382086806823963
 30
0.0
 40
0.0569265307360036
 50
213.1972813181837978
 51
226.9371721482044961
  0
ARC
  5
1E3A6
  8
0
 10
4788.964750633008407
 20
530.1205330205591508
 30
0.0
 40
0.0314636521157408
 50
229.4720322453208894
 51
255.2966806792674959
  0
ARC
  5
1E3A7
  8
0
 10
4788.9682424442107731
 20
530.1579344627125465
 30
0.0
 40
0.0687989263422644
 50
260.3964396341601741
 51
279.6035603658912123
  0
ARC
  5
1E3A8
  8
0
 10
4789.5263552071637605
 20
528.8554613733816723
 30
0.0
 40
1.317955596198698
 50
80.9345853290883639
 51
99.0654146709116645
  0
ARC
  5
1E3A9
  8
0
 10
4789.7063570232248821
 20
527.7827351735355705
 30
0.0
 40
2.4056597726678741
 50
99.2733986052616473
 51
102.8060190802648037
  0
ARC
  5
1E3AA
  8
0
 10
4788.5964790867783449
 20
532.5232479155666852
 30
0.0
 40
2.4631451302131868
 50
278.9510237442107723
 51
283.5395078890143736
  0
ARC
  5
1E3AB
  8
0
 10
4789.5263552072137827
 20
533.3188306765522384
 30
0.0
 40
1.6549711043634521
 50
251.3783028757250122
 51
288.6216971242749878
  0
ARC
  5
1E3AC
  8
0
 10
4789.2669737940386767
 20
532.4992442789615552
 30
0.0
 40
0.7956258775224536
 50
235.2397475936326998
 51
250.2327309607636039
  0
ARC
  5
1E3AD
  8
0
 10
4788.9955803716366063
 20
532.1255728310053428
 30
0.0
 40
0.3340519118163059
 50
199.3231927251794957
 51
236.9406697209932133
  0
ARC
  5
1E3AE
  8
0
 10
4788.5735993016132852
 20
532.1685775891805861
 30
0.0
 40
0.011811023600008
 50
180.0000000000422915
 51
269.9999999999478746
  0
LINE
  5
1E3AF
  8
0
 10
4791.717330869014404
 20
532.9635930102805332
 30
0.0
 11
4791.7507646560134162
 21
533.345742943480559
 31
0.0
  0
ARC
  5
1E3B0
  8
0
 10
4791.6977286746177924
 20
532.9652290818346501
 30
0.0
 40
0.0196703521894382
 50
277.0186994975579751
 51
355.2289407862052144
  0
ARC
  5
1E3B1
  8
0
 10
4789.5283981990050961
 20
550.5195024806273523
 30
0.0
 40
17.7074771466964584
 50
273.1159578906032266
 51
277.0447794665126935
  0
LINE
  5
1E3B2
  8
0
 10
4790.4712370969127733
 20
532.1567665655804831
 30
0.0
 11
4790.4705259028132787
 21
532.1160222815803991
 31
0.0
  0
ARC
  5
1E3B3
  8
0
 10
4790.3917977370083463
 20
532.1173964872284614
 30
0.0
 40
0.0787401583201655
 50
272.6077597643682111
 51
358.9999997074431803
  0
ARC
  5
1E3B4
  8
0
 10
4790.3989628191920929
 20
531.9600792561708431
 30
0.0
 40
0.0787401566094995
 50
92.60775863407369
 51
176.5727621788489898
  0
ARC
  5
1E3B5
  8
0
 10
4789.4557708315160198
 20
532.0165651691803532
 30
0.0
 40
0.866141732297275
 50
353.2162748868757944
 51
356.5727618716031202
  0
ARC
  5
1E3B6
  8
0
 10
4789.8496317953940888
 20
532.3949219039390073
 30
0.0
 40
0.7274098865779669
 50
288.7620019078619862
 51
309.7357401376414145
  0
ARC
  5
1E3B7
  8
0
 10
4790.1238317427378206
 20
532.0650653501727447
 30
0.0
 40
0.2984682155011514
 50
309.7357401376414145
 51
350.3505588693892037
  0
ARC
  5
1E3B8
  8
0
 10
4797.2722316859426428
 20
531.0244195454230294
 30
0.0
 40
6.9253704404677414
 50
171.7761056660901886
 51
175.5172973274555943
  0
ARC
  5
1E3B9
  8
0
 10
4702.9176726592686464
 20
539.7506117014133906
 30
0.0
 40
87.8325720070926792
 50
354.1163614355331788
 51
354.6529782531978867
  0
ARC
  5
1E3BA
  8
0
 10
4805.2459944612655818
 20
529.2487856096804535
 30
0.0
 40
15.0332853298526299
 50
174.2803119687559104
 51
175.0885582505677007
  0
ARC
  5
1E3BB
  8
0
 10
4787.9932799531452474
 20
530.7205799336328482
 30
0.0
 40
2.2821151253253391
 50
349.9750487519351054
 51
355.3576061509713782
  0
ARC
  5
1E3BC
  8
0
 10
4789.9255188621400521
 20
529.1911074674213751
 30
0.0
 40
1.214964419411005
 50
80.3196598817330596
 51
87.6130565236261702
  0
ARC
  5
1E3BD
  8
0
 10
4790.0736880941303752
 20
530.0597276788506633
 30
0.0
 40
0.3337974698421954
 50
65.2642016731109038
 51
80.3196598817330596
  0
ARC
  5
1E3BE
  8
0
 10
4790.1803734707573312
 20
530.2958291574476561
 30
0.0
 40
0.0747422352837165
 50
40.05211374856151
 51
63.8103297348311713
  0
ARC
  5
1E3BF
  8
0
 10
4790.2071498028044516
 20
530.3290262166048024
 30
0.0
 40
0.0338865889014256
 50
350.2990253724909735
 51
26.0818198999561304
  0
ARC
  5
1E3C0
  8
0
 10
4790.1514246807410018
 20
530.3370646266307631
 30
0.0
 40
0.0901813224564058
 50
309.7604998164891867
 51
351.2308303154749751
  0
ARC
  5
1E3C1
  8
0
 10
4790.3800507281994214
 20
530.0818222847748302
 30
0.0
 40
0.2525640222160782
 50
132.5979567583626988
 51
142.826714335861908
  0
ARC
  5
1E3C2
  8
0
 10
4790.2383337529709024
 20
530.1950599494225571
 30
0.0
 40
0.0713693278601695
 50
146.522011950169599
 51
156.4764353293001875
  0
ARC
  5
1E3C3
  8
0
 10
4797.668509497818377
 20
526.9096617194055625
 30
0.0
 40
8.1954898379932875
 50
156.149313802430612
 51
156.6262213005433068
  0
ARC
  5
1E3C4
  8
0
 10
4789.8486965075753687
 20
530.282707052085243
 30
0.0
 40
0.3208391601175376
 50
326.8027186818188738
 51
337.7150637272616791
  0
ARC
  5
1E3C5
  8
0
 10
4790.0695360344006986
 20
530.1382086806823963
 30
0.0
 40
0.0569265307360036
 50
313.0628278517954755
 51
326.8027186818162022
  0
ARC
  5
1E3C6
  8
0
 10
4790.087959781319114
 20
530.1205330205591508
 30
0.0
 40
0.0314636521157408
 50
284.7033193207836916
 51
310.5279677546790822
  0
ARC
  5
1E3C7
  8
0
 10
4790.0844679701158384
 20
530.1579344627125465
 30
0.0
 40
0.068798926342234
 50
260.3964396341082761
 51
279.6035603658398259
  0
ARC
  5
1E3C8
  8
0
 10
4789.3463533911017294
 20
527.7827351735355705
 30
0.0
 40
2.4056597726678741
 50
77.1939809197351536
 51
80.7266013947383527
  0
ARC
  5
1E3C9
  8
0
 10
4790.4562313275482666
 20
532.5232479155666852
 30
0.0
 40
2.4631451302131868
 50
256.4604921109856264
 51
261.0489762557892277
  0
ARC
  5
1E3CA
  8
0
 10
4789.7857366202870253
 20
532.4992442789615552
 30
0.0
 40
0.7956258775224536
 50
289.7672690392365098
 51
304.7602524063672149
  0
ARC
  5
1E3CB
  8
0
 10
4790.0571300426900052
 20
532.1255728310053428
 30
0.0
 40
0.3340519118163059
 50
303.0593302790068719
 51
340.6768072748204759
  0
ARC
  5
1E3CC
  8
0
 10
4790.4791111127133263
 20
532.1685775891805861
 30
0.0
 40
0.0118110236000089
 50
270.0000000000521254
 51
359.9999999999478746
  0
LINE
  5
1E3CD
  8
0
 10
4790.4909221363132019
 20
532.8576825272127735
 30
0.0
 11
4790.4909221363132019
 21
532.1685775891803587
 31
0.0
  0
ARC
  5
1E3CE
  8
0
 10
4789.5263552071637605
 20
484.7878152481131906
 30
0.0
 40
48.0795437747807881
 50
88.8504607646900411
 51
91.1495392353099874
  0
ARC
  5
1E3CF
  8
0
 10
4788.5887772699043126
 20
533.1560586516561671
 30
0.0
 40
0.3134955358917968
 50
255.7410780590878971
 51
265.0612633815492245
  0
ARC
  5
1E3D0
  8
0
 10
4788.5760073959127112
 20
532.493230250128363
 30
0.0
 40
0.3647295512922205
 50
92.2342635874907302
 51
100.1772335616105067
  0
ARC
  5
1E3D1
  8
0
 10
4790.4639331444222989
 20
533.1560586516561671
 30
0.0
 40
0.3134955358917968
 50
274.9387366184507755
 51
284.2589219409119892
  0
ARC
  5
1E3D2
  8
0
 10
4790.4767030184139003
 20
532.493230250128363
 30
0.0
 40
0.3647295512922205
 50
79.8227664383894506
 51
87.765736412509284
  0
ARC
  5
1E3D3
  8
0
 10
4787.3545104783934221
 20
532.9710102168198773
 30
0.0
 40
0.0197045922506609
 50
185.0447150039252904
 51
269.1618235852603789
  0
ARC
  5
1E3D4
  8
0
 10
4791.6981999359340989
 20
532.9710102168198773
 30
0.0
 40
0.0197045922506609
 50
270.8381764147396211
 51
354.9552849960746244
  0
ARC
  5
1E3D5
  8
0
 10
4789.5263552069136495
 20
1181.6890712017839178
 30
0.0
 40
648.7413998753032729
 50
269.8081604093761143
 51
270.1918395906238857
  0
ENDSEC
  0
EOF
