  0
SECTION
  2
HEADER
  9
$ACADVER
  1
AC1009
  9
$INSBASE
 10
4786.3050003003872916
 20
531.65959368772576
 30
0.0
  9
$EXTMIN
 10
4784.0805908515367264
 20
528.3918771523259466
 30
0.0
  9
$EXTMAX
 10
4788.5294097492369474
 20
534.9273102231259145
 30
0.0
  9
$LIMMIN
 10
0.0
 20
0.0
  9
$LIMMAX
 10
11.6929133858000007
 20
8.2677165353999982
  9
$ORTHOMODE
 70
     0
  9
$REGENMODE
 70
     1
  9
$FILLMODE
 70
     1
  9
$QTEXTMODE
 70
     0
  9
$MIRRTEXT
 70
     0
  9
$DRAGMODE
 70
     2
  9
$LTSCALE
 40
0.6431102362
  9
$OSMODE
 70
  4095
  9
$ATTMODE
 70
     1
  9
$TEXTSIZE
 40
0.2
  9
$TRACEWID
 40
0.05
  9
$TEXTSTYLE
  7
STANDARD
  9
$CLAYER
  8
0
  9
$CELTYPE
  6
BYLAYER
  9
$CECOLOR
 62
   256
  9
$DIMSCALE
 40
1.0
  9
$DIMASZ
 40
0.1875
  9
$DIMEXO
 40
0.0625
  9
$DIMDLI
 40
0.4443307087
  9
$DIMRND
 40
0.0
  9
$DIMDLE
 40
0.0
  9
$DIMEXE
 40
0.125
  9
$DIMTP
 40
0.01
  9
$DIMTM
 40
0.01
  9
$DIMTXT
 40
2.0
  9
$DIMCEN
 40
0.1052362205
  9
$DIMTSZ
 40
0.0
  9
$DIMTOL
 70
     1
  9
$DIMLIM
 70
     0
  9
$DIMTIH
 70
     1
  9
$DIMTOH
 70
     1
  9
$DIMSE1
 70
     0
  9
$DIMSE2
 70
     0
  9
$DIMTAD
 70
     0
  9
$DIMZIN
 70
     0
  9
$DIMBLK
  1

  9
$DIMASO
 70
     1
  9
$DIMSHO
 70
     1
  9
$DIMPOST
  1
\X
  9
$DIMAPOST
  1

  9
$DIMALT
 70
     1
  9
$DIMALTD
 70
     2
  9
$DIMALTF
 40
25.3999999999999986
  9
$DIMLFAC
 40
1.0
  9
$DIMTOFL
 70
     0
  9
$DIMTVP
 40
0.0
  9
$DIMTIX
 70
     0
  9
$DIMSOXD
 70
     0
  9
$DIMSAH
 70
     0
  9
$DIMBLK1
  1

  9
$DIMBLK2
  1

  9
$DIMSTYLE
  2
STANDARD
  9
$DIMCLRD
 70
     0
  9
$DIMCLRE
 70
     0
  9
$DIMCLRT
 70
     0
  9
$DIMTFAC
 40
1.0
  9
$DIMGAP
 40
0.09
  9
$LUNITS
 70
     2
  9
$LUPREC
 70
     4
  9
$SKETCHINC
 40
0.1
  9
$FILLETRAD
 40
0.0
  9
$AUNITS
 70
     0
  9
$AUPREC
 70
     0
  9
$MENU
  1
.
  9
$ELEVATION
 40
0.0
  9
$PELEVATION
 40
0.0
  9
$THICKNESS
 40
0.0
  9
$LIMCHECK
 70
     0
  9
$BLIPMODE
 70
     0
  9
$CHAMFERA
 40
0.0
  9
$CHAMFERB
 40
0.0
  9
$SKPOLY
 70
     0
  9
$TDCREATE
 40
2458060.468368056230247
  9
$TDUPDATE
 40
2459383.5757291670888662
  9
$TDINDWG
 40
1.6283418287
  9
$TDUSRTIMER
 40
1.6283418287
  9
$USRTIMER
 70
     1
  9
$ANGBASE
 50
0.0
  9
$ANGDIR
 70
     0
  9
$PDMODE
 70
     0
  9
$PDSIZE
 40
0.3125
  9
$PLINEWID
 40
0.0
  9
$COORDS
 70
     1
  9
$SPLFRAME
 70
     0
  9
$SPLINETYPE
 70
     6
  9
$SPLINESEGS
 70
     8
  9
$ATTDIA
 70
     1
  9
$ATTREQ
 70
     1
  9
$HANDLING
 70
     1
  9
$HANDSEED
  5
1E48D
  9
$SURFTAB1
 70
     6
  9
$SURFTAB2
 70
     6
  9
$SURFTYPE
 70
     6
  9
$SURFU
 70
     6
  9
$SURFV
 70
     6
  9
$UCSNAME
  2

  9
$UCSORG
 10
0.0
 20
0.0
 30
0.0
  9
$UCSXDIR
 10
1.0
 20
0.0
 30
0.0
  9
$UCSYDIR
 10
0.0
 20
1.0
 30
0.0
  9
$PUCSNAME
  2

  9
$PUCSORG
 10
0.0
 20
0.0
 30
0.0
  9
$PUCSXDIR
 10
1.0
 20
0.0
 30
0.0
  9
$PUCSYDIR
 10
0.0
 20
1.0
 30
0.0
  9
$USERI1
 70
     0
  9
$USERI2
 70
     0
  9
$USERI3
 70
     0
  9
$USERI4
 70
     0
  9
$USERI5
 70
     0
  9
$USERR1
 40
0.0
  9
$USERR2
 40
0.0
  9
$USERR3
 40
0.0
  9
$USERR4
 40
0.0
  9
$USERR5
 40
0.0
  9
$WORLDVIEW
 70
     1
  9
$SHADEDGE
 70
     3
  9
$SHADEDIF
 70
    70
  9
$TILEMODE
 70
     1
  9
$MAXACTVP
 70
    64
  9
$PLIMCHECK
 70
     0
  9
$PEXTMIN
 10
1.0000000000000000E+20
 20
1.0000000000000000E+20
 30
1.0000000000000000E+20
  9
$PEXTMAX
 10
-1.0000000000000000E+20
 20
-1.0000000000000000E+20
 30
-1.0000000000000000E+20
  9
$PLIMMIN
 10
0.0
 20
0.0
  9
$PLIMMAX
 10
12.0
 20
9.0
  9
$UNITMODE
 70
     0
  9
$VISRETAIN
 70
     1
  9
$PLINEGEN
 70
     0
  9
$PSLTSCALE
 70
     1
  0
ENDSEC
  0
SECTION
  2
TABLES
  0
TABLE
  2
VPORT
 70
     1
  0
VPORT
  2
*ACTIVE
 70
     0
 10
0.0
 20
0.0
 11
1.0
 21
1.0
 12
874.9396438550752464
 22
399.0799885851869249
 13
0.0
 23
0.0
 14
1.0
 24
1.0
 15
0.0
 25
0.0
 16
0.0
 26
0.0
 36
60.4960186965801583
 17
3911.3653564453120453
 27
132.5796051025390057
 37
0.0
 40
6.5891489590530901
 41
2.6159122085048012
 42
50.0
 43
0.0
 44
0.0
 50
0.0
 51
0.0
 71
     0
 72
   100
 73
     1
 74
     1
 75
     0
 76
     0
 77
     0
 78
     0
  0
ENDTAB
  0
TABLE
  2
LTYPE
 70
     2
  0
LTYPE
  2
CONTINUOUS
 70
     0
  3
Solid line
 72
    65
 73
     0
 40
0.0
  0
LTYPE
  2
PHANTOM2
 70
     0
  3
___ _ _ ___ _ _ ___ _ _ ___ _ _
 72
    65
 73
     6
 40
1.25
 49
0.625
 49
-0.125
 49
0.125
 49
-0.125
 49
0.125
 49
-0.125
  0
ENDTAB
  0
TABLE
  2
LAYER
 70
     2
  0
LAYER
  2
0
 70
     0
 62
   255
  6
CONTINUOUS
  0
LAYER
  2
DEFPOINTS
 70
     0
 62
     7
  6
CONTINUOUS
  0
ENDTAB
  0
TABLE
  2
STYLE
 70
     1
  0
STYLE
  2
STANDARD
 70
     0
 40
0.0
 41
0.8
 50
0.0
 71
     0
 42
0.2
  3
txt
  4

  0
ENDTAB
  0
TABLE
  2
VIEW
 70
     0
  0
ENDTAB
  0
TABLE
  2
UCS
 70
     0
  0
ENDTAB
  0
TABLE
  2
APPID
 70
    11
  0
APPID
  2
ACAD
 70
     0
  0
APPID
  2
ACAD_MLEADERVER
 70
     0
  0
APPID
  2
ACAD_EXEMPT_FROM_CAD_STANDARDS
 70
     0
  0
APPID
  2
ACAD_NAV_VCDISPLAY
 70
     0
  0
APPID
  2
ACAECLAYERSTANDARD
 70
     0
  0
APPID
  2
ACCMTRANSPARENCY
 70
     0
  0
APPID
  2
ACAD_DSTYLE_DIMJAG
 70
     0
  0
APPID
  2
ACAD_DSTYLE_DIMTALN
 70
     0
  0
APPID
  2
ACDBATTR
 70
     0
  0
APPID
  2
ACADANNOTATIVE
 70
     0
  0
APPID
  2
DCO15
 70
     0
  0
ENDTAB
  0
TABLE
  2
DIMSTYLE
 70
     1
  0
DIMSTYLE
  2
STANDARD
 70
     0
  3

  4

  5

  6

  7

 40
1.0
 41
0.1875
 42
0.0625
 43
0.38
 44
0.125
 45
0.0
 46
0.0
 47
0.01
 48
0.01
140
0.15625
141
0.09
142
0.0
143
25.3999999999999986
144
1.0
145
0.0
146
1.0
147
0.09
 71
     1
 72
     0
 73
     1
 74
     1
 75
     0
 76
     0
 77
     0
 78
     4
170
     0
171
     2
172
     0
173
     0
174
     0
175
     0
176
     0
177
     0
178
     0
  0
ENDTAB
  0
ENDSEC
  0
SECTION
  2
BLOCKS
  0
BLOCK
  8
0
  2
$MODEL_SPACE
 70
     0
 10
0.0
 20
0.0
 30
0.0
  3
$MODEL_SPACE
  1

  0
ENDBLK
  5
21
  8
0
  0
BLOCK
 67
     1
  8
0
  2
$PAPER_SPACE
 70
     0
 10
0.0
 20
0.0
 30
0.0
  3
$PAPER_SPACE
  1

  0
ENDBLK
  5
1D
 67
     1
  8
0
  0
ENDSEC
  0
SECTION
  2
ENTITIES
  0
ATTDEF
  5
159BF
  8
DEFPOINTS
 10
4786.3050010806482533
 20
531.6629278846048692
 30
0.0
 40
0.001
  1
K-18470IN-4FP
  3

  2
MODELNUMBER
 70
     0
1001
ACDBATTR
1070
     0
1070
     1
  0
ATTDEF
  5
159C0
  8
DEFPOINTS
 10
4786.3050010806482533
 20
531.6612610442257392
 30
0.0
 40
0.001
  1
SYMBOL
  3

  2
TRADENAME
 70
     0
1001
ACDBATTR
1070
     0
1070
     1
  0
ATTDEF
  5
159C1
  8
DEFPOINTS
 10
4786.3050010806482533
 20
531.6595945512715389
 30
0.0
 40
0.001
  1
VALVE TRIM
  3

  2
PRODUCT
 70
     0
1001
ACDBATTR
1070
     0
1070
     1
  0
LINE
  5
1E23E
  8
0
 10
4784.2369809281035486
 20
534.9273102231259145
 30
0.0
 11
4788.3730196726719441
 21
534.9273102231259145
 31
0.0
  0
LINE
  5
1E23F
  8
0
 10
4784.2369809281035486
 20
528.3918771523259466
 30
0.0
 11
4785.7553125342510612
 21
528.3918771523259466
 31
0.0
  0
LINE
  5
1E240
  8
0
 10
4786.1339612087213027
 20
528.3918771523259466
 30
0.0
 11
4786.4760393920532806
 21
528.3918771523259466
 31
0.0
  0
LINE
  5
1E241
  8
0
 10
4786.8546880665244316
 20
528.3918771523259466
 30
0.0
 11
4788.3730196726719441
 21
528.3918771523259466
 31
0.0
  0
LINE
  5
1E242
  8
0
 10
4788.5294097492369474
 20
528.5482672289921311
 30
0.0
 11
4788.5294097492369474
 21
534.7709201464591615
 31
0.0
  0
LINE
  5
1E243
  8
0
 10
4784.0805908515367264
 20
528.548267228991449
 30
0.0
 11
4784.0805908515367264
 21
534.7709201464604121
 31
0.0
  0
ARC
  5
1E244
  8
0
 10
4784.2372264172699943
 20
534.7706746573931014
 30
0.0
 40
0.1566357581057549
 50
90.0897974965159847
 51
179.9102025399448905
  0
ARC
  5
1E246
  8
0
 10
4784.2372264172699943
 20
528.548512718058646
 30
0.0
 40
0.1566357581057556
 50
180.0897974600158875
 51
269.9102025034839016
  0
ARC
  5
1E247
  8
0
 10
4786.3050003003872916
 20
532.702900774275804
 30
0.0
 40
0.9645669291499983
 50
311.9928506471937908
 51
228.0071493528062092
  0
ARC
  5
1E248
  8
0
 10
4786.3050003004373139
 20
532.7029007743259399
 30
0.0
 40
0.9448818898000004
 50
313.407284173899825
 51
226.5927158165555113
  0
ARC
  5
1E249
  8
0
 10
4786.4150545891379807
 20
532.8163122021260278
 30
0.0
 40
1.04801280110009
 50
215.8915907464887027
 51
222.5260309421450131
  0
ARC
  5
1E24A
  8
0
 10
4786.1840015001798747
 20
532.6628459589832119
 30
0.0
 40
0.7707231519640092
 50
158.3634827888278096
 51
201.6365172111721051
  0
ARC
  5
1E24B
  8
0
 10
4786.3050003003872916
 20
532.577572581704203
 30
0.0
 40
0.945865761821722
 50
66.0071398284307094
 51
113.9928601715693048
  0
ARC
  5
1E24C
  8
0
 10
4786.279372277947914
 20
532.6616131999563777
 30
0.0
 40
0.8605015162587019
 50
133.4780747924189086
 51
160.629195638795494
  0
ARC
  5
1E24D
  8
0
 10
4786.2734037204863853
 20
532.6607853367185044
 30
0.0
 40
0.8570094300637277
 50
114.3251130686470987
 51
133.1504380783840134
  0
ARC
  5
1E24E
  8
0
 10
4786.1842657138922732
 20
532.6620452582775442
 30
0.0
 40
0.7706739772458532
 50
201.5739406321212073
 51
216.6592152549534092
  0
ARC
  5
1E24F
  8
0
 10
4786.305000300248139
 20
532.55946709961745
 30
0.0
 40
0.7316135735084718
 50
50.7236034259556376
 51
129.2763965338471053
  0
ARC
  5
1E250
  8
0
 10
4786.2470030085587496
 20
532.6034052840941513
 30
0.0
 40
0.6611057711125161
 50
127.7959518564055941
 51
171.2265257650144008
  0
ARC
  5
1E251
  8
0
 10
4786.5147536595595739
 20
532.6304812293053601
 30
0.0
 40
0.9240694995015472
 50
175.4216454960626947
 51
192.1179934095011959
  0
ARC
  5
1E252
  8
0
 10
4782.855553709518972
 20
531.8579058546791885
 30
0.0
 40
2.8158062667988961
 50
5.7598503019946019
 51
11.8575501721462402
  0
ARC
  5
1E253
  8
0
 10
4783.6843799345379011
 20
531.8005188064911408
 30
0.0
 40
1.9823023513692619
 50
8.5962884729094302
 51
8.9214298049583345
  0
ARC
  5
1E254
  8
0
 10
4779.9871716214602202
 20
531.2615179769505858
 30
0.0
 40
5.7185754861909777
 50
2.4957300989187781
 51
8.3991016496277506
  0
ARC
  5
1E255
  8
0
 10
4765.2544911081504324
 20
530.6637415058879697
 30
0.0
 40
20.4633597433997991
 50
0.5571284126725277
 51
2.3716259250554801
  0
ARC
  5
1E256
  8
0
 10
4709.1751441238493499
 20
527.6527019767795537
 30
0.0
 40
76.6090207753436232
 50
0.6395246499322179
 51
2.401469903423842
  0
ARC
  5
1E257
  8
0
 10
4775.6717964494309854
 20
531.1223955982218285
 30
0.0
 40
10.03711575581025
 50
1.304197191019437
 51
5.8217369611239542
  0
ARC
  5
1E258
  8
0
 10
4786.3050003003872916
 20
532.2050209035103308
 30
0.0
 40
3.7972202329195168
 50
264.1812450943965018
 51
275.8187549056033845
  0
ARC
  5
1E259
  8
0
 10
4785.7510462368945809
 20
528.6309535223955436
 30
0.0
 40
0.2391144328953064
 50
271.0223297723322275
 51
277.719841368182017
  0
LINE
  5
1E25A
  8
0
 10
4785.7860002032011835
 20
528.3950213854857338
 30
0.0
 11
4785.7869008103079977
 21
528.3959219925070556
 31
0.0
  0
ARC
  5
1E25B
  8
0
 10
4785.8593557762478667
 20
527.8716990480130562
 30
0.0
 40
0.5305451763056671
 50
89.3535806143710261
 51
97.1309949362450027
  0
ARC
  5
1E25C
  8
0
 10
4785.7961237571889797
 20
528.3794170582438028
 30
0.0
 40
0.0189070252598349
 50
97.992637780180587
 51
119.1964312378458004
  0
ARC
  5
1E25D
  8
0
 10
4785.7822287682256501
 20
528.4010866582899553
 30
0.0
 40
0.0071422164602385
 50
277.5429606838994232
 51
301.8736782357547099
  0
ARC
  5
1E25E
  8
0
 10
4786.1343393179286068
 20
528.5363764431494928
 30
0.0
 40
0.1444997855191689
 50
264.0431231701309116
 51
269.8500753032147941
  0
LINE
  5
1E25F
  8
0
 10
4786.1170683084374105
 20
528.3932920572259491
 30
0.0
 11
4786.1144383731380003
 21
528.3959219925259276
 31
0.0
  0
ARC
  5
1E260
  8
0
 10
4786.0412188505897575
 20
527.8552701002029153
 30
0.0
 40
0.546965277692343
 50
83.0365236396089301
 51
90.5469197003146746
  0
ARC
  5
1E261
  8
0
 10
4786.103788033516139
 20
528.3752471101878427
 30
0.0
 40
0.0232568375697178
 50
62.7454542322023414
 51
80.7383413668515288
  0
ARC
  5
1E262
  8
0
 10
4786.1201460512820631
 20
528.3999239848634488
 30
0.0
 40
0.0073112902559183
 50
245.1049435155495928
 51
263.695194693859321
  0
LINE
  5
1E263
  8
0
 10
4785.8653413377378456
 20
528.4022104590259232
 30
0.0
 11
4786.0359978457381658
 21
528.4022104590259232
 31
0.0
  0
ARC
  5
1E264
  8
0
 10
4785.0241491965889509
 20
519.1064940938608743
 30
0.0
 40
9.3638265966375194
 50
84.5098445553808233
 51
84.9427466641173368
  0
ARC
  5
1E265
  8
0
 10
4785.8621683655219385
 20
528.5869770271590369
 30
0.0
 40
0.1536252049480474
 50
253.6564026017132107
 51
265.3002950687687758
  0
ARC
  5
1E266
  8
0
 10
4785.8329465425331364
 20
528.4898322216558881
 30
0.0
 40
0.0521877068722848
 50
189.707105497372396
 51
254.4301655207561055
  0
ARC
  5
1E267
  8
0
 10
4785.9326737207202314
 20
528.5064335446477344
 30
0.0
 40
0.1532868887830976
 50
179.4968571627377969
 51
189.538333114885404
  0
ARC
  5
1E268
  8
0
 10
4788.3727741835036795
 20
534.7706746573931014
 30
0.0
 40
0.1566357581057549
 50
0.0897974600550565
 51
89.9102025034840153
  0
ARC
  5
1E269
  8
0
 10
4788.3727741835036795
 20
528.548512718058646
 30
0.0
 40
0.1566357581057556
 50
270.0897974965159847
 51
359.9102025399840272
  0
ARC
  5
1E26A
  8
0
 10
4786.1949460116366026
 20
532.8163122021260278
 30
0.0
 40
1.04801280110009
 50
317.4739690578550153
 51
324.1084092535112973
  0
ARC
  5
1E26B
  8
0
 10
4786.4259991005956181
 20
532.6628459589832119
 30
0.0
 40
0.7707231519640092
 50
338.3634827888278096
 51
21.6365172111721407
  0
ARC
  5
1E26C
  8
0
 10
4786.3306283228266693
 20
532.6616131999563777
 30
0.0
 40
0.8605015162587019
 50
19.3708043612044882
 51
46.5219252075810488
  0
ARC
  5
1E26D
  8
0
 10
4786.3365968802891075
 20
532.6607853367185044
 30
0.0
 40
0.8570094300637277
 50
46.8495619216160009
 51
65.6748869313528445
  0
ARC
  5
1E26E
  8
0
 10
4786.4257348868832196
 20
532.6620452582775442
 30
0.0
 40
0.7706739772458532
 50
323.3407847450466193
 51
338.4260593678787927
  0
ARC
  5
1E26F
  8
0
 10
4786.3629975922158337
 20
532.6034052840941513
 30
0.0
 40
0.6611057711125161
 50
8.7734742349855654
 51
52.2040481435943988
  0
ARC
  5
1E270
  8
0
 10
4786.0952469412150094
 20
532.6304812293053601
 30
0.0
 40
0.9240694995015472
 50
347.8820065904986905
 51
4.5783545039373088
  0
ARC
  5
1E271
  8
0
 10
4789.7544468912547018
 20
531.8579058546791885
 30
0.0
 40
2.8158062667988961
 50
168.1424498278537953
 51
174.2401496980054105
  0
ARC
  5
1E272
  8
0
 10
4788.9256206662357727
 20
531.8005188064911408
 30
0.0
 40
1.9823023513692619
 50
171.0785701950416069
 51
171.4037115270905076
  0
ARC
  5
1E273
  8
0
 10
4792.6228289793152726
 20
531.2615179769505858
 30
0.0
 40
5.7185754861909777
 50
171.600898350372205
 51
177.5042699010811873
  0
ARC
  5
1E274
  8
0
 10
4807.3555094926268794
 20
530.6637415058879697
 30
0.0
 40
20.4633597433997991
 50
177.628374074944503
 51
179.4428715873274029
  0
ARC
  5
1E275
  8
0
 10
4863.4348564769261429
 20
527.6527019767795537
 30
0.0
 40
76.6090207753436232
 50
177.5985300965760985
 51
179.3604753500677873
  0
ARC
  5
1E276
  8
0
 10
4796.9382041513435979
 20
531.1223955982218285
 30
0.0
 40
10.03711575581025
 50
174.1782630388759969
 51
178.6958028089806021
  0
ARC
  5
1E277
  8
0
 10
4786.8589543638809118
 20
528.6309535223955436
 30
0.0
 40
0.2391144328953064
 50
262.2801586318180966
 51
268.9776702276677725
  0
LINE
  5
1E278
  8
0
 10
4786.8240003975733998
 20
528.3950213854857338
 30
0.0
 11
4786.8230997904656761
 21
528.3959219925070556
 31
0.0
  0
ARC
  5
1E279
  8
0
 10
4786.750644824527626
 20
527.8716990480130562
 30
0.0
 40
0.5305451763056671
 50
82.8690050637549973
 51
90.6464193856289739
  0
ARC
  5
1E27A
  8
0
 10
4786.8138768435874226
 20
528.3794170582438028
 30
0.0
 40
0.0189070252598349
 50
60.8035687621542209
 51
82.0073622198194272
  0
ARC
  5
1E27B
  8
0
 10
4786.8277718325480237
 20
528.4010866582899553
 30
0.0
 40
0.0071422164602385
 50
238.1263217642452901
 51
262.4570393161005768
  0
ARC
  5
1E27C
  8
0
 10
4786.475661282845067
 20
528.5363764431494928
 30
0.0
 40
0.1444997855191689
 50
270.1499246967852059
 51
275.9568768298689747
  0
LINE
  5
1E27D
  8
0
 10
4786.4929322923380823
 20
528.3932920572259491
 30
0.0
 11
4786.495562227638402
 21
528.3959219925259276
 31
0.0
  0
ARC
  5
1E27E
  8
0
 10
4786.5687817501848258
 20
527.8552701002029153
 30
0.0
 40
0.546965277692343
 50
89.4530802996853112
 51
96.9634763603910841
  0
ARC
  5
1E27F
  8
0
 10
4786.5062125672593538
 20
528.3752471101878427
 30
0.0
 40
0.0232568375697178
 50
99.2616586331484854
 51
117.2545457677975946
  0
ARC
  5
1E280
  8
0
 10
4786.4898545494934297
 20
528.3999239848634488
 30
0.0
 40
0.0073112902559183
 50
276.304805306140679
 51
294.8950564844503219
  0
LINE
  5
1E281
  8
0
 10
4786.7446592630376472
 20
528.4022104590259232
 30
0.0
 11
4786.574002755037327
 21
528.4022104590259232
 31
0.0
  0
ARC
  5
1E282
  8
0
 10
4787.5858514041874514
 20
519.1064940938608743
 30
0.0
 40
9.3638265966375194
 50
95.0572533358826632
 51
95.4901554446191767
  0
ARC
  5
1E283
  8
0
 10
4786.7478322352535542
 20
528.5869770271590369
 30
0.0
 40
0.1536252049480474
 50
274.6997049312312242
 51
286.3435973982868177
  0
ARC
  5
1E284
  8
0
 10
4786.7770540582432659
 20
528.4898322216558881
 30
0.0
 40
0.0521877068722848
 50
285.5698344792439229
 51
350.2928945026275755
  0
ARC
  5
1E285
  8
0
 10
4786.6773268800552614
 20
528.5064335446477344
 30
0.0
 40
0.1532868887830976
 50
350.4616668851144823
 51
0.5031428372621772
  0
ARC
  5
1E286
  8
0
 10
4786.3050003004373139
 20
532.7029007743259399
 30
0.0
 40
0.9940944881999991
 50
310.0685226790615161
 51
229.9314773125616966
  0
ENDSEC
  0
EOF
