  0
SECTION
  2
HEADER
  9
$ACADVER
  1
AC1009
  9
$INSBASE
 10
5542.5438829399627139
 20
321.5108233821501926
 30
0.0
  9
$EXTMIN
 10
5537.24843202246484
 20
318.9106289067237867
 30
-0.0000000000000058
  9
$EXTMAX
 10
5547.7991024176380961
 20
321.5132451580722091
 30
0.0000000000000104
  9
$LIMMIN
 10
0.0
 20
0.0
  9
$LIMMAX
 10
11.6929133858000007
 20
8.2677165353999982
  9
$ORTHOMODE
 70
     0
  9
$REGENMODE
 70
     1
  9
$FILLMODE
 70
     1
  9
$QTEXTMODE
 70
     0
  9
$MIRRTEXT
 70
     0
  9
$DRAGMODE
 70
     2
  9
$LTSCALE
 40
0.6431102362
  9
$OSMODE
 70
  4095
  9
$ATTMODE
 70
     1
  9
$TEXTSIZE
 40
0.2
  9
$TRACEWID
 40
0.05
  9
$TEXTSTYLE
  7
STANDARD
  9
$CLAYER
  8
0
  9
$CELTYPE
  6
BYLAYER
  9
$CECOLOR
 62
   256
  9
$DIMSCALE
 40
1.0
  9
$DIMASZ
 40
0.1875
  9
$DIMEXO
 40
0.0625
  9
$DIMDLI
 40
0.4443307087
  9
$DIMRND
 40
0.0
  9
$DIMDLE
 40
0.0
  9
$DIMEXE
 40
0.125
  9
$DIMTP
 40
0.01
  9
$DIMTM
 40
0.01
  9
$DIMTXT
 40
2.0
  9
$DIMCEN
 40
0.1052362205
  9
$DIMTSZ
 40
0.0
  9
$DIMTOL
 70
     1
  9
$DIMLIM
 70
     0
  9
$DIMTIH
 70
     1
  9
$DIMTOH
 70
     1
  9
$DIMSE1
 70
     0
  9
$DIMSE2
 70
     0
  9
$DIMTAD
 70
     0
  9
$DIMZIN
 70
     0
  9
$DIMBLK
  1

  9
$DIMASO
 70
     1
  9
$DIMSHO
 70
     1
  9
$DIMPOST
  1
\X
  9
$DIMAPOST
  1

  9
$DIMALT
 70
     1
  9
$DIMALTD
 70
     2
  9
$DIMALTF
 40
25.3999999999999986
  9
$DIMLFAC
 40
1.0
  9
$DIMTOFL
 70
     0
  9
$DIMTVP
 40
0.0
  9
$DIMTIX
 70
     0
  9
$DIMSOXD
 70
     0
  9
$DIMSAH
 70
     0
  9
$DIMBLK1
  1

  9
$DIMBLK2
  1

  9
$DIMSTYLE
  2
STANDARD
  9
$DIMCLRD
 70
     0
  9
$DIMCLRE
 70
     0
  9
$DIMCLRT
 70
     0
  9
$DIMTFAC
 40
1.0
  9
$DIMGAP
 40
0.09
  9
$LUNITS
 70
     2
  9
$LUPREC
 70
     4
  9
$SKETCHINC
 40
0.1
  9
$FILLETRAD
 40
0.0
  9
$AUNITS
 70
     0
  9
$AUPREC
 70
     0
  9
$MENU
  1
.
  9
$ELEVATION
 40
0.0
  9
$PELEVATION
 40
0.0
  9
$THICKNESS
 40
0.0
  9
$LIMCHECK
 70
     0
  9
$BLIPMODE
 70
     0
  9
$CHAMFERA
 40
0.0
  9
$CHAMFERB
 40
0.0
  9
$SKPOLY
 70
     0
  9
$TDCREATE
 40
2458060.468368056230247
  9
$TDUPDATE
 40
2460164.5796990739181638
  9
$TDINDWG
 40
0.5930510417
  9
$TDUSRTIMER
 40
0.5930510417
  9
$USRTIMER
 70
     1
  9
$ANGBASE
 50
0.0
  9
$ANGDIR
 70
     0
  9
$PDMODE
 70
     0
  9
$PDSIZE
 40
0.3125
  9
$PLINEWID
 40
0.0
  9
$COORDS
 70
     1
  9
$SPLFRAME
 70
     0
  9
$SPLINETYPE
 70
     6
  9
$SPLINESEGS
 70
     8
  9
$ATTDIA
 70
     1
  9
$ATTREQ
 70
     1
  9
$HANDLING
 70
     1
  9
$HANDSEED
  5
2EC9F
  9
$SURFTAB1
 70
     6
  9
$SURFTAB2
 70
     6
  9
$SURFTYPE
 70
     6
  9
$SURFU
 70
     6
  9
$SURFV
 70
     6
  9
$UCSNAME
  2

  9
$UCSORG
 10
0.0
 20
0.0
 30
0.0
  9
$UCSXDIR
 10
1.0
 20
0.0
 30
0.0
  9
$UCSYDIR
 10
0.0
 20
1.0
 30
0.0
  9
$PUCSNAME
  2

  9
$PUCSORG
 10
0.0
 20
0.0
 30
0.0
  9
$PUCSXDIR
 10
1.0
 20
0.0
 30
0.0
  9
$PUCSYDIR
 10
0.0
 20
1.0
 30
0.0
  9
$USERI1
 70
     0
  9
$USERI2
 70
     0
  9
$USERI3
 70
     0
  9
$USERI4
 70
     0
  9
$USERI5
 70
     0
  9
$USERR1
 40
0.0
  9
$USERR2
 40
0.0
  9
$USERR3
 40
0.0
  9
$USERR4
 40
0.0
  9
$USERR5
 40
0.0
  9
$WORLDVIEW
 70
     1
  9
$SHADEDGE
 70
     3
  9
$SHADEDIF
 70
    70
  9
$TILEMODE
 70
     1
  9
$MAXACTVP
 70
    64
  9
$PLIMCHECK
 70
     0
  9
$PEXTMIN
 10
1.0000000000000000E+20
 20
1.0000000000000000E+20
 30
1.0000000000000000E+20
  9
$PEXTMAX
 10
-1.0000000000000000E+20
 20
-1.0000000000000000E+20
 30
-1.0000000000000000E+20
  9
$PLIMMIN
 10
0.0
 20
0.0
  9
$PLIMMAX
 10
12.0
 20
9.0
  9
$UNITMODE
 70
     0
  9
$VISRETAIN
 70
     1
  9
$PLINEGEN
 70
     0
  9
$PSLTSCALE
 70
     1
  0
ENDSEC
  0
SECTION
  2
TABLES
  0
TABLE
  2
VPORT
 70
     1
  0
VPORT
  2
*ACTIVE
 70
     0
 10
0.0
 20
0.0
 11
1.0
 21
1.0
 12
1631.1584107747380585
 22
187.632331929858907
 13
0.0
 23
0.0
 14
1.0
 24
1.0
 15
0.0
 25
0.0
 16
0.0
 26
0.0
 36
60.4960186965801583
 17
3911.3653564453120453
 27
132.5796051025390057
 37
0.0
 40
3.7309390783910592
 41
2.8368263473053892
 42
50.0
 43
0.0
 44
0.0
 50
0.0
 51
0.0
 71
     0
 72
   100
 73
     1
 74
     1
 75
     0
 76
     0
 77
     0
 78
     0
  0
ENDTAB
  0
TABLE
  2
LTYPE
 70
     2
  0
LTYPE
  2
CONTINUOUS
 70
     0
  3
Solid line
 72
    65
 73
     0
 40
0.0
  0
LTYPE
  2
PHANTOM2
 70
     0
  3
___ _ _ ___ _ _ ___ _ _ ___ _ _
 72
    65
 73
     6
 40
1.25
 49
0.625
 49
-0.125
 49
0.125
 49
-0.125
 49
0.125
 49
-0.125
  0
ENDTAB
  0
TABLE
  2
LAYER
 70
     2
  0
LAYER
  2
0
 70
     0
 62
   255
  6
CONTINUOUS
  0
LAYER
  2
DEFPOINTS
 70
     0
 62
     7
  6
CONTINUOUS
  0
ENDTAB
  0
TABLE
  2
STYLE
 70
     1
  0
STYLE
  2
STANDARD
 70
     0
 40
0.0
 41
0.8
 50
0.0
 71
     0
 42
0.2
  3
txt
  4

  0
ENDTAB
  0
TABLE
  2
VIEW
 70
     0
  0
ENDTAB
  0
TABLE
  2
UCS
 70
     0
  0
ENDTAB
  0
TABLE
  2
APPID
 70
    11
  0
APPID
  2
ACAD
 70
     0
  0
APPID
  2
ACAD_MLEADERVER
 70
     0
  0
APPID
  2
ACAD_EXEMPT_FROM_CAD_STANDARDS
 70
     0
  0
APPID
  2
ACAD_NAV_VCDISPLAY
 70
     0
  0
APPID
  2
ACAECLAYERSTANDARD
 70
     0
  0
APPID
  2
ACCMTRANSPARENCY
 70
     0
  0
APPID
  2
ACAD_DSTYLE_DIMJAG
 70
     0
  0
APPID
  2
ACAD_DSTYLE_DIMTALN
 70
     0
  0
APPID
  2
ACDBATTR
 70
     0
  0
APPID
  2
ACADANNOTATIVE
 70
     0
  0
APPID
  2
DCO15
 70
     0
  0
ENDTAB
  0
TABLE
  2
DIMSTYLE
 70
     1
  0
DIMSTYLE
  2
STANDARD
 70
     0
  3

  4

  5

  6

  7

 40
1.0
 41
0.1875
 42
0.0625
 43
0.38
 44
0.125
 45
0.0
 46
0.0
 47
0.01
 48
0.01
140
0.15625
141
0.09
142
0.0
143
25.3999999999999986
144
1.0
145
0.0
146
1.0
147
0.09
 71
     1
 72
     0
 73
     1
 74
     1
 75
     0
 76
     0
 77
     0
 78
     4
170
     0
171
     2
172
     0
173
     0
174
     0
175
     0
176
     0
177
     0
178
     0
  0
ENDTAB
  0
ENDSEC
  0
SECTION
  2
BLOCKS
  0
BLOCK
  8
0
  2
$MODEL_SPACE
 70
     0
 10
0.0
 20
0.0
 30
0.0
  3
$MODEL_SPACE
  1

  0
ENDBLK
  5
21
  8
0
  0
BLOCK
 67
     1
  8
0
  2
$PAPER_SPACE
 70
     0
 10
0.0
 20
0.0
 30
0.0
  3
$PAPER_SPACE
  1

  0
ENDBLK
  5
1D
 67
     1
  8
0
  0
BLOCK
  8
0
  2
_FILLED
 70
     0
 10
0.0
 20
0.0
 30
0.0
  3
_FILLED
  1

  0
SOLID
  5
2853B
  8
0
  6
BYBLOCK
 62
     0
 10
0.0
 20
0.0
 30
0.0
 11
-1.0
 21
0.1666666667
 31
0.0
 12
-1.0
 22
-0.1666666667
 32
0.0
 13
-1.0
 23
-0.1666666667
 33
0.0
  0
ENDBLK
  5
2853C
  8
0
  6
BYBLOCK
 62
     0
  0
ENDSEC
  0
SECTION
  2
ENTITIES
  0
ATTDEF
  5
2842F
  8
DEFPOINTS
 10
5542.5440014669384254
 20
321.5093896867654166
 30
0.0
 40
0.001
  1
K-18359T-CL
  3

  2
MODELNUMBER
 70
     0
1001
ACDBATTR
1070
     0
1070
     1
  0
ATTDEF
  5
28430
  8
DEFPOINTS
 10
5542.5438756572821148
 20
321.5077228463862866
 30
0.0
 40
0.001
  1
KATALYST AIR
  3

  2
TRADENAME
 70
     0
1001
ACDBATTR
1070
     0
1070
     1
  0
ATTDEF
  5
28431
  8
DEFPOINTS
 10
5542.5440014669384254
 20
321.5060563534320863
 30
0.0
 40
0.001
  1
SHOWERHEAD
  3

  2
PRODUCT
 70
     0
1001
ACDBATTR
1070
     0
1070
     1
  0
LINE
  5
2E982
  8
0
 10
5547.5139616787537307
 20
318.9672879490502169
 30
0.0
 11
5537.5738041997619803
 21
318.9672879490502169
 31
0.0
  0
LINE
  5
2E983
  8
0
 10
5541.8253790029630181
 20
320.5184690514502108
 30
0.0
 11
5541.8253790029630181
 21
319.4397288939501891
 31
0.0
  0
LINE
  5
2E984
  8
0
 10
5547.54388293986176
 20
319.4397288939501891
 30
0.0
 11
5537.5438829400618488
 21
319.4397288939501891
 31
0.0
  0
LINE
  5
2E985
  8
0
 10
5542.048882939962823
 20
321.4908233821502108
 30
0.0
 11
5542.0488829400610484
 21
320.972646588705004
 31
0.0
  0
LINE
  5
2E986
  8
0
 10
5541.8253790029630181
 20
320.5184690514502108
 30
0.0
 11
5543.2623868769605906
 21
320.5184690514502108
 31
0.0
  0
LINE
  5
2E987
  8
0
 10
5543.0188829399630777
 20
321.5108233821501926
 30
0.0
 11
5542.0688829399623501
 21
321.5108233821501926
 31
0.0
  0
ARC
  5
2E988
  8
0
 10
5537.5760917248690021
 20
318.9994967340051062
 30
0.0
 40
0.0322899147249966
 50
184.0624279475661922
 51
265.9375732281851015
  0
ARC
  5
2E989
  8
0
 10
5542.0688829399623501
 20
321.4908233821502108
 30
0.0
 40
0.02
 50
90.0
 51
180.0
  0
ARC
  5
2E98A
  8
0
 10
5542.278882939959658
 20
320.9726465887607105
 30
0.0
 40
0.2299999998971192
 50
179.9999999777195967
 51
247.4596895401051029
  0
ARC
  5
2E98B
  8
0
 10
5542.1599384925739287
 20
320.6949771224749952
 30
0.0
 40
0.0721347254302598
 50
312.1696347050335021
 51
64.7435346915251557
  0
ARC
  5
2E98C
  8
0
 10
5542.5438829400118266
 20
320.2338233821502058
 30
0.0
 40
0.5279999999999822
 50
129.4534797916327022
 51
147.3774950569030864
  0
LINE
  5
2E98D
  8
0
 10
5542.7477443096622665
 20
320.0460281065501817
 30
0.0
 11
5542.3400215702622518
 21
320.0460281065501817
 31
0.0
  0
LINE
  5
2E98E
  8
0
 10
5542.3400215702622518
 20
320.0460281065501817
 30
0.0
 11
5542.3400215702622518
 21
320.5184690514502108
 31
0.0
  0
LINE
  5
2E98F
  8
0
 10
5542.3470331620619618
 20
321.3366812463501105
 30
0.0
 11
5542.3470331623029779
 21
320.9726465890474856
 31
0.0
  0
ARC
  5
2E990
  8
0
 10
5542.4469567560981886
 20
320.9726465891137082
 30
0.0
 40
0.0999235937952214
 50
180.0000000379264122
 51
224.8899520486839947
  0
ARC
  5
2E991
  8
0
 10
5542.515044226007376
 20
321.0404730090178873
 30
0.0
 40
0.196029404210829
 50
224.8899520486839947
 51
255.5065455626831863
  0
ARC
  5
2E992
  8
0
 10
5542.5429565674367041
 20
321.1337808009192258
 30
0.0
 40
0.2933763767389177
 50
254.7893968620768135
 51
270.1809188754533011
  0
ARC
  5
2E993
  8
0
 10
5542.356233522518778
 20
321.3366193804317845
 30
0.0
 40
0.0092005684561421
 50
151.1689464339144138
 51
179.6147322040970096
  0
ARC
  5
2E994
  8
0
 10
5542.3690409740720497
 20
321.3266013394620018
 30
0.0
 40
0.0253849785585425
 50
107.4100318137322034
 51
145.2899259773778056
  0
ARC
  5
2E995
  8
0
 10
5542.5437738500731939
 20
320.8810534752175272
 30
0.0
 40
0.5039120543410543
 50
89.9875962674600487
 51
111.2123523079916936
  0
LINE
  5
2E996
  8
0
 10
5537.5438829400618488
 20
319.4397288939501891
 30
0.0
 11
5537.5438829400618488
 21
318.997209208235688
 31
0.0
  0
LINE
  5
2E997
  8
0
 10
5543.2623868769605906
 20
320.5184690514502108
 30
0.0
 11
5543.2623868769605906
 21
319.4397288939501891
 31
0.0
  0
LINE
  5
2E998
  8
0
 10
5543.0388829399626047
 20
321.4908233821502108
 30
0.0
 11
5543.0388829398616508
 21
320.972646588705004
 31
0.0
  0
ARC
  5
2E999
  8
0
 10
5547.5116741550546067
 20
318.9994967340051062
 30
0.0
 40
0.0322899147249966
 50
274.0624267718147848
 51
355.9375720524337225
  0
ARC
  5
2E99A
  8
0
 10
5543.0188829399630777
 20
321.4908233821502108
 30
0.0
 40
0.02
 50
0.0
 51
90.0
  0
ARC
  5
2E99B
  8
0
 10
5542.8088829399648603
 20
320.9726465887607105
 30
0.0
 40
0.2299999998971192
 50
292.5403104598948971
 51
0.0000000222803708
  0
ARC
  5
2E99C
  8
0
 10
5542.9278273873505896
 20
320.6949771224749952
 30
0.0
 40
0.0721347254302598
 50
115.2564653084748016
 51
227.8303652949664979
  0
ARC
  5
2E99D
  8
0
 10
5542.5438829399126917
 20
320.2338233821502058
 30
0.0
 40
0.5279999999999822
 50
32.6225049430968568
 51
50.5465202083673475
  0
LINE
  5
2E99E
  8
0
 10
5542.7477443096622665
 20
320.0460281065501817
 30
0.0
 11
5542.7477443096622665
 21
320.5184690514502108
 31
0.0
  0
LINE
  5
2E99F
  8
0
 10
5542.7407327178625565
 20
321.3366812463501105
 30
0.0
 11
5542.7407327176206309
 21
320.9726465890474856
 31
0.0
  0
ARC
  5
2E9A0
  8
0
 10
5542.6408091238272391
 20
320.9726465891137082
 30
0.0
 40
0.0999235937952214
 50
315.110047951316119
 51
359.9999999620703193
  0
ARC
  5
2E9A1
  8
0
 10
5542.5727216539171422
 20
321.0404730090178873
 30
0.0
 40
0.196029404210829
 50
284.4934544373168137
 51
315.110047951316119
  0
ARC
  5
2E9A2
  8
0
 10
5542.5448093124878142
 20
321.1337808009192258
 30
0.0
 40
0.2933763767389177
 50
269.8190811245466989
 51
285.2106031379232149
  0
ARC
  5
2E9A3
  8
0
 10
5542.7315323574057402
 20
321.3366193804317845
 30
0.0
 40
0.0092005684561421
 50
0.3852677959029369
 51
28.8310535660855614
  0
ARC
  5
2E9A4
  8
0
 10
5542.718724905853378
 20
321.3266013394620018
 30
0.0
 40
0.0253849785585425
 50
34.7100740226222229
 51
72.5899681862677539
  0
ARC
  5
2E9A5
  8
0
 10
5542.5439920298522338
 20
320.8810534752175272
 30
0.0
 40
0.5039120543410543
 50
68.7876476920082638
 51
90.0124037325399655
  0
LINE
  5
2E9A6
  8
0
 10
5547.54388293986176
 20
319.4397288939501891
 30
0.0
 11
5547.54388293986176
 21
318.997209208235688
 31
0.0
  0
LINE
  5
2E9A7
  8
0
 10
5542.19071627334597
 20
320.7602162734785907
 30
0.0
 11
5542.8970496065803673
 21
320.7602162734785907
 31
0.0
  0
LINE
  5
2E9A8
  8
0
 10
5542.2083645454158614
 20
320.6415137142507774
 30
0.0
 11
5542.8794013345068379
 21
320.6415137142507774
 31
0.0
  0
LINE
  5
2E9A9
  8
0
 10
5542.3470331620619618
 20
321.3366812463497126
 30
0.0
 11
5542.7407327178625565
 21
321.3366812463497126
 31
0.0
  0
LINE
  5
2E9AA
  8
0
 10
5538.2344649230426512
 20
318.9260346333250027
 30
0.0
 11
5538.2300378500631268
 21
318.9672879490502169
 31
0.0
  0
LINE
  5
2E9AB
  8
0
 10
5538.3422268423046262
 20
318.922271504163291
 30
0.0
 11
5538.3502659360619873
 21
318.9672879490502169
 31
0.0
  0
LINE
  5
2E9AC
  8
0
 10
5538.3340722391340023
 20
318.9156827777412104
 30
0.0
 11
5538.2421400556831941
 21
318.9188931203560173
 31
0.0
  0
ARC
  5
2E9AD
  8
0
 10
5538.3324884818903229
 20
318.9259836070477263
 30
0.0
 40
0.010421869861601
 50
278.7408061031962916
 51
339.1339759524166766
  0
ARC
  5
2E9AE
  8
0
 10
5538.2424192516591575
 20
318.926888246972112
 30
0.0
 40
0.008
 50
186.1252179891841081
 51
267.9999999827373927
  0
LINE
  5
2E9AF
  8
0
 10
5538.379434050605596
 20
318.9262704261944918
 30
0.0
 11
5538.3749827230631126
 21
318.9672879490502169
 31
0.0
  0
LINE
  5
2E9B0
  8
0
 10
5538.4872193628461901
 20
318.9222586844331886
 30
0.0
 11
5538.4952058043618308
 21
318.9672879490502169
 31
0.0
  0
LINE
  5
2E9B1
  8
0
 10
5538.3870850072971734
 20
318.9191392546218253
 30
0.0
 11
5538.4790399510811767
 21
318.9156787226817187
 31
0.0
  0
ARC
  5
2E9B2
  8
0
 10
5538.3873873540642307
 20
318.9271335392322158
 30
0.0
 40
0.008
 50
186.1936473966185019
 51
267.8340849644919217
  0
ARC
  5
2E9B3
  8
0
 10
5538.4781255865782441
 20
318.9251891579780818
 30
0.0
 40
0.0095542891921759
 50
275.4917250521071992
 51
342.1384404454623791
  0
LINE
  5
2E9B4
  8
0
 10
5538.8047438518669878
 20
318.9244135927647221
 30
0.0
 11
5538.7999390889626738
 21
318.9672879490502169
 31
0.0
  0
LINE
  5
2E9B5
  8
0
 10
5538.9123183855726893
 20
318.9222316620277979
 30
0.0
 11
5538.9201484960622111
 21
318.9672879490502169
 31
0.0
  0
LINE
  5
2E9B6
  8
0
 10
5538.8125455962353954
 20
318.9173059227322256
 30
0.0
 11
5538.904288032698787
 21
318.9156787226817187
 31
0.0
  0
ARC
  5
2E9B7
  8
0
 10
5538.8126940848769664
 20
318.9253045445586281
 30
0.0
 40
0.008
 50
186.3942369474451937
 51
268.9364673719907728
  0
ARC
  5
2E9B8
  8
0
 10
5538.9007592681273309
 20
318.9281999762865212
 30
0.0
 40
0.0130089957812934
 50
285.7390034208277143
 51
332.6913550554315862
  0
LINE
  5
2E9B9
  8
0
 10
5539.0866076557249471
 20
318.9250825364954949
 30
0.0
 11
5539.0812517503618437
 21
318.9672879490502169
 31
0.0
  0
LINE
  5
2E9BA
  8
0
 10
5539.1944407450928338
 20
318.9232003028200211
 30
0.0
 11
5539.199130637939561
 21
318.9520537270142881
 31
0.0
  0
LINE
  5
2E9BB
  8
0
 10
5539.0944043888048327
 20
318.918090885287711
 30
0.0
 11
5539.1864047564531575
 21
318.91648501281378
 31
0.0
  0
ARC
  5
2E9BC
  8
0
 10
5539.094544008064986
 20
318.9260896668487817
 30
0.0
 40
0.008
 50
187.2322297964797997
 51
268.9999999481667032
  0
ARC
  5
2E9BD
  8
0
 10
5539.1865443757096727
 20
318.9244837943749076
 30
0.0
 40
0.008
 50
268.9999999481667032
 51
350.7677700884448768
  0
LINE
  5
2E9BE
  8
0
 10
5539.2025580043209629
 20
318.9251738193464121
 30
0.0
 11
5539.1971881736626528
 21
318.9672879490502169
 31
0.0
  0
LINE
  5
2E9BF
  8
0
 10
5539.3104027793324349
 20
318.9232004699952086
 30
0.0
 11
5539.3175420083625795
 21
318.9672879490502169
 31
0.0
  0
LINE
  5
2E9C0
  8
0
 10
5539.2103454168109238
 20
318.9181870555254932
 30
0.0
 11
5539.3023573119571665
 21
318.9164806532289163
 31
0.0
  0
ARC
  5
2E9C1
  8
0
 10
5539.2104937549293027
 20
318.9261856801450108
 30
0.0
 40
0.008
 50
187.2663821133332931
 51
268.9375455950838045
  0
ARC
  5
2E9C2
  8
0
 10
5539.3025056500746359
 20
318.9244792778483202
 30
0.0
 40
0.008
 50
268.9375455950838045
 51
350.8017532278946078
  0
LINE
  5
2E9C3
  8
0
 10
5539.4810549110516149
 20
318.9238800458728065
 30
0.0
 11
5539.4759455087623792
 21
318.9672879490502169
 31
0.0
  0
LINE
  5
2E9C4
  8
0
 10
5539.5885530853465752
 20
318.9221770237693931
 30
0.0
 11
5539.5961362339621701
 21
318.9672879490502169
 31
0.0
  0
LINE
  5
2E9C5
  8
0
 10
5539.6503393658740606
 20
318.9229074464499263
 30
0.0
 11
5539.6574468526623605
 21
318.9672879490502169
 31
0.0
  0
LINE
  5
2E9C6
  8
0
 10
5539.488885564782322
 20
318.9168160628432247
 30
0.0
 11
5539.5805492793406302
 21
318.9156787226817187
 31
0.0
  0
LINE
  5
2E9C7
  8
0
 10
5539.6421413084926826
 20
318.9161780958635859
 30
0.0
 11
5539.5863315334736399
 21
318.9182634581960087
 31
0.0
  0
ARC
  5
2E9C8
  8
0
 10
5539.489000060858416
 20
318.92481524346681
 30
0.0
 40
0.008
 50
186.7132089512340087
 51
269.1799542615121936
  0
ARC
  5
2E9C9
  8
0
 10
5539.5801333680601601
 20
318.924369192120821
 30
0.0
 40
0.0087004161547284
 50
272.7399892073760839
 51
345.4063965115839778
  0
ARC
  5
2E9CA
  8
0
 10
5539.6424400243467971
 20
318.9241725169707138
 30
0.0
 40
0.008
 50
267.8601078320813258
 51
350.9014072555809207
  0
LINE
  5
2E9CB
  8
0
 10
5539.9387672796074185
 20
318.9241291803140825
 30
0.0
 11
5539.932449272161648
 21
318.9672879490502169
 31
0.0
  0
LINE
  5
2E9CC
  8
0
 10
5540.0466363956193163
 20
318.9241291803140825
 30
0.0
 11
5540.0529544030623583
 21
318.9672879490502169
 31
0.0
  0
LINE
  5
2E9CD
  8
0
 10
5539.9466829131888517
 20
318.9172879490500918
 30
0.0
 11
5540.0387207620351546
 21
318.9172879490500918
 31
0.0
  0
ARC
  5
2E9CE
  8
0
 10
5539.9466829131888517
 20
318.9252879490501869
 30
0.0
 40
0.008
 50
188.3283668222684071
 51
270.0
  0
ARC
  5
2E9CF
  8
0
 10
5540.0387207620351546
 20
318.9252879490501869
 30
0.0
 40
0.008
 50
270.0
 51
351.6716331777412279
  0
LINE
  5
2E9D0
  8
0
 10
5540.0834916455778512
 20
318.924296107578698
 30
0.0
 11
5540.0778120288623541
 21
318.9672879490502169
 31
0.0
  0
LINE
  5
2E9D1
  8
0
 10
5540.1912383246153695
 20
318.9233023028713774
 30
0.0
 11
5540.1981577602609832
 21
318.9672879490502169
 31
0.0
  0
LINE
  5
2E9D2
  8
0
 10
5540.0913532479344212
 20
318.9173441790380821
 30
0.0
 11
5540.1832660247418971
 21
318.9165458057833007
 31
0.0
  0
ARC
  5
2E9D3
  8
0
 10
5540.0914227349549037
 20
318.9253438772544769
 30
0.0
 40
0.008
 50
187.5257183890265082
 51
269.5023296089383962
  0
ARC
  5
2E9D4
  8
0
 10
5540.1833355117632891
 20
318.9245455039998092
 30
0.0
 40
0.008
 50
269.5023296089383962
 51
351.0599961488471763
  0
LINE
  5
2E9D5
  8
0
 10
5540.280560737705855
 20
318.9241291803140825
 30
0.0
 11
5540.2742427302619035
 21
318.9672879490502169
 31
0.0
  0
LINE
  5
2E9D6
  8
0
 10
5540.4622514880984454
 20
318.9172879490500918
 30
0.0
 11
5540.2884763712891072
 21
318.9172879490500918
 31
0.0
  0
LINE
  5
2E9D7
  8
0
 10
5540.3623082646727198
 20
318.9242951674593769
 30
0.0
 11
5540.356931396238906
 21
318.9672879490502169
 31
0.0
  0
LINE
  5
2E9D8
  8
0
 10
5540.4701501513436597
 20
318.924018650454002
 30
0.0
 11
5540.4771034367631728
 21
318.9672879490502169
 31
0.0
  0
ARC
  5
2E9D9
  8
0
 10
5540.4622514880984454
 20
318.9252879490501869
 30
0.0
 40
0.008
 50
270.0
 51
350.8707387154706225
  0
ARC
  5
2E9DA
  8
0
 10
5540.370246424706238
 20
318.9252879490501869
 30
0.0
 40
0.008
 50
187.1286520248594911
 51
270.0
  0
ARC
  5
2E9DB
  8
0
 10
5540.2884763712891072
 20
318.9252879490501869
 30
0.0
 40
0.008
 50
188.3283668222620122
 51
270.0
  0
LINE
  5
2E9DC
  8
0
 10
5540.7883124711843266
 20
318.9243783413335223
 30
0.0
 11
5540.782485590862052
 21
318.9672879490502169
 31
0.0
  0
LINE
  5
2E9DD
  8
0
 10
5540.8968805040613006
 20
318.9231073042511753
 30
0.0
 11
5540.903348103863209
 21
318.9672879490502169
 31
0.0
  0
LINE
  5
2E9DE
  8
0
 10
5540.7961371633646195
 20
318.9174554732945808
 30
0.0
 11
5540.8888623183484015
 21
318.9162667303285161
 31
0.0
  0
ARC
  5
2E9DF
  8
0
 10
5540.7962397154960854
 20
318.9254548159588012
 30
0.0
 40
0.008
 50
187.7331387516807126
 51
269.2655043404839148
  0
ARC
  5
2E9E0
  8
0
 10
5540.8889648704798674
 20
318.9242660729927934
 30
0.0
 40
0.008
 50
269.2655043404839148
 51
351.6716331379686267
  0
LINE
  5
2E9E1
  8
0
 10
5541.0170232858381496
 20
318.9241291803086256
 30
0.0
 11
5541.0107052783623658
 21
318.9672879490502169
 31
0.0
  0
LINE
  5
2E9E2
  8
0
 10
5541.1248924017872923
 20
318.9241291803086256
 30
0.0
 11
5541.1312104092621666
 21
318.9672879490502169
 31
0.0
  0
LINE
  5
2E9E3
  8
0
 10
5541.0249389194195828
 20
318.9172879490500918
 30
0.0
 11
5541.1169767682049496
 21
318.9172879490500918
 31
0.0
  0
ARC
  5
2E9E4
  8
0
 10
5541.0249389194195828
 20
318.9252879490501869
 30
0.0
 40
0.008
 50
188.3283668620410083
 51
270.0
  0
ARC
  5
2E9E5
  8
0
 10
5541.1169767682049496
 20
318.9252879490501869
 30
0.0
 40
0.008
 50
270.0
 51
351.6716331379590201
  0
LINE
  5
2E9E6
  8
0
 10
5541.2143578308059659
 20
318.9241291803140825
 30
0.0
 11
5541.2080398233620144
 21
318.9672879490502169
 31
0.0
  0
LINE
  5
2E9E7
  8
0
 10
5541.3222269467160004
 20
318.9241291802961769
 30
0.0
 11
5541.3285449542627248
 21
318.9672879490502169
 31
0.0
  0
LINE
  5
2E9E8
  8
0
 10
5541.2222734643892181
 20
318.9172879490500918
 30
0.0
 11
5541.3143113131363862
 21
318.9172879490500918
 31
0.0
  0
ARC
  5
2E9E9
  8
0
 10
5541.2222734643892181
 20
318.9252879490501869
 30
0.0
 40
0.008
 50
188.3283668222620122
 51
270.0
  0
ARC
  5
2E9EA
  8
0
 10
5541.3143113131363862
 20
318.9252879490501869
 30
0.0
 40
0.008
 50
270.0
 51
351.6716330480977035
  0
LINE
  5
2E9EB
  8
0
 10
5541.3888436153056318
 20
318.9224932715281966
 30
0.0
 11
5541.3828571519616162
 21
318.9672879490502169
 31
0.0
  0
LINE
  5
2E9EC
  8
0
 10
5541.4962362694632247
 20
318.9227133327308934
 30
0.0
 11
5541.5030155125632518
 21
318.9672879490502169
 31
0.0
  0
LINE
  5
2E9ED
  8
0
 10
5541.3968048544784324
 20
318.9156787226817187
 30
0.0
 11
5541.4883589544524511
 21
318.9159162638769089
 31
0.0
  0
ARC
  5
2E9EE
  8
0
 10
5541.3984899548649992
 20
318.9257050929239767
 30
0.0
 40
0.0101669889124653
 50
198.4155679046585874
 51
260.4596396287391258
  0
ARC
  5
2E9EF
  8
0
 10
5541.4883272171728095
 20
318.9239162009232018
 30
0.0
 40
0.008
 50
270.2273021028395874
 51
351.3522958841274999
  0
LINE
  5
2E9F0
  8
0
 10
5541.609230032537198
 20
318.9234890301166843
 30
0.0
 11
5541.6030943226624004
 21
318.9672879490502169
 31
0.0
  0
LINE
  5
2E9F1
  8
0
 10
5541.7169000505336953
 20
318.9235415183524083
 30
0.0
 11
5541.723431950162194
 21
318.9672879490502169
 31
0.0
  0
LINE
  5
2E9F2
  8
0
 10
5541.7394422726174525
 20
318.9167640459240829
 30
0.0
 11
5541.617163474778863
 21
318.916598905181786
 31
0.0
  0
LINE
  5
2E9F3
  8
0
 10
5541.7473471019957287
 20
318.9236052698868207
 30
0.0
 11
5541.7537418046622406
 21
318.9672879490502169
 31
0.0
  0
ARC
  5
2E9F4
  8
0
 10
5541.739431468415205
 20
318.924764038628382
 30
0.0
 40
0.008
 50
270.0773794146899149
 51
351.671633137946003
  0
ARC
  5
2E9F5
  8
0
 10
5541.7089877637827158
 20
318.9247229236021894
 30
0.0
 40
0.008
 50
270.0773794146899149
 51
351.5077486258227282
  0
ARC
  5
2E9F6
  8
0
 10
5541.6171526705766155
 20
318.9245988978861988
 30
0.0
 40
0.008
 50
187.9745643153378012
 51
270.0773794146899149
  0
LINE
  5
2E9F7
  8
0
 10
5541.7534858339058701
 20
318.9241291803195963
 30
0.0
 11
5541.7504548155620796
 21
318.9448342873540128
 31
0.0
  0
LINE
  5
2E9F8
  8
0
 10
5541.7614014674891223
 20
318.9172879490500918
 30
0.0
 11
5541.8534393162353808
 21
318.9172879490500918
 31
0.0
  0
LINE
  5
2E9F9
  8
0
 10
5541.8613549498159045
 20
318.9241291802961769
 30
0.0
 11
5541.8676729573617195
 21
318.9672879490502169
 31
0.0
  0
ARC
  5
2E9FA
  8
0
 10
5541.7614014674891223
 20
318.9252879490501869
 30
0.0
 40
0.008
 50
188.3283667823733936
 51
270.0
  0
ARC
  5
2E9FB
  8
0
 10
5541.8534393162353808
 20
318.9252879490501869
 30
0.0
 40
0.008
 50
270.0
 51
351.6716330480622901
  0
LINE
  5
2E9FC
  8
0
 10
5546.8533009568827765
 20
318.9260346333250027
 30
0.0
 11
5546.8577280298632104
 21
318.9672879490502169
 31
0.0
  0
LINE
  5
2E9FD
  8
0
 10
5546.745539037619892
 20
318.922271504163291
 30
0.0
 11
5546.7374999438616214
 21
318.9672879490502169
 31
0.0
  0
LINE
  5
2E9FE
  8
0
 10
5546.7536936407896064
 20
318.9156827777412104
 30
0.0
 11
5546.8456258242413242
 21
318.9188931203560173
 31
0.0
  0
ARC
  5
2E9FF
  8
0
 10
5546.7546366863762159
 20
318.9251906238524157
 30
0.0
 40
0.0095545001256305
 50
197.7896325254938859
 51
264.3355854189122738
  0
ARC
  5
2EA00
  8
0
 10
5546.8453466282653608
 20
318.926888246972112
 30
0.0
 40
0.008
 50
272.0000000172626073
 51
353.8747820108159203
  0
LINE
  5
2EA01
  8
0
 10
5546.7083318293180128
 20
318.9262704261944918
 30
0.0
 11
5546.7127831568632246
 21
318.9672879490502169
 31
0.0
  0
LINE
  5
2EA02
  8
0
 10
5546.6005465170801472
 20
318.9222586844331886
 30
0.0
 11
5546.5925600755626874
 21
318.9672879490502169
 31
0.0
  0
LINE
  5
2EA03
  8
0
 10
5546.7006808726282543
 20
318.9191392546218253
 30
0.0
 11
5546.6087259288451605
 21
318.9156787226817187
 31
0.0
  0
ARC
  5
2EA04
  8
0
 10
5546.7003785258602875
 20
318.9271335392322158
 30
0.0
 40
0.008
 50
272.1659150355080783
 51
353.8063526033815265
  0
ARC
  5
2EA05
  8
0
 10
5546.6094505489691073
 20
318.9249532907429057
 30
0.0
 40
0.0093028322057229
 50
196.837266775591587
 51
265.5325677268521076
  0
LINE
  5
2EA06
  8
0
 10
5546.2830220280584399
 20
318.9244135927647221
 30
0.0
 11
5546.2878267909618444
 21
318.9672879490502169
 31
0.0
  0
LINE
  5
2EA07
  8
0
 10
5546.1754474943509194
 20
318.9222316620277979
 30
0.0
 11
5546.1676173838623072
 21
318.9672879490502169
 31
0.0
  0
LINE
  5
2EA08
  8
0
 10
5546.2752202836891229
 20
318.9173059227322256
 30
0.0
 11
5546.1834778472248217
 21
318.9156787226817187
 31
0.0
  0
ARC
  5
2EA09
  8
0
 10
5546.2750717950475519
 20
318.9253045445586281
 30
0.0
 40
0.008
 50
271.0635326280092272
 51
353.6057630525547211
  0
ARC
  5
2EA0A
  8
0
 10
5546.1846218412601957
 20
318.9252775398143172
 30
0.0
 40
0.009666747782651
 50
198.3661361031126944
 51
263.203505420596116
  0
LINE
  5
2EA0B
  8
0
 10
5546.0011582241986616
 20
318.9250825364954949
 30
0.0
 11
5546.0065141295626745
 21
318.9672879490502169
 31
0.0
  0
LINE
  5
2EA0C
  8
0
 10
5545.8933251348298654
 20
318.9232003028200211
 30
0.0
 11
5545.8886352419840478
 21
318.9520537270142881
 31
0.0
  0
LINE
  5
2EA0D
  8
0
 10
5545.9933614911178665
 20
318.918090885287711
 30
0.0
 11
5545.9013611234731798
 21
318.91648501281378
 31
0.0
  0
ARC
  5
2EA0E
  8
0
 10
5545.9932218718604418
 20
318.9260896668487817
 30
0.0
 40
0.008
 50
271.0000000518331831
 51
352.7677702035201719
  0
ARC
  5
2EA0F
  8
0
 10
5545.901221504213936
 20
318.9244837943749076
 30
0.0
 40
0.008
 50
189.2322299115550948
 51
271.0000000518331831
  0
LINE
  5
2EA10
  8
0
 10
5545.8852078756035553
 20
318.9251738193464121
 30
0.0
 11
5545.8905777062618654
 21
318.9672879490502169
 31
0.0
  0
LINE
  5
2EA11
  8
0
 10
5545.7773631005929929
 20
318.9232004699952086
 30
0.0
 11
5545.7702238715619387
 21
318.9672879490502169
 31
0.0
  0
LINE
  5
2EA12
  8
0
 10
5545.8774204631135945
 20
318.9181870555254932
 30
0.0
 11
5545.7854085679682612
 21
318.9164806532289163
 31
0.0
  0
ARC
  5
2EA13
  8
0
 10
5545.8772721249952156
 20
318.9261856801450108
 30
0.0
 40
0.008
 50
271.0624544049160818
 51
352.7336178866665932
  0
ARC
  5
2EA14
  8
0
 10
5545.7852602298480633
 20
318.9244792778483202
 30
0.0
 40
0.008
 50
189.1982467721053069
 51
271.0624544049160818
  0
LINE
  5
2EA15
  8
0
 10
5545.6067109688729033
 20
318.9238800458728065
 30
0.0
 11
5545.6118203711630485
 21
318.9672879490502169
 31
0.0
  0
LINE
  5
2EA16
  8
0
 10
5545.4992127945770335
 20
318.9221770237693931
 30
0.0
 11
5545.4916296459623481
 21
318.9672879490502169
 31
0.0
  0
LINE
  5
2EA17
  8
0
 10
5545.4374265140486386
 20
318.9229074464499263
 30
0.0
 11
5545.4303190272621578
 21
318.9672879490502169
 31
0.0
  0
LINE
  5
2EA18
  8
0
 10
5545.5988803151421962
 20
318.9168160628432247
 30
0.0
 11
5545.5072166005838881
 21
318.9156787226817187
 31
0.0
  0
LINE
  5
2EA19
  8
0
 10
5545.4456245714309262
 20
318.9161780958635859
 30
0.0
 11
5545.501598795695827
 21
318.918269602930593
 31
0.0
  0
ARC
  5
2EA1A
  8
0
 10
5545.5987658190661023
 20
318.92481524346681
 30
0.0
 40
0.008
 50
270.8200457384878064
 51
353.2867910487660197
  0
ARC
  5
2EA1B
  8
0
 10
5545.5080624251268091
 20
318.9248987062666743
 30
0.0
 40
0.0092586995018471
 50
197.0951537713970083
 51
264.7584605096598125
  0
ARC
  5
2EA1C
  8
0
 10
5545.4453258555777211
 20
318.9241725169707138
 30
0.0
 40
0.008
 50
189.098592744418994
 51
272.1398921679186742
  0
LINE
  5
2EA1D
  8
0
 10
5545.1489986003180093
 20
318.9241291803140825
 30
0.0
 11
5545.1553166077619608
 21
318.9672879490502169
 31
0.0
  0
LINE
  5
2EA1E
  8
0
 10
5545.0411294843070209
 20
318.9241291803140825
 30
0.0
 11
5545.0348114768621599
 21
318.9672879490502169
 31
0.0
  0
LINE
  5
2EA1F
  8
0
 10
5545.1410829667356666
 20
318.9172879490500918
 30
0.0
 11
5545.0490451178893636
 21
318.9172879490500918
 31
0.0
  0
ARC
  5
2EA20
  8
0
 10
5545.1410829667356666
 20
318.9252879490501869
 30
0.0
 40
0.008
 50
270.0
 51
351.6716331777315077
  0
ARC
  5
2EA21
  8
0
 10
5545.0490451178893636
 20
318.9252879490501869
 30
0.0
 40
0.008
 50
188.3283668222588005
 51
270.0
  0
LINE
  5
2EA22
  8
0
 10
5545.0042742343466671
 20
318.924296107578698
 30
0.0
 11
5545.0099538510621642
 21
318.9672879490502169
 31
0.0
  0
LINE
  5
2EA23
  8
0
 10
5544.8965275553100582
 20
318.9233023028713774
 30
0.0
 11
5544.8896081196626255
 21
318.9672879490502169
 31
0.0
  0
LINE
  5
2EA24
  8
0
 10
5544.9964126319910065
 20
318.9173441790380821
 30
0.0
 11
5544.9044998551817116
 21
318.9165458057833007
 31
0.0
  0
ARC
  5
2EA25
  8
0
 10
5544.996343144968705
 20
318.9253438772544769
 30
0.0
 40
0.008
 50
270.4976703910616038
 51
352.4742816109734918
  0
ARC
  5
2EA26
  8
0
 10
5544.9044303681612291
 20
318.9245455039998092
 30
0.0
 40
0.008
 50
188.9400038511527953
 51
270.4976703910616038
  0
LINE
  5
2EA27
  8
0
 10
5544.8072051422186632
 20
318.9241291803140825
 30
0.0
 11
5544.8135231496626147
 21
318.9672879490502169
 31
0.0
  0
LINE
  5
2EA28
  8
0
 10
5544.6255143918260728
 20
318.9172879490500918
 30
0.0
 11
5544.799289508635411
 21
318.9172879490500918
 31
0.0
  0
LINE
  5
2EA29
  8
0
 10
5544.7254576152517984
 20
318.9242951674593769
 30
0.0
 11
5544.7308344836856122
 21
318.9672879490502169
 31
0.0
  0
LINE
  5
2EA2A
  8
0
 10
5544.6176157285790396
 20
318.924018650454002
 30
0.0
 11
5544.6106624431622549
 21
318.9672879490502169
 31
0.0
  0
ARC
  5
2EA2B
  8
0
 10
5544.6255143918260728
 20
318.9252879490501869
 30
0.0
 40
0.008
 50
189.1292612845294059
 51
270.0
  0
ARC
  5
2EA2C
  8
0
 10
5544.7175194552182802
 20
318.9252879490501869
 30
0.0
 40
0.008
 50
270.0
 51
352.8713479751405089
  0
ARC
  5
2EA2D
  8
0
 10
5544.799289508635411
 20
318.9252879490501869
 30
0.0
 40
0.008
 50
270.0
 51
351.6716331777379878
  0
LINE
  5
2EA2E
  8
0
 10
5544.2994534087401917
 20
318.9243783413335223
 30
0.0
 11
5544.3052802890615567
 21
318.9672879490502169
 31
0.0
  0
LINE
  5
2EA2F
  8
0
 10
5544.1908853758632176
 20
318.9231073042511753
 30
0.0
 11
5544.1844177760622188
 21
318.9672879490502169
 31
0.0
  0
LINE
  5
2EA30
  8
0
 10
5544.2916287165598987
 20
318.9174554732945808
 30
0.0
 11
5544.1989035615770263
 21
318.9162667303285161
 31
0.0
  0
ARC
  5
2EA31
  8
0
 10
5544.2915261644284328
 20
318.9254548159588012
 30
0.0
 40
0.008
 50
270.7344956595160852
 51
352.2668612483192874
  0
ARC
  5
2EA32
  8
0
 10
5544.1988010094446508
 20
318.9242660729927934
 30
0.0
 40
0.008
 50
188.3283668620314018
 51
270.7344956595160852
  0
LINE
  5
2EA33
  8
0
 10
5544.0707425940872781
 20
318.9241291803086256
 30
0.0
 11
5544.0770606015621524
 21
318.9672879490502169
 31
0.0
  0
LINE
  5
2EA34
  8
0
 10
5543.9628734781372259
 20
318.9241291803086256
 30
0.0
 11
5543.9565554706623516
 21
318.9672879490502169
 31
0.0
  0
LINE
  5
2EA35
  8
0
 10
5544.0628269605049354
 20
318.9172879490500918
 30
0.0
 11
5543.9707891117186591
 21
318.9172879490500918
 31
0.0
  0
ARC
  5
2EA36
  8
0
 10
5544.0628269605049354
 20
318.9252879490501869
 30
0.0
 40
0.008
 50
270.0
 51
351.6716331379590201
  0
ARC
  5
2EA37
  8
0
 10
5543.9707891117186591
 20
318.9252879490501869
 30
0.0
 40
0.008
 50
188.3283668620410083
 51
270.0
  0
LINE
  5
2EA38
  8
0
 10
5543.8734080491185523
 20
318.9241291803140825
 30
0.0
 11
5543.8797260565615943
 21
318.9672879490502169
 31
0.0
  0
LINE
  5
2EA39
  8
0
 10
5543.7655389332076084
 20
318.9241291802961769
 30
0.0
 11
5543.7592209256627029
 21
318.9672879490502169
 31
0.0
  0
LINE
  5
2EA3A
  8
0
 10
5543.8654924155353001
 20
318.9172879490500918
 30
0.0
 11
5543.7734545667890416
 21
318.9172879490500918
 31
0.0
  0
ARC
  5
2EA3B
  8
0
 10
5543.8654924155353001
 20
318.9252879490501869
 30
0.0
 40
0.008
 50
270.0
 51
351.6716331777379878
  0
ARC
  5
2EA3C
  8
0
 10
5543.7734545667890416
 20
318.9252879490501869
 30
0.0
 40
0.008
 50
188.3283669519022965
 51
270.0
  0
LINE
  5
2EA3D
  8
0
 10
5543.6989222646179769
 20
318.9224932715281966
 30
0.0
 11
5543.7049087279619926
 21
318.9672879490502169
 31
0.0
  0
LINE
  5
2EA3E
  8
0
 10
5543.5915296104631125
 20
318.9227133327308934
 30
0.0
 11
5543.5847503673621759
 21
318.9672879490502169
 31
0.0
  0
LINE
  5
2EA3F
  8
0
 10
5543.6909610254460858
 20
318.9155530512841779
 30
0.0
 11
5543.5994069254738861
 21
318.9159162638769089
 31
0.0
  0
ARC
  5
2EA40
  8
0
 10
5543.6909927627239085
 20
318.9235529883305844
 30
0.0
 40
0.008
 50
269.7726978971604126
 51
352.3879645511594276
  0
ARC
  5
2EA41
  8
0
 10
5543.5994386627498898
 20
318.9239162009232018
 30
0.0
 40
0.008
 50
188.6477041158725001
 51
269.7726978971604126
  0
LINE
  5
2EA42
  8
0
 10
5543.4785358473882297
 20
318.9234890301166843
 30
0.0
 11
5543.4846715572621179
 21
318.9672879490502169
 31
0.0
  0
LINE
  5
2EA43
  8
0
 10
5543.3708658293899134
 20
318.9235415183524083
 30
0.0
 11
5543.3643339297623243
 21
318.9672879490502169
 31
0.0
  0
LINE
  5
2EA44
  8
0
 10
5543.3483236073079752
 20
318.9167640459240829
 30
0.0
 11
5543.4706024051456552
 21
318.916598905181786
 31
0.0
  0
LINE
  5
2EA45
  8
0
 10
5543.34041877792788
 20
318.9236052698868207
 30
0.0
 11
5543.3340240752622776
 21
318.9672879490502169
 31
0.0
  0
ARC
  5
2EA46
  8
0
 10
5543.3483344115093132
 20
318.924764038628382
 30
0.0
 40
0.008
 50
188.3283668620539117
 51
269.9226205853100282
  0
ARC
  5
2EA47
  8
0
 10
5543.3787781161418025
 20
318.9247229236021894
 30
0.0
 40
0.008
 50
188.4922513741773002
 51
269.9226205853100282
  0
ARC
  5
2EA48
  8
0
 10
5543.4706132093469932
 20
318.9245988978861988
 30
0.0
 40
0.008
 50
269.9226205853100282
 51
352.0254356846622272
  0
LINE
  5
2EA49
  8
0
 10
5543.3342800460186481
 20
318.9241291803195963
 30
0.0
 11
5543.3373110643624386
 21
318.9448342873540128
 31
0.0
  0
LINE
  5
2EA4A
  8
0
 10
5543.3263644124353959
 20
318.9172879490500918
 30
0.0
 11
5543.2343265636891374
 21
318.9172879490500918
 31
0.0
  0
LINE
  5
2EA4B
  8
0
 10
5543.2264109301086137
 20
318.9241291802961769
 30
0.0
 11
5543.2200929225618893
 21
318.9672879490502169
 31
0.0
  0
ARC
  5
2EA4C
  8
0
 10
5543.3263644124353959
 20
318.9252879490501869
 30
0.0
 40
0.008
 50
270.0
 51
351.6716332176266064
  0
ARC
  5
2EA4D
  8
0
 10
5543.2343265636891374
 20
318.9252879490501869
 30
0.0
 40
0.008
 50
188.3283669519377952
 51
270.0
  0
LINE
  5
2EA4E
  8
0
 10
5542.4902765666765845
 20
318.9224904411329931
 30
0.0
 11
5542.4835479201119597
 21
318.9672879490502169
 31
0.0
  0
LINE
  5
2EA4F
  8
0
 10
5542.5895780562696018
 20
318.9156787226817187
 30
0.0
 11
5542.4981878236540069
 21
318.9156787226817187
 31
0.0
  0
LINE
  5
2EA50
  8
0
 10
5542.5974893132479338
 20
318.9224904411329931
 30
0.0
 11
5542.6042179598116491
 21
318.9672879490502169
 31
0.0
  0
ARC
  5
2EA51
  8
0
 10
5542.4981878236540069
 20
318.9236787226817
 30
0.0
 40
0.008
 50
188.5420484215763111
 51
270.0
  0
ARC
  5
2EA52
  8
0
 10
5542.5895780562696018
 20
318.9236787226817
 30
0.0
 40
0.008
 50
270.0
 51
351.4579515784270143
  0
ENDSEC
  0
EOF
