  0
SECTION
  2
HEADER
  9
$ACADVER
  1
AC1009
  9
$INSBASE
 10
97.6253096975063244
 20
-0.0582300371558011
 30
0.0
  9
$EXTMIN
 10
93.6232804650189507
 20
-4.054669794605064
 30
-0.0015258207003583
  9
$EXTMAX
 10
101.6244749205445004
 20
3.9380160331249909
 30
0.0000000349246037
  9
$LIMMIN
 10
0.0
 20
0.0
  9
$LIMMAX
 10
11.6929133858000007
 20
8.2677165353999982
  9
$ORTHOMODE
 70
     1
  9
$REGENMODE
 70
     1
  9
$FILLMODE
 70
     1
  9
$QTEXTMODE
 70
     0
  9
$MIRRTEXT
 70
     0
  9
$DRAGMODE
 70
     2
  9
$LTSCALE
 40
0.6431102362
  9
$OSMODE
 70
  4095
  9
$ATTMODE
 70
     1
  9
$TEXTSIZE
 40
0.2
  9
$TRACEWID
 40
0.05
  9
$TEXTSTYLE
  7
STANDARD
  9
$CLAYER
  8
0
  9
$CELTYPE
  6
BYLAYER
  9
$CECOLOR
 62
   256
  9
$DIMSCALE
 40
1.0
  9
$DIMASZ
 40
0.1875
  9
$DIMEXO
 40
0.0625
  9
$DIMDLI
 40
0.4443307087
  9
$DIMRND
 40
0.0
  9
$DIMDLE
 40
0.0
  9
$DIMEXE
 40
0.125
  9
$DIMTP
 40
0.01
  9
$DIMTM
 40
0.01
  9
$DIMTXT
 40
1.0
  9
$DIMCEN
 40
0.1052362205
  9
$DIMTSZ
 40
0.0
  9
$DIMTOL
 70
     1
  9
$DIMLIM
 70
     0
  9
$DIMTIH
 70
     1
  9
$DIMTOH
 70
     1
  9
$DIMSE1
 70
     0
  9
$DIMSE2
 70
     0
  9
$DIMTAD
 70
     0
  9
$DIMZIN
 70
     0
  9
$DIMBLK
  1

  9
$DIMASO
 70
     1
  9
$DIMSHO
 70
     1
  9
$DIMPOST
  1
\X
  9
$DIMAPOST
  1

  9
$DIMALT
 70
     1
  9
$DIMALTD
 70
     2
  9
$DIMALTF
 40
25.3999999999999986
  9
$DIMLFAC
 40
1.0
  9
$DIMTOFL
 70
     0
  9
$DIMTVP
 40
0.0
  9
$DIMTIX
 70
     0
  9
$DIMSOXD
 70
     0
  9
$DIMSAH
 70
     0
  9
$DIMBLK1
  1

  9
$DIMBLK2
  1

  9
$DIMSTYLE
  2
STANDARD
  9
$DIMCLRD
 70
     0
  9
$DIMCLRE
 70
     0
  9
$DIMCLRT
 70
     0
  9
$DIMTFAC
 40
1.0
  9
$DIMGAP
 40
0.09
  9
$LUNITS
 70
     2
  9
$LUPREC
 70
     4
  9
$SKETCHINC
 40
0.1
  9
$FILLETRAD
 40
0.0
  9
$AUNITS
 70
     0
  9
$AUPREC
 70
     0
  9
$MENU
  1
.
  9
$ELEVATION
 40
0.0
  9
$PELEVATION
 40
0.0
  9
$THICKNESS
 40
0.0
  9
$LIMCHECK
 70
     0
  9
$BLIPMODE
 70
     0
  9
$CHAMFERA
 40
0.0
  9
$CHAMFERB
 40
0.0
  9
$SKPOLY
 70
     0
  9
$TDCREATE
 40
2458172.4620254631154239
  9
$TDUPDATE
 40
2459078.4226388889364898
  9
$TDINDWG
 40
0.0919503819
  9
$TDUSRTIMER
 40
0.0919503819
  9
$USRTIMER
 70
     1
  9
$ANGBASE
 50
0.0
  9
$ANGDIR
 70
     0
  9
$PDMODE
 70
     0
  9
$PDSIZE
 40
0.3125
  9
$PLINEWID
 40
0.0
  9
$COORDS
 70
     1
  9
$SPLFRAME
 70
     0
  9
$SPLINETYPE
 70
     6
  9
$SPLINESEGS
 70
     8
  9
$ATTDIA
 70
     1
  9
$ATTREQ
 70
     1
  9
$HANDLING
 70
     1
  9
$HANDSEED
  5
9044
  9
$SURFTAB1
 70
     6
  9
$SURFTAB2
 70
     6
  9
$SURFTYPE
 70
     6
  9
$SURFU
 70
     6
  9
$SURFV
 70
     6
  9
$UCSNAME
  2

  9
$UCSORG
 10
0.0
 20
0.0
 30
0.0
  9
$UCSXDIR
 10
1.0
 20
0.0
 30
0.0
  9
$UCSYDIR
 10
0.0
 20
1.0
 30
0.0
  9
$PUCSNAME
  2

  9
$PUCSORG
 10
0.0
 20
0.0
 30
0.0
  9
$PUCSXDIR
 10
1.0
 20
0.0
 30
0.0
  9
$PUCSYDIR
 10
0.0
 20
1.0
 30
0.0
  9
$USERI1
 70
     0
  9
$USERI2
 70
     0
  9
$USERI3
 70
     0
  9
$USERI4
 70
     0
  9
$USERI5
 70
     0
  9
$USERR1
 40
0.0
  9
$USERR2
 40
0.0
  9
$USERR3
 40
0.0
  9
$USERR4
 40
0.0
  9
$USERR5
 40
0.0
  9
$WORLDVIEW
 70
     1
  9
$SHADEDGE
 70
     3
  9
$SHADEDIF
 70
    70
  9
$TILEMODE
 70
     1
  9
$MAXACTVP
 70
    64
  9
$PLIMCHECK
 70
     0
  9
$PEXTMIN
 10
1.0000000000000000E+20
 20
1.0000000000000000E+20
 30
1.0000000000000000E+20
  9
$PEXTMAX
 10
-1.0000000000000000E+20
 20
-1.0000000000000000E+20
 30
-1.0000000000000000E+20
  9
$PLIMMIN
 10
0.0
 20
0.0
  9
$PLIMMAX
 10
12.0
 20
9.0
  9
$UNITMODE
 70
     0
  9
$VISRETAIN
 70
     1
  9
$PLINEGEN
 70
     0
  9
$PSLTSCALE
 70
     1
  0
ENDSEC
  0
SECTION
  2
TABLES
  0
TABLE
  2
VPORT
 70
     1
  0
VPORT
  2
*ACTIVE
 70
     0
 10
0.0
 20
0.0
 11
1.0
 21
1.0
 12
-26.9872809072908986
 22
-5.3706010511178599
 13
0.0
 23
0.0
 14
1.0
 24
1.0
 15
0.0
 25
0.0
 16
0.0
 26
0.0
 36
30.6214257250603907
 17
124.6111586000725993
 27
5.3122741703778242
 37
0.0
 40
8.0591991633283655
 41
2.6486111111111108
 42
50.0
 43
0.0
 44
0.0
 50
0.0
 51
0.0
 71
     0
 72
   100
 73
     1
 74
     1
 75
     0
 76
     0
 77
     0
 78
     0
  0
ENDTAB
  0
TABLE
  2
LTYPE
 70
     2
  0
LTYPE
  2
CONTINUOUS
 70
     0
  3
Solid line
 72
    65
 73
     0
 40
0.0
  0
LTYPE
  2
PHANTOM2
 70
     0
  3
___ _ _ ___ _ _ ___ _ _ ___ _ _
 72
    65
 73
     6
 40
1.25
 49
0.625
 49
-0.125
 49
0.125
 49
-0.125
 49
0.125
 49
-0.125
  0
ENDTAB
  0
TABLE
  2
LAYER
 70
     2
  0
LAYER
  2
0
 70
     0
 62
   255
  6
CONTINUOUS
  0
LAYER
  2
DEFPOINTS
 70
     0
 62
     7
  6
CONTINUOUS
  0
ENDTAB
  0
TABLE
  2
STYLE
 70
     1
  0
STYLE
  2
STANDARD
 70
     0
 40
0.0
 41
0.8
 50
0.0
 71
     0
 42
0.2
  3
txt
  4

  0
ENDTAB
  0
TABLE
  2
VIEW
 70
     0
  0
ENDTAB
  0
TABLE
  2
UCS
 70
     0
  0
ENDTAB
  0
TABLE
  2
APPID
 70
     9
  0
APPID
  2
ACAD
 70
     0
  0
APPID
  2
ACAD_MLEADERVER
 70
     0
  0
APPID
  2
ACAD_EXEMPT_FROM_CAD_STANDARDS
 70
     0
  0
APPID
  2
ACAD_DSTYLE_DIMJAG
 70
     0
  0
APPID
  2
ACAD_DSTYLE_DIMTALN
 70
     0
  0
APPID
  2
ACAD_NAV_VCDISPLAY
 70
     0
  0
APPID
  2
ACAECLAYERSTANDARD
 70
     0
  0
APPID
  2
ACCMTRANSPARENCY
 70
     0
  0
APPID
  2
ACDBATTR
 70
     0
  0
ENDTAB
  0
TABLE
  2
DIMSTYLE
 70
     1
  0
DIMSTYLE
  2
STANDARD
 70
     0
  3

  4

  5

  6

  7

 40
1.0
 41
0.1875
 42
0.0625
 43
0.38
 44
0.125
 45
0.0
 46
0.0
 47
0.01
 48
0.01
140
0.15625
141
0.09
142
0.0
143
25.3999999999999986
144
1.0
145
0.0
146
1.0
147
0.09
 71
     1
 72
     0
 73
     1
 74
     1
 75
     0
 76
     0
 77
     0
 78
     4
170
     0
171
     2
172
     0
173
     0
174
     0
175
     0
176
     0
177
     0
178
     0
  0
ENDTAB
  0
ENDSEC
  0
SECTION
  2
BLOCKS
  0
BLOCK
  8
0
  2
$MODEL_SPACE
 70
     0
 10
0.0
 20
0.0
 30
0.0
  3
$MODEL_SPACE
  1

  0
ENDBLK
  5
21
  8
0
  0
BLOCK
 67
     1
  8
0
  2
$PAPER_SPACE
 70
     0
 10
0.0
 20
0.0
 30
0.0
  3
$PAPER_SPACE
  1

  0
ENDBLK
  5
1D
 67
     1
  8
0
  0
BLOCK
  8
0
  2
_FILLED
 70
     0
 10
0.0
 20
0.0
 30
0.0
  3
_FILLED
  1

  0
SOLID
  5
3BD9
  8
0
  6
BYBLOCK
 62
     0
 10
0.0
 20
0.0
 30
0.0
 11
-1.0
 21
0.1666666667
 31
0.0
 12
-1.0
 22
-0.1666666667
 32
0.0
 13
-1.0
 23
-0.1666666667
 33
0.0
  0
ENDBLK
  5
3BDA
  8
0
  6
BYBLOCK
 62
     0
  0
BLOCK
  8
0
  2
A$C712B1F6D
 70
     0
 10
0.0
 20
0.0
 30
0.0
  3
A$C712B1F6D
  1

  0
CIRCLE
  5
8E3E
  8
0
 10
-0.0000007561255302
 20
0.0000007561255266
 30
0.0
 40
3.9960637482255978
  0
CIRCLE
  5
8E3F
  8
0
 10
-0.0000007561255302
 20
0.0000007561255266
 30
0.0
 40
3.937008630125598
  0
CIRCLE
  5
8E40
  8
0
 10
0.0
 20
-3.734251968499998
 30
0.0
 40
0.1062992125999997
  0
CIRCLE
  5
8E41
  8
0
 10
0.0
 20
-3.734251968499998
 30
0.0
 40
0.1574803150000008
  0
CIRCLE
  5
8E42
  8
0
 10
-0.0000007561255302
 20
0.0000007561255266
 30
0.0
 40
0.7185066335755753
  0
CIRCLE
  5
8E43
  8
0
 10
-0.0000007561255302
 20
0.0000007561255266
 30
0.0
 40
0.5039331631512276
  0
CIRCLE
  5
8E44
  8
0
 10
-0.0000007561255302
 20
0.0000007561255266
 30
0.0
 40
0.2933070865999987
  0
CIRCLE
  5
8E45
  8
0
 10
-0.0000007561255302
 20
0.0000007561255266
 30
0.0
 40
0.3800000826000005
  0
CIRCLE
  5
8E46
  8
0
 10
-0.0000007561255302
 20
0.0000007561255266
 30
0.0
 40
0.476062988599999
  0
LINE
  5
8E47
  8
0
 10
-0.2038716295972165
 20
0.6889771341255262
 30
0.0
 11
0.2038701173461561
 21
0.6889771341255262
 31
0.0
  0
LINE
  5
8E48
  8
0
 10
-0.2038716295972165
 20
-0.6889756218744694
 30
0.0
 11
0.2038701173461561
 21
-0.688975621874473
 31
0.0
  0
LINE
  5
8E49
  8
0
 10
-0.0222122985000084
 20
0.2113359028000001
 30
0.0
 11
-0.0182894473000062
 21
0.1740124675000008
 31
0.0
  0
LINE
  5
8E4A
  8
0
 10
0.0222122983999924
 20
-0.2113359027999984
 30
0.0
 11
0.0182894472999919
 21
-0.174012467499999
 31
0.0
  0
LINE
  5
8E4B
  8
0
 10
0.0126276877999914
 20
0.2046259795000012
 30
0.0
 11
0.0118655394999934
 21
0.2121684683999998
 31
0.0
  0
LINE
  5
8E4C
  8
0
 10
-0.0127348280000064
 20
-0.2046193395999989
 30
0.0
 11
-0.0119766291000048
 21
-0.2121622265000003
 31
0.0
  0
LINE
  5
8E4D
  8
0
 10
-0.0150000000000006
 20
-0.1140175424999992
 30
0.0
 11
-0.0150000000000006
 21
-0.1341640786999978
 31
0.0
  0
LINE
  5
8E4E
  8
0
 10
-0.0150000000000006
 20
0.114017542500001
 30
0.0
 11
-0.0150000000000006
 21
0.1341640785999996
 31
0.0
  0
LINE
  5
8E4F
  8
0
 10
0.0150000000000006
 20
-0.1341640786999978
 30
0.0
 11
0.0150000000000006
 21
-0.1140175424999992
 31
0.0
  0
LINE
  5
8E50
  8
0
 10
0.0150000000000006
 20
0.114017542500001
 30
0.0
 11
0.0150000000000006
 21
0.1341640785999996
 31
0.0
  0
LINE
  5
8E51
  8
0
 10
0.0194775658000026
 20
0.211605468800002
 30
0.0
 11
0.0176140677999968
 21
0.2042571776000006
 31
0.0
  0
LINE
  5
8E52
  8
0
 10
-0.0195883595000055
 20
-0.2115952413999995
 30
0.0
 11
-0.0177210142000064
 21
-0.204247926899999
 31
0.0
  0
LINE
  5
8E53
  8
0
 10
-0.0482249271000086
 20
-0.1681803072000001
 30
0.0
 11
-0.0585729380999993
 21
-0.2042681103999993
 31
0.0
  0
LINE
  5
8E54
  8
0
 10
0.0482249270999944
 20
0.1681803072000019
 30
0.0
 11
0.0585729380999993
 21
0.204268110400001
 31
0.0
  0
LINE
  5
8E55
  8
0
 10
-0.195202467200005
 20
0.062667749200001
 30
0.0
 11
-0.1966726689000069
 21
0.0578887841000011
 31
0.0
  0
LINE
  5
8E56
  8
0
 10
-0.1002413110000049
 20
-0.1788377184999987
 30
0.0
 11
-0.1028304003999949
 21
-0.1859627885999977
 31
0.0
  0
LINE
  5
8E57
  8
0
 10
0.1003349364999906
 20
0.1787852078000007
 30
0.0
 11
0.1029277561000015
 21
0.1859089213000011
 31
0.0
  0
LINE
  5
8E58
  8
0
 10
0.0864315366000028
 20
0.1941284097000011
 30
0.0
 11
0.0711634193999942
 21
0.1598356570000003
 31
0.0
  0
LINE
  5
8E59
  8
0
 10
-0.0864315367000046
 20
-0.1941284097999993
 30
0.0
 11
-0.0711634194000084
 21
-0.1598356570000003
 31
0.0
  0
LINE
  5
8E5A
  8
0
 10
-0.1094426120999969
 20
-0.1821498411999975
 30
0.0
 11
-0.104572746499997
 21
-0.1763399860999986
 31
0.0
  0
LINE
  5
8E5B
  8
0
 10
0.1095379704999999
 20
0.1820925122000005
 30
0.0
 11
0.1046650634999935
 21
0.1762852078000012
 31
0.0
  0
LINE
  5
8E5C
  8
0
 10
-0.1486913867000084
 20
0.1411457456999994
 30
0.0
 11
-0.1520892334000052
 21
0.1374776894000007
 31
0.0
  0
LINE
  5
8E5D
  8
0
 10
-0.1679002790000084
 20
-0.1176467011999982
 30
0.0
 11
-0.1733240239000082
 21
-0.1229432094999989
 31
0.0
  0
LINE
  5
8E5E
  8
0
 10
0.1679618556999998
 20
0.1175587727000007
 30
0.0
 11
0.1733883729999945
 21
0.1228524404000009
 31
0.0
  0
LINE
  5
8E5F
  8
0
 10
-0.1258693862999962
 20
-0.1215506533999981
 30
0.0
 11
-0.1528597076000011
 21
-0.1476149036999974
 31
0.0
  0
LINE
  5
8E60
  8
0
 10
0.1258693862999962
 20
0.1215506533999999
 30
0.0
 11
0.1528597076000011
 21
0.1476149037000027
 31
0.0
  0
LINE
  5
8E61
  8
0
 10
0.1719161112999927
 20
0.1249043660999991
 30
0.0
 11
0.1415544938000011
 21
0.1028453598000016
 31
0.0
  0
LINE
  5
8E62
  8
0
 10
-0.1719161113000069
 20
-0.1249043660999991
 30
0.0
 11
-0.1415544938000011
 21
-0.1028453597999999
 31
0.0
  0
LINE
  5
8E63
  8
0
 10
-0.1776275164000083
 20
-0.1166392532999989
 30
0.0
 11
-0.1707193509000007
 21
-0.1135171934999981
 31
0.0
  0
LINE
  5
8E64
  8
0
 10
0.1776885641999968
 20
0.116546231800001
 30
0.0
 11
0.1707787649999943
 21
0.1134277895000011
 31
0.0
  0
LINE
  5
8E65
  8
0
 10
-0.0727398040000082
 20
0.1916772572000003
 30
0.0
 11
-0.0773925312000046
 21
0.1898463750000001
 31
0.0
  0
LINE
  5
8E66
  8
0
 10
-0.2023154350000027
 20
-0.0331619476
 30
0.0
 11
-0.209499948100003
 21
-0.0355811993999993
 31
0.0
  0
LINE
  5
8E67
  8
0
 10
0.2023327707999982
 20
0.0330560108999993
 30
0.0
 11
0.2095185495999914
 21
0.0354715005999999
 31
0.0
  0
LINE
  5
8E68
  8
0
 10
-0.1697608820000056
 20
-0.0423261417000003
 30
0.0
 11
-0.206187841800002
 21
-0.0514084027999982
 31
0.0
  0
LINE
  5
8E69
  8
0
 10
0.1697608819999914
 20
0.0423261417000021
 30
0.0
 11
0.2061878417999878
 21
0.0514084027999999
 31
0.0
  0
LINE
  5
8E6A
  8
0
 10
0.2113359028000019
 20
0.0222122983999995
 30
0.0
 11
0.1740034490999989
 21
0.0182884994000006
 31
0.0
  0
LINE
  5
8E6B
  8
0
 10
-0.2113359028000019
 20
-0.0222122984999977
 30
0.0
 11
-0.1740034490999989
 21
-0.0182884995000006
 31
0.0
  0
LINE
  5
8E6C
  8
0
 10
-0.134164078699996
 20
-0.0149999999999988
 30
0.0
 11
-0.1140175425000081
 21
-0.0149999999999988
 31
0.0
  0
LINE
  5
8E6D
  8
0
 10
0.1140175424999938
 20
-0.0149999999999988
 30
0.0
 11
0.1341640785999942
 21
-0.0149999999999988
 31
0.0
  0
LINE
  5
8E6E
  8
0
 10
-0.1140175425000081
 20
0.0150000000000006
 30
0.0
 11
-0.134164078699996
 21
0.0150000000000006
 31
0.0
  0
LINE
  5
8E6F
  8
0
 10
0.1140175424999938
 20
0.0150000000000006
 30
0.0
 11
0.1341640785999942
 21
0.0150000000000006
 31
0.0
  0
LINE
  5
8E70
  8
0
 10
-0.2106426413999998
 20
-0.0280344010999976
 30
0.0
 11
-0.2030639745999991
 21
-0.0282182961999986
 31
0.0
  0
LINE
  5
8E71
  8
0
 10
0.2106572911999933
 20
0.0279241050000003
 30
0.0
 11
0.2030787217999972
 21
0.0281119682999993
 31
0.0
  0
LINE
  5
8E72
  8
0
 10
-0.0177210142000064
 20
-0.204247926899999
 30
0.0
 11
-0.0127348280000064
 21
-0.2046193395999989
 31
0.0
  0
LINE
  5
8E73
  8
0
 10
-0.1966726689000069
 20
0.0578887841000011
 30
0.0
 11
-0.2041954355999991
 21
0.0588257943000006
 31
0.0
  0
LINE
  5
8E74
  8
0
 10
0.1966423313999996
 20
-0.0579917537999979
 30
0.0
 11
0.2041646065000009
 21
-0.0589327027
 31
0.0
  0
LINE
  5
8E75
  8
0
 10
-0.1682006469000044
 20
0.0482307594000009
 30
0.0
 11
-0.2042681104000081
 21
0.0585729380999993
 31
0.0
  0
LINE
  5
8E76
  8
0
 10
0.1682006467999884
 20
-0.0482307593999991
 30
0.0
 11
0.2042681103999939
 21
-0.0585729380999993
 31
0.0
  0
LINE
  5
8E77
  8
0
 10
0.1941284096999993
 20
-0.0864315366999993
 30
0.0
 11
0.159843941099993
 21
-0.0711671077999991
 31
0.0
  0
LINE
  5
8E78
  8
0
 10
-0.1941284098000011
 20
0.086431536600001
 30
0.0
 11
-0.1598439411000072
 21
0.0711671078000009
 31
0.0
  0
LINE
  5
8E79
  8
0
 10
-0.2019510793000023
 20
0.0661211885000004
 30
0.0
 11
-0.195202467200005
 21
0.062667749200001
 31
0.0
  0
LINE
  5
8E7A
  8
0
 10
0.2019164305999936
 20
-0.0662269207999984
 30
0.0
 11
0.1951696276999968
 21
-0.062769948399998
 31
0.0
  0
LINE
  5
8E7B
  8
0
 10
-0.104572746499997
 20
-0.1763399860999986
 30
0.0
 11
-0.1002413110000049
 21
-0.1788377184999987
 31
0.0
  0
LINE
  5
8E7C
  8
0
 10
-0.1520892334000052
 20
0.1374776894000007
 30
0.0
 11
-0.1584607659000028
 21
0.1415854358999997
 31
0.0
  0
LINE
  5
8E7D
  8
0
 10
0.1520172294000019
 20
-0.1375573042999996
 30
0.0
 11
0.1583866101999973
 21
-0.141668386400001
 31
0.0
  0
LINE
  5
8E7E
  8
0
 10
0.121535954899997
 20
-0.1258541655999981
 30
0.0
 11
0.1476149037000027
 21
-0.1528597075999993
 31
0.0
  0
LINE
  5
8E7F
  8
0
 10
-0.1215359549999988
 20
0.1258541655999998
 30
0.0
 11
-0.1476149037000027
 21
0.1528597076000011
 31
0.0
  0
LINE
  5
8E80
  8
0
 10
-0.1532737365999992
 20
0.1471849573000004
 30
0.0
 11
-0.1486913867000084
 21
0.1411457456999994
 31
0.0
  0
LINE
  5
8E81
  8
0
 10
0.1531966497999946
 20
-0.1472651910999989
 30
0.0
 11
0.148617462499999
 21
-0.1412235809999984
 31
0.0
  0
LINE
  5
8E82
  8
0
 10
-0.1249043660999973
 20
0.1719161113000016
 30
0.0
 11
-0.1028400297000047
 21
0.1415471575000016
 31
0.0
  0
LINE
  5
8E83
  8
0
 10
0.1249043660999973
 20
-0.1719161112999981
 30
0.0
 11
0.1028400296999905
 21
-0.1415471575999998
 31
0.0
  0
LINE
  5
8E84
  8
0
 10
-0.1707193509000007
 20
-0.1135171934999981
 30
0.0
 11
-0.1679002790000084
 21
-0.1176467011999982
 31
0.0
  0
LINE
  5
8E85
  8
0
 10
-0.0773925312000046
 20
0.1898463750000001
 30
0.0
 11
-0.0813512828000001
 21
0.1963115350000013
 31
0.0
  0
LINE
  5
8E86
  8
0
 10
0.0772931173000018
 20
-0.1898868716000006
 30
0.0
 11
0.0812484831999996
 21
-0.1963541035999974
 31
0.0
  0
LINE
  5
8E87
  8
0
 10
0.0423312605999939
 20
-0.169781412799999
 30
0.0
 11
0.0514084027999928
 21
-0.2061878418000003
 31
0.0
  0
LINE
  5
8E88
  8
0
 10
-0.0423312606000081
 20
0.1697814128000008
 30
0.0
 11
-0.051408402800007
 21
0.206187841800002
 31
0.0
  0
LINE
  5
8E89
  8
0
 10
-0.0742485986999952
 20
0.1991064931000004
 30
0.0
 11
-0.0727398040000082
 21
0.1916772572000003
 31
0.0
  0
LINE
  5
8E8A
  8
0
 10
0.0741443365999999
 20
-0.1991453422999996
 30
0.0
 11
0.0726394319999884
 21
-0.1917153173999999
 31
0.0
  0
LINE
  5
8E8B
  8
0
 10
-0.2030639745999991
 20
-0.0282182961999986
 30
0.0
 11
-0.2023154350000027
 21
-0.0331619476
 31
0.0
  0
LINE
  5
8E8C
  8
0
 10
0.1951696276999968
 20
-0.062769948399998
 30
0.0
 11
0.1966423313999996
 21
-0.0579917537999979
 31
0.0
  0
LINE
  5
8E8D
  8
0
 10
0.148617462499999
 20
-0.1412235809999984
 30
0.0
 11
0.1520172294000019
 21
-0.1375573042999996
 31
0.0
  0
LINE
  5
8E8E
  8
0
 10
0.0726394319999884
 20
-0.1917153173999999
 30
0.0
 11
0.0772931173000018
 21
-0.1898868716000006
 31
0.0
  0
LINE
  5
8E8F
  8
0
 10
0.0176140677999968
 20
0.2042571776000006
 30
0.0
 11
0.0126276877999914
 21
0.2046259795000012
 31
0.0
  0
LINE
  5
8E90
  8
0
 10
0.1046650634999935
 20
0.1762852078000012
 30
0.0
 11
0.1003349364999906
 21
0.1787852078000007
 31
0.0
  0
LINE
  5
8E91
  8
0
 10
0.1707787649999943
 20
0.1134277895000011
 30
0.0
 11
0.1679618556999998
 21
0.1175587727000007
 31
0.0
  0
LINE
  5
8E92
  8
0
 10
0.2030787217999972
 20
0.0281119682999993
 30
0.0
 11
0.2023327707999982
 21
0.0330560108999993
 31
0.0
  0
ARC
  5
8E93
  8
0
 10
0.0
 20
0.0
 30
0.0
 40
0.2125
 50
61.0290630019996811
 51
84.7409369979998814
  0
ARC
  5
8E94
  8
0
 10
0.0
 20
0.0
 30
0.0
 40
0.2125
 50
86.7990630019995848
 51
110.450936998000401
  0
ARC
  5
8E95
  8
0
 10
0.0
 20
0.0
 30
0.0
 40
0.2125
 50
112.5090630019997064
 51
136.1609369979998121
  0
ARC
  5
8E96
  8
0
 10
0.0
 20
0.0
 30
0.0
 40
0.2125
 50
138.2190630020002118
 51
161.8709369979997916
  0
ARC
  5
8E97
  8
0
 10
0.0
 20
0.0
 30
0.0
 40
0.2125
 50
163.9290630019999924
 51
187.5809369979999985
  0
ARC
  5
8E98
  8
0
 10
0.0
 20
0.0
 30
0.0
 40
0.2125
 50
189.6390630019998866
 51
213.2909369979994949
  0
ARC
  5
8E99
  8
0
 10
0.0
 20
0.0
 30
0.0
 40
0.2125
 50
215.3490630019996104
 51
239.0009369979995881
  0
ARC
  5
8E9A
  8
0
 10
0.0
 20
0.0
 30
0.0
 40
0.2125
 50
241.0590630020003005
 51
264.7109369979996245
  0
ARC
  5
8E9B
  8
0
 10
0.0
 20
0.0
 30
0.0
 40
0.2125
 50
266.7690630020002232
 51
290.4209369979994904
  0
ARC
  5
8E9C
  8
0
 10
0.0
 20
0.0
 30
0.0
 40
0.2125
 50
292.4790630020002027
 51
316.1309369979999246
  0
ARC
  5
8E9D
  8
0
 10
0.0
 20
0.0
 30
0.0
 40
0.2125
 50
318.1890630019997843
 51
341.8409369980000179
  0
ARC
  5
8E9E
  8
0
 10
0.0
 20
0.0
 30
0.0
 40
0.2125
 50
343.8990630019998775
 51
7.5509369980001049
  0
ARC
  5
8E9F
  8
0
 10
0.0
 20
0.0
 30
0.0
 40
0.2125
 50
9.6090630020001289
 51
33.2609369980002825
  0
ARC
  5
8EA0
  8
0
 10
0.0
 20
0.0
 30
0.0
 40
0.2125
 50
35.3190630019999077
 51
58.9709369980003117
  0
CIRCLE
  5
8EA1
  8
0
 10
0.0
 20
0.0
 30
0.0
 40
0.175
  0
ARC
  5
8EA2
  8
0
 10
0.0
 20
0.0
 30
0.0
 40
0.135
 50
6.379370208399969
 51
83.620629791600436
  0
ARC
  5
8EA3
  8
0
 10
0.0
 20
0.0
 30
0.0
 40
0.135
 50
96.3793702084003741
 51
173.6206297916000949
  0
ARC
  5
8EA4
  8
0
 10
0.0
 20
0.0
 30
0.0
 40
0.135
 50
276.3793702083995072
 51
353.6206297915999812
  0
ARC
  5
8EA5
  8
0
 10
0.0
 20
0.0
 30
0.0
 40
0.135
 50
186.3793702083997914
 51
263.6206297915995833
  0
CIRCLE
  5
8EA6
  8
0
 10
0.0
 20
0.0
 30
0.0
 40
0.125
  0
CIRCLE
  5
8EA7
  8
0
 10
0.0
 20
0.0
 30
0.0
 40
0.115
  0
CIRCLE
  5
8EA8
  8
0
 10
2.6405148896000008
 20
-2.6405148895999981
 30
0.0
 40
0.1062992125999997
  0
CIRCLE
  5
8EA9
  8
0
 10
2.6405148896000008
 20
-2.6405148895999981
 30
0.0
 40
0.1574803150000008
  0
CIRCLE
  5
8EAA
  8
0
 10
3.7342519684999989
 20
0.0
 30
0.0
 40
0.1062992125999997
  0
CIRCLE
  5
8EAB
  8
0
 10
3.7342519684999989
 20
0.0
 30
0.0
 40
0.1574803150000008
  0
CIRCLE
  5
8EAC
  8
0
 10
2.6405148896000008
 20
2.6405148895999981
 30
0.0
 40
0.1062992125999997
  0
CIRCLE
  5
8EAD
  8
0
 10
2.6405148896000008
 20
2.6405148895999981
 30
0.0
 40
0.1574803150000008
  0
CIRCLE
  5
8EAE
  8
0
 10
0.0
 20
3.7342519685000002
 30
0.0
 40
0.1062992125999997
  0
CIRCLE
  5
8EAF
  8
0
 10
0.0
 20
3.7342519685000002
 30
0.0
 40
0.1574803150000008
  0
CIRCLE
  5
8EB0
  8
0
 10
-2.640514889599999
 20
2.6405148895999981
 30
0.0
 40
0.1062992125999997
  0
CIRCLE
  5
8EB1
  8
0
 10
-2.640514889599999
 20
2.6405148895999981
 30
0.0
 40
0.1574803150000008
  0
CIRCLE
  5
8EB2
  8
0
 10
-3.7342519684999989
 20
0.0
 30
0.0
 40
0.1062992125999997
  0
CIRCLE
  5
8EB3
  8
0
 10
-3.7342519684999989
 20
0.0
 30
0.0
 40
0.1574803150000008
  0
CIRCLE
  5
8EB4
  8
0
 10
-2.640514889599999
 20
-2.6405148895999981
 30
0.0
 40
0.1062992125999997
  0
CIRCLE
  5
8EB5
  8
0
 10
-2.640514889599999
 20
-2.6405148895999981
 30
0.0
 40
0.1574803150000008
  0
LINE
  5
8EB6
  8
0
 10
0.0
 20
-7.3226100724999981
 30
0.0
 11
0.0
 21
3.9377285846567283
 31
0.0
  0
ENDBLK
  5
8EB8
  8
0
  0
ENDSEC
  0
SECTION
  2
ENTITIES
  0
ATTDEF
  5
7EBE
  8
DEFPOINTS
 10
97.6256264993263301
 20
-0.0543632039522297
 30
0.0
 40
0.001
  1
K-18358A
  3

  2
MODELNUMBER
 70
     0
1001
ACDBATTR
1070
     0
1070
     1
  0
ATTDEF
  5
7EBF
  8
DEFPOINTS
 10
97.6256264993263301
 20
-0.0560298706188949
 30
0.0
 40
0.001
  1
KATALYST
  3

  2
TRADENAME
 70
     0
1001
ACDBATTR
1070
     0
1070
     1
  0
ATTDEF
  5
7EC0
  8
DEFPOINTS
 10
97.6256264993263301
 20
-0.05769653728556
 30
0.0
 40
0.001
  1
SHOWERHEAD
  3

  2
PRODUCT
 70
     0
1001
ACDBATTR
1070
     0
1070
     1
  0
CIRCLE
  5
89F4
  8
0
 10
97.6253096975063244
 20
-0.0582300371558011
 30
0.0
 40
3.9960637482255978
  0
CIRCLE
  5
89F5
  8
0
 10
97.6253096975063244
 20
-0.0582300371558011
 30
0.0
 40
3.937008630125598
  0
CIRCLE
  5
89F6
  8
0
 10
97.6253104536318546
 20
-3.7924827617813262
 30
0.0
 40
0.1062992125999997
  0
CIRCLE
  5
89F7
  8
0
 10
97.6253104536318546
 20
-3.7924827617813262
 30
0.0
 40
0.1574803150000008
  0
CIRCLE
  5
89F8
  8
0
 10
97.6253096975063244
 20
-0.0582300371558011
 30
0.0
 40
0.7185066335755753
  0
CIRCLE
  5
89F9
  8
0
 10
97.6253096975063244
 20
-0.0582300371558011
 30
0.0
 40
0.5039331631512276
  0
CIRCLE
  5
89FA
  8
0
 10
97.6253096975063244
 20
-0.0582300371558011
 30
0.0
 40
0.2933070865999987
  0
CIRCLE
  5
89FB
  8
0
 10
97.6253096975063244
 20
-0.0582300371558011
 30
0.0
 40
0.3800000826000005
  0
CIRCLE
  5
89FC
  8
0
 10
97.6253096975063244
 20
-0.0582300371558011
 30
0.0
 40
0.476062988599999
  0
LINE
  5
89FD
  8
0
 10
97.4214388240346381
 20
0.6307463408441984
 30
0.0
 11
97.8291805709780249
 21
0.6307463408441984
 31
0.0
  0
LINE
  5
89FE
  8
0
 10
97.4214388240346381
 20
-0.7472064151557971
 30
0.0
 11
97.8291805709780249
 21
-0.7472064151558007
 31
0.0
  0
LINE
  5
89FF
  8
0
 10
97.6030981551318462
 20
0.1531051095186724
 30
0.0
 11
97.6070210063318484
 21
0.115781674218673
 31
0.0
  0
LINE
  5
8A00
  8
0
 10
97.6475227520318612
 20
-0.2695666960813261
 30
0.0
 11
97.6435999009318465
 21
-0.2322432607813267
 31
0.0
  0
LINE
  5
8A01
  8
0
 10
97.6379381414318459
 20
0.1463951862186734
 30
0.0
 11
97.6371759931318479
 21
0.1539376751186721
 31
0.0
  0
LINE
  5
8A02
  8
0
 10
97.6125756256318482
 20
-0.2628501328813266
 30
0.0
 11
97.613333824531864
 21
-0.270393019781328
 31
0.0
  0
LINE
  5
8A03
  8
0
 10
97.610310453631854
 20
-0.1722483357813269
 30
0.0
 11
97.610310453631854
 21
-0.1923948719813255
 31
0.0
  0
LINE
  5
8A04
  8
0
 10
97.610310453631854
 20
0.0557867492186732
 30
0.0
 11
97.610310453631854
 21
0.0759332853186718
 31
0.0
  0
LINE
  5
8A05
  8
0
 10
97.6403104536318551
 20
-0.1923948719813255
 30
0.0
 11
97.6403104536318551
 21
-0.1722483357813269
 31
0.0
  0
LINE
  5
8A06
  8
0
 10
97.6403104536318551
 20
0.0557867492186732
 30
0.0
 11
97.6403104536318551
 21
0.0759332853186718
 31
0.0
  0
LINE
  5
8A07
  8
0
 10
97.6447880194318572
 20
0.1533746755186742
 30
0.0
 11
97.6429245214318655
 21
0.1460263843186729
 31
0.0
  0
LINE
  5
8A08
  8
0
 10
97.6057220941318491
 20
-0.2698260346813273
 30
0.0
 11
97.6075894394318482
 21
-0.2624787201813268
 31
0.0
  0
LINE
  5
8A09
  8
0
 10
97.577085526531846
 20
-0.2264111004813278
 30
0.0
 11
97.5667375155318553
 21
-0.262498903681327
 31
0.0
  0
LINE
  5
8A0A
  8
0
 10
97.6735353807318489
 20
0.1099495139186741
 30
0.0
 11
97.6838833917318539
 21
0.1460373171186733
 31
0.0
  0
LINE
  5
8A0B
  8
0
 10
97.4301079864318496
 20
0.0044369559186732
 30
0.0
 11
97.4286377847318619
 21
-0.0003420091813267
 31
0.0
  0
LINE
  5
8A0C
  8
0
 10
97.5250691426318639
 20
-0.2370685117813265
 30
0.0
 11
97.5224800532318739
 21
-0.2441935818813254
 31
0.0
  0
LINE
  5
8A0D
  8
0
 10
97.7256453901318451
 20
0.120554414518673
 30
0.0
 11
97.7282382097318703
 21
0.1276781280186734
 31
0.0
  0
LINE
  5
8A0E
  8
0
 10
97.7117419902318431
 20
0.1358976164186734
 30
0.0
 11
97.6964738730318487
 21
0.1016048637186726
 31
0.0
  0
LINE
  5
8A0F
  8
0
 10
97.53887891693185
 20
-0.2523592030813271
 30
0.0
 11
97.5541470342318462
 21
-0.2180664502813281
 31
0.0
  0
LINE
  5
8A10
  8
0
 10
97.5158678415318576
 20
-0.2403806344813253
 30
0.0
 11
97.5207377071318575
 21
-0.2345707793813263
 31
0.0
  0
LINE
  5
8A11
  8
0
 10
97.7348484241318545
 20
0.1238617189186728
 30
0.0
 11
97.7299755171318481
 21
0.1180544145186735
 31
0.0
  0
LINE
  5
8A12
  8
0
 10
97.4766190669318462
 20
0.0829149524186717
 30
0.0
 11
97.4732212202318351
 21
0.079246896118673
 31
0.0
  0
LINE
  5
8A13
  8
0
 10
97.4574101746318462
 20
-0.1758774944813259
 30
0.0
 11
97.4519864297318605
 21
-0.1811740027813267
 31
0.0
  0
LINE
  5
8A14
  8
0
 10
97.7932723093318543
 20
0.059327979418673
 30
0.0
 11
97.7986988266318349
 21
0.0646216471186731
 31
0.0
  0
LINE
  5
8A15
  8
0
 10
97.4994410673318583
 20
-0.1797814466813259
 30
0.0
 11
97.4724507460318534
 21
-0.2058456969813251
 31
0.0
  0
LINE
  5
8A16
  8
0
 10
97.7511798399318508
 20
0.0633198601186722
 30
0.0
 11
97.7781701612318557
 21
0.089384110418675
 31
0.0
  0
LINE
  5
8A17
  8
0
 10
97.7972265649318331
 20
0.0666735728186714
 30
0.0
 11
97.7668649474318556
 21
0.0446145665186739
 31
0.0
  0
LINE
  5
8A18
  8
0
 10
97.4533943423318476
 20
-0.1831351593813268
 30
0.0
 11
97.4837559598318535
 21
-0.1610761530813276
 31
0.0
  0
LINE
  5
8A19
  8
0
 10
97.4476829372318463
 20
-0.1748700465813266
 30
0.0
 11
97.4545911027318539
 21
-0.1717479867813259
 31
0.0
  0
LINE
  5
8A1A
  8
0
 10
97.8029990178318656
 20
0.0583154385186733
 30
0.0
 11
97.7960892186318631
 21
0.0551969962186734
 31
0.0
  0
LINE
  5
8A1B
  8
0
 10
97.5525706496318463
 20
0.1334464639186725
 30
0.0
 11
97.54791792243185
 21
0.1316155817186724
 31
0.0
  0
LINE
  5
8A1C
  8
0
 10
97.4229950186318661
 20
-0.0913927408813278
 30
0.0
 11
97.4158105055318657
 21
-0.093811992681327
 31
0.0
  0
LINE
  5
8A1D
  8
0
 10
97.8276432244318528
 20
-0.0251747823813284
 30
0.0
 11
97.8348290032318602
 21
-0.0227592926813278
 31
0.0
  0
LINE
  5
8A1E
  8
0
 10
97.4555495716318632
 20
-0.100556934981328
 30
0.0
 11
97.4191226118318667
 21
-0.1096391960813259
 31
0.0
  0
LINE
  5
8A1F
  8
0
 10
97.7950713356318602
 20
-0.0159046515813257
 30
0.0
 11
97.8314982954318424
 21
-0.0068223904813278
 31
0.0
  0
LINE
  5
8A20
  8
0
 10
97.8366463564318565
 20
-0.0360184948813283
 30
0.0
 11
97.7993139027318534
 21
-0.0399422938813272
 31
0.0
  0
LINE
  5
8A21
  8
0
 10
97.4139745508318668
 20
-0.0804430917813255
 30
0.0
 11
97.4513070045318557
 21
-0.0765192927813283
 31
0.0
  0
LINE
  5
8A22
  8
0
 10
97.4911463749318443
 20
-0.0732307932813265
 30
0.0
 11
97.5112929111318465
 21
-0.0732307932813265
 31
0.0
  0
LINE
  5
8A23
  8
0
 10
97.7393279961318342
 20
-0.0732307932813265
 30
0.0
 11
97.7594745322318488
 21
-0.0732307932813265
 31
0.0
  0
LINE
  5
8A24
  8
0
 10
97.5112929111318465
 20
-0.0432307932813272
 30
0.0
 11
97.4911463749318443
 21
-0.0432307932813272
 31
0.0
  0
LINE
  5
8A25
  8
0
 10
97.7393279961318342
 20
-0.0432307932813272
 30
0.0
 11
97.7594745322318488
 21
-0.0432307932813272
 31
0.0
  0
LINE
  5
8A26
  8
0
 10
97.4146678122318548
 20
-0.0862651943813253
 30
0.0
 11
97.4222464790318554
 21
-0.0864490894813264
 31
0.0
  0
LINE
  5
8A27
  8
0
 10
97.8359677448318621
 20
-0.0303066882813274
 30
0.0
 11
97.828389175431866
 21
-0.0301188249813285
 31
0.0
  0
LINE
  5
8A28
  8
0
 10
97.6075894394318482
 20
-0.2624787201813268
 30
0.0
 11
97.6125756256318482
 21
-0.2628501328813266
 31
0.0
  0
LINE
  5
8A29
  8
0
 10
97.4286377847318619
 20
-0.0003420091813267
 30
0.0
 11
97.4211150180318555
 21
0.0005950010186728
 31
0.0
  0
LINE
  5
8A2A
  8
0
 10
97.8219527850318542
 20
-0.1162225470813256
 30
0.0
 11
97.8294750601318555
 21
-0.1171634959813277
 31
0.0
  0
LINE
  5
8A2B
  8
0
 10
97.4571098067318644
 20
-0.0100000338813269
 30
0.0
 11
97.4210423432318606
 21
0.0003421448186716
 31
0.0
  0
LINE
  5
8A2C
  8
0
 10
97.7935111004318429
 20
-0.1064615526813268
 30
0.0
 11
97.8295785640318627
 21
-0.116803731381327
 31
0.0
  0
LINE
  5
8A2D
  8
0
 10
97.8194388633318539
 20
-0.144662329981327
 30
0.0
 11
97.7851543947318476
 21
-0.1293979010813269
 31
0.0
  0
LINE
  5
8A2E
  8
0
 10
97.4311820438318534
 20
0.0282007433186733
 30
0.0
 11
97.4654665125318473
 21
0.0129363145186732
 31
0.0
  0
LINE
  5
8A2F
  8
0
 10
97.4233593743318522
 20
0.0078903952186726
 30
0.0
 11
97.4301079864318496
 21
0.0044369559186732
 31
0.0
  0
LINE
  5
8A30
  8
0
 10
97.827226884231834
 20
-0.1244577140813261
 30
0.0
 11
97.8204800813318656
 21
-0.1210007416813257
 31
0.0
  0
LINE
  5
8A31
  8
0
 10
97.5207377071318575
 20
-0.2345707793813263
 30
0.0
 11
97.5250691426318639
 21
-0.2370685117813265
 31
0.0
  0
LINE
  5
8A32
  8
0
 10
97.4732212202318351
 20
0.079246896118673
 30
0.0
 11
97.466849687731866
 21
0.083354642618672
 31
0.0
  0
LINE
  5
8A33
  8
0
 10
97.7773276830318565
 20
-0.1957880975813273
 30
0.0
 11
97.7836970638318661
 21
-0.1998991796813287
 31
0.0
  0
LINE
  5
8A34
  8
0
 10
97.7468464085318658
 20
-0.1840849588813258
 30
0.0
 11
97.7729253573318573
 21
-0.2110905008813271
 31
0.0
  0
LINE
  5
8A35
  8
0
 10
97.5037744986318557
 20
0.0676233723186721
 30
0.0
 11
97.4776955499318518
 21
0.0946289143186734
 31
0.0
  0
LINE
  5
8A36
  8
0
 10
97.4720367170318553
 20
0.0889541640186726
 30
0.0
 11
97.4766190669318462
 21
0.0829149524186717
 31
0.0
  0
LINE
  5
8A37
  8
0
 10
97.7785071034318491
 20
-0.2054959843813267
 30
0.0
 11
97.7739279161318535
 21
-0.1994543742813262
 31
0.0
  0
LINE
  5
8A38
  8
0
 10
97.5004060875318572
 20
0.1136853180186739
 30
0.0
 11
97.522470423931864
 21
0.0833163642186739
 31
0.0
  0
LINE
  5
8A39
  8
0
 10
97.7502148197318519
 20
-0.2301469045813258
 30
0.0
 11
97.7281504833318451
 21
-0.1997779508813275
 31
0.0
  0
LINE
  5
8A3A
  8
0
 10
97.4545911027318539
 20
-0.1717479867813259
 30
0.0
 11
97.4574101746318462
 21
-0.1758774944813259
 31
0.0
  0
LINE
  5
8A3B
  8
0
 10
97.54791792243185
 20
0.1316155817186724
 30
0.0
 11
97.5439591708318545
 21
0.1380807417186736
 31
0.0
  0
LINE
  5
8A3C
  8
0
 10
97.7026035709318563
 20
-0.2481176648813284
 30
0.0
 11
97.7065589368318541
 21
-0.2545848968813251
 31
0.0
  0
LINE
  5
8A3D
  8
0
 10
97.6676417142318485
 20
-0.2280122060813268
 30
0.0
 11
97.6767188564318474
 21
-0.264418635081328
 31
0.0
  0
LINE
  5
8A3E
  8
0
 10
97.5829791930318464
 20
0.1115506195186731
 30
0.0
 11
97.5739020508318475
 21
0.1479570485186743
 31
0.0
  0
LINE
  5
8A3F
  8
0
 10
97.5510618549318593
 20
0.1408756998186726
 30
0.0
 11
97.5525706496318463
 21
0.1334464639186725
 31
0.0
  0
LINE
  5
8A40
  8
0
 10
97.6994547902318544
 20
-0.2573761355813273
 30
0.0
 11
97.6979498856318429
 21
-0.2499461106813277
 31
0.0
  0
LINE
  5
8A41
  8
0
 10
97.4222464790318554
 20
-0.0864490894813264
 30
0.0
 11
97.4229950186318661
 21
-0.0913927408813278
 31
0.0
  0
LINE
  5
8A42
  8
0
 10
97.8204800813318656
 20
-0.1210007416813257
 30
0.0
 11
97.8219527850318542
 21
-0.1162225470813256
 31
0.0
  0
LINE
  5
8A43
  8
0
 10
97.7739279161318535
 20
-0.1994543742813262
 30
0.0
 11
97.7773276830318565
 21
-0.1957880975813273
 31
0.0
  0
LINE
  5
8A44
  8
0
 10
97.6979498856318429
 20
-0.2499461106813277
 30
0.0
 11
97.7026035709318563
 21
-0.2481176648813284
 31
0.0
  0
LINE
  5
8A45
  8
0
 10
97.6429245214318655
 20
0.1460263843186729
 30
0.0
 11
97.6379381414318459
 21
0.1463951862186734
 31
0.0
  0
LINE
  5
8A46
  8
0
 10
97.7299755171318481
 20
0.1180544145186735
 30
0.0
 11
97.7256453901318451
 21
0.120554414518673
 31
0.0
  0
LINE
  5
8A47
  8
0
 10
97.7960892186318631
 20
0.0551969962186734
 30
0.0
 11
97.7932723093318543
 21
0.059327979418673
 31
0.0
  0
LINE
  5
8A48
  8
0
 10
97.828389175431866
 20
-0.0301188249813285
 30
0.0
 11
97.8276432244318528
 21
-0.0251747823813284
 31
0.0
  0
ARC
  5
8A49
  8
0
 10
97.6253104536318546
 20
-0.0582307932813278
 30
0.0
 40
0.2125
 50
61.0290630019996669
 51
84.740936997999853
  0
ARC
  5
8A4A
  8
0
 10
97.6253104536318546
 20
-0.0582307932813278
 30
0.0
 40
0.2125
 50
86.7990630019995848
 51
110.450936998000401
  0
ARC
  5
8A4B
  8
0
 10
97.6253104536318546
 20
-0.0582307932813278
 30
0.0
 40
0.2125
 50
112.509063001999607
 51
136.1609369979998121
  0
ARC
  5
8A4C
  8
0
 10
97.6253104536318546
 20
-0.0582307932813278
 30
0.0
 40
0.2125
 50
138.219063002000297
 51
161.8709369979995927
  0
ARC
  5
8A4D
  8
0
 10
97.6253104536318546
 20
-0.0582307932813278
 30
0.0
 40
0.2125
 50
163.9290630019999924
 51
187.5809369979999985
  0
ARC
  5
8A4E
  8
0
 10
97.6253104536318546
 20
-0.0582307932813278
 30
0.0
 40
0.2125
 50
189.6390630019998014
 51
213.290936997999296
  0
ARC
  5
8A4F
  8
0
 10
97.6253104536318546
 20
-0.0582307932813278
 30
0.0
 40
0.2125
 50
215.3490630019994967
 51
239.0009369979995881
  0
ARC
  5
8A50
  8
0
 10
97.6253104536318546
 20
-0.0582307932813278
 30
0.0
 40
0.2125
 50
241.0590630020003005
 51
264.7109369979996245
  0
ARC
  5
8A51
  8
0
 10
97.6253104536318546
 20
-0.0582307932813278
 30
0.0
 40
0.2125
 50
266.7690630020002232
 51
290.4209369979994904
  0
ARC
  5
8A52
  8
0
 10
97.6253104536318546
 20
-0.0582307932813278
 30
0.0
 40
0.2125
 50
292.4790630020002027
 51
316.1309369979999246
  0
ARC
  5
8A53
  8
0
 10
97.6253104536318546
 20
-0.0582307932813278
 30
0.0
 40
0.2125
 50
318.1890630019997275
 51
341.8409369980000179
  0
ARC
  5
8A54
  8
0
 10
97.6253104536318546
 20
-0.0582307932813278
 30
0.0
 40
0.2125
 50
343.8990630019998207
 51
7.5509369980001493
  0
ARC
  5
8A55
  8
0
 10
97.6253104536318546
 20
-0.0582307932813278
 30
0.0
 40
0.2125
 50
9.6090630020001733
 51
33.2609369980003677
  0
ARC
  5
8A56
  8
0
 10
97.6253104536318546
 20
-0.0582307932813278
 30
0.0
 40
0.2125
 50
35.3190630019999006
 51
58.9709369980003189
  0
CIRCLE
  5
8A57
  8
0
 10
97.6253104536318546
 20
-0.0582307932813278
 30
0.0
 40
0.175
  0
ARC
  5
8A58
  8
0
 10
97.6253104536318546
 20
-0.0582307932813278
 30
0.0
 40
0.135
 50
6.3793702083999451
 51
83.620629791600436
  0
ARC
  5
8A59
  8
0
 10
97.6253104536318546
 20
-0.0582307932813278
 30
0.0
 40
0.135
 50
96.3793702084003741
 51
173.6206297916002086
  0
ARC
  5
8A5A
  8
0
 10
97.6253104536318546
 20
-0.0582307932813278
 30
0.0
 40
0.135
 50
276.3793702083995072
 51
353.6206297915999812
  0
ARC
  5
8A5B
  8
0
 10
97.6253104536318546
 20
-0.0582307932813278
 30
0.0
 40
0.135
 50
186.3793702083997914
 51
263.6206297915995833
  0
CIRCLE
  5
8A5C
  8
0
 10
97.6253104536318546
 20
-0.0582307932813278
 30
0.0
 40
0.125
  0
CIRCLE
  5
8A5D
  8
0
 10
97.6253104536318546
 20
-0.0582307932813278
 30
0.0
 40
0.115
  0
CIRCLE
  5
8A5E
  8
0
 10
100.2658253432317963
 20
-2.6987456828813259
 30
0.0
 40
0.1062992125999997
  0
CIRCLE
  5
8A5F
  8
0
 10
100.2658253432317963
 20
-2.6987456828813259
 30
0.0
 40
0.1574803150000008
  0
CIRCLE
  5
8A60
  8
0
 10
101.3595624221318019
 20
-0.0582307932813278
 30
0.0
 40
0.1062992125999997
  0
CIRCLE
  5
8A61
  8
0
 10
101.3595624221318019
 20
-0.0582307932813278
 30
0.0
 40
0.1574803150000008
  0
CIRCLE
  5
8A62
  8
0
 10
100.2658253432317963
 20
2.58228409631867
 30
0.0
 40
0.1062992125999997
  0
CIRCLE
  5
8A63
  8
0
 10
100.2658253432317963
 20
2.58228409631867
 30
0.0
 40
0.1574803150000008
  0
CIRCLE
  5
8A64
  8
0
 10
97.6253104536318546
 20
3.676021175218672
 30
0.0
 40
0.1062992125999997
  0
CIRCLE
  5
8A65
  8
0
 10
97.6253104536318546
 20
3.676021175218672
 30
0.0
 40
0.1574803150000008
  0
CIRCLE
  5
8A66
  8
0
 10
94.984795564031856
 20
2.58228409631867
 30
0.0
 40
0.1062992125999997
  0
CIRCLE
  5
8A67
  8
0
 10
94.984795564031856
 20
2.58228409631867
 30
0.0
 40
0.1574803150000008
  0
CIRCLE
  5
8A68
  8
0
 10
93.8910584851318504
 20
-0.0582307932813278
 30
0.0
 40
0.1062992125999997
  0
CIRCLE
  5
8A69
  8
0
 10
93.8910584851318504
 20
-0.0582307932813278
 30
0.0
 40
0.1574803150000008
  0
CIRCLE
  5
8A6A
  8
0
 10
94.984795564031856
 20
-2.6987456828813259
 30
0.0
 40
0.1062992125999997
  0
CIRCLE
  5
8A6B
  8
0
 10
94.984795564031856
 20
-2.6987456828813259
 30
0.0
 40
0.1574803150000008
  0
ENDSEC
  0
EOF
