  0
SECTION
  2
HEADER
  9
$ACADVER
  1
AC1009
  9
$INSBASE
 10
4568.2035226273073931
 20
482.6810330392178798
 30
0.0
  9
$EXTMIN
 10
4536.5981189390922736
 20
464.9555283646698172
 30
-0.0000000349181948
  9
$EXTMAX
 10
4599.8483615651548462
 20
482.7019219736263835
 30
0.0000000814935746
  9
$LIMMIN
 10
0.0
 20
0.0
  9
$LIMMAX
 10
11.6929133858000007
 20
8.2677165353999982
  9
$ORTHOMODE
 70
     0
  9
$REGENMODE
 70
     1
  9
$FILLMODE
 70
     1
  9
$QTEXTMODE
 70
     0
  9
$MIRRTEXT
 70
     0
  9
$DRAGMODE
 70
     2
  9
$LTSCALE
 40
0.6431102362
  9
$OSMODE
 70
     7
  9
$ATTMODE
 70
     1
  9
$TEXTSIZE
 40
0.2
  9
$TRACEWID
 40
0.05
  9
$TEXTSTYLE
  7
STANDARD
  9
$CLAYER
  8
0
  9
$CELTYPE
  6
BYLAYER
  9
$CECOLOR
 62
   256
  9
$DIMSCALE
 40
1.0
  9
$DIMASZ
 40
0.1875
  9
$DIMEXO
 40
0.0625
  9
$DIMDLI
 40
0.4443307087
  9
$DIMRND
 40
0.0
  9
$DIMDLE
 40
0.0
  9
$DIMEXE
 40
0.125
  9
$DIMTP
 40
0.01
  9
$DIMTM
 40
0.01
  9
$DIMTXT
 40
2.0
  9
$DIMCEN
 40
0.1052362205
  9
$DIMTSZ
 40
0.0
  9
$DIMTOL
 70
     1
  9
$DIMLIM
 70
     0
  9
$DIMTIH
 70
     1
  9
$DIMTOH
 70
     1
  9
$DIMSE1
 70
     0
  9
$DIMSE2
 70
     0
  9
$DIMTAD
 70
     0
  9
$DIMZIN
 70
     0
  9
$DIMBLK
  1

  9
$DIMASO
 70
     1
  9
$DIMSHO
 70
     1
  9
$DIMPOST
  1
\X
  9
$DIMAPOST
  1

  9
$DIMALT
 70
     1
  9
$DIMALTD
 70
     2
  9
$DIMALTF
 40
25.3999999999999986
  9
$DIMLFAC
 40
1.0
  9
$DIMTOFL
 70
     0
  9
$DIMTVP
 40
0.0
  9
$DIMTIX
 70
     0
  9
$DIMSOXD
 70
     0
  9
$DIMSAH
 70
     0
  9
$DIMBLK1
  1

  9
$DIMBLK2
  1

  9
$DIMSTYLE
  2
STANDARD
  9
$DIMCLRD
 70
     0
  9
$DIMCLRE
 70
     0
  9
$DIMCLRT
 70
     0
  9
$DIMTFAC
 40
1.0
  9
$DIMGAP
 40
0.09
  9
$LUNITS
 70
     2
  9
$LUPREC
 70
     4
  9
$SKETCHINC
 40
0.1
  9
$FILLETRAD
 40
0.0
  9
$AUNITS
 70
     0
  9
$AUPREC
 70
     0
  9
$MENU
  1
.
  9
$ELEVATION
 40
0.0
  9
$PELEVATION
 40
0.0
  9
$THICKNESS
 40
0.0
  9
$LIMCHECK
 70
     0
  9
$BLIPMODE
 70
     0
  9
$CHAMFERA
 40
0.0
  9
$CHAMFERB
 40
0.0
  9
$SKPOLY
 70
     0
  9
$TDCREATE
 40
2458060.468368056230247
  9
$TDUPDATE
 40
2459562.4487152779474854
  9
$TDINDWG
 40
1.4512366319000001
  9
$TDUSRTIMER
 40
1.4512366319000001
  9
$USRTIMER
 70
     1
  9
$ANGBASE
 50
0.0
  9
$ANGDIR
 70
     0
  9
$PDMODE
 70
     0
  9
$PDSIZE
 40
0.3125
  9
$PLINEWID
 40
0.0
  9
$COORDS
 70
     1
  9
$SPLFRAME
 70
     0
  9
$SPLINETYPE
 70
     6
  9
$SPLINESEGS
 70
     8
  9
$ATTDIA
 70
     1
  9
$ATTREQ
 70
     1
  9
$HANDLING
 70
     1
  9
$HANDSEED
  5
18664
  9
$SURFTAB1
 70
     6
  9
$SURFTAB2
 70
     6
  9
$SURFTYPE
 70
     6
  9
$SURFU
 70
     6
  9
$SURFV
 70
     6
  9
$UCSNAME
  2

  9
$UCSORG
 10
0.0
 20
0.0
 30
0.0
  9
$UCSXDIR
 10
1.0
 20
0.0
 30
0.0
  9
$UCSYDIR
 10
0.0
 20
1.0
 30
0.0
  9
$PUCSNAME
  2

  9
$PUCSORG
 10
0.0
 20
0.0
 30
0.0
  9
$PUCSXDIR
 10
1.0
 20
0.0
 30
0.0
  9
$PUCSYDIR
 10
0.0
 20
1.0
 30
0.0
  9
$USERI1
 70
     0
  9
$USERI2
 70
     0
  9
$USERI3
 70
     0
  9
$USERI4
 70
     0
  9
$USERI5
 70
     0
  9
$USERR1
 40
0.0
  9
$USERR2
 40
0.0
  9
$USERR3
 40
0.0
  9
$USERR4
 40
0.0
  9
$USERR5
 40
0.0
  9
$WORLDVIEW
 70
     1
  9
$SHADEDGE
 70
     3
  9
$SHADEDIF
 70
    70
  9
$TILEMODE
 70
     1
  9
$MAXACTVP
 70
    64
  9
$PLIMCHECK
 70
     0
  9
$PEXTMIN
 10
1.0000000000000000E+20
 20
1.0000000000000000E+20
 30
1.0000000000000000E+20
  9
$PEXTMAX
 10
-1.0000000000000000E+20
 20
-1.0000000000000000E+20
 30
-1.0000000000000000E+20
  9
$PLIMMIN
 10
0.0
 20
0.0
  9
$PLIMMAX
 10
12.0
 20
9.0
  9
$UNITMODE
 70
     0
  9
$VISRETAIN
 70
     1
  9
$PLINEGEN
 70
     0
  9
$PSLTSCALE
 70
     1
  0
ENDSEC
  0
SECTION
  2
TABLES
  0
TABLE
  2
VPORT
 70
     1
  0
VPORT
  2
*ACTIVE
 70
     0
 10
0.0
 20
0.0
 11
1.0
 21
1.0
 12
656.857883806811401
 22
341.2491200666091231
 13
0.0
 23
0.0
 14
1.0
 24
1.0
 15
0.0
 25
0.0
 16
0.0
 26
0.0
 36
60.4960186965801583
 17
3911.3653564453120453
 27
132.5796051025390057
 37
0.0
 40
27.7898863370708007
 41
2.2831541218637992
 42
50.0
 43
0.0
 44
0.0
 50
0.0
 51
0.0
 71
     0
 72
   100
 73
     1
 74
     1
 75
     0
 76
     0
 77
     0
 78
     0
  0
ENDTAB
  0
TABLE
  2
LTYPE
 70
     2
  0
LTYPE
  2
CONTINUOUS
 70
     0
  3
Solid line
 72
    65
 73
     0
 40
0.0
  0
LTYPE
  2
PHANTOM2
 70
     0
  3
___ _ _ ___ _ _ ___ _ _ ___ _ _
 72
    65
 73
     6
 40
1.25
 49
0.625
 49
-0.125
 49
0.125
 49
-0.125
 49
0.125
 49
-0.125
  0
ENDTAB
  0
TABLE
  2
LAYER
 70
     2
  0
LAYER
  2
0
 70
     0
 62
   255
  6
CONTINUOUS
  0
LAYER
  2
DEFPOINTS
 70
     0
 62
     7
  6
CONTINUOUS
  0
ENDTAB
  0
TABLE
  2
STYLE
 70
     1
  0
STYLE
  2
STANDARD
 70
     0
 40
0.0
 41
0.8
 50
0.0
 71
     0
 42
0.2
  3
txt
  4

  0
ENDTAB
  0
TABLE
  2
VIEW
 70
     0
  0
ENDTAB
  0
TABLE
  2
UCS
 70
     0
  0
ENDTAB
  0
TABLE
  2
APPID
 70
    11
  0
APPID
  2
ACAD
 70
     0
  0
APPID
  2
ACAD_MLEADERVER
 70
     0
  0
APPID
  2
ACAD_EXEMPT_FROM_CAD_STANDARDS
 70
     0
  0
APPID
  2
ACAD_NAV_VCDISPLAY
 70
     0
  0
APPID
  2
ACAECLAYERSTANDARD
 70
     0
  0
APPID
  2
ACCMTRANSPARENCY
 70
     0
  0
APPID
  2
ACAD_DSTYLE_DIMJAG
 70
     0
  0
APPID
  2
ACAD_DSTYLE_DIMTALN
 70
     0
  0
APPID
  2
ACDBATTR
 70
     0
  0
APPID
  2
ACADANNOTATIVE
 70
     0
  0
APPID
  2
DCO15
 70
     0
  0
ENDTAB
  0
TABLE
  2
DIMSTYLE
 70
     1
  0
DIMSTYLE
  2
STANDARD
 70
     0
  3

  4

  5

  6

  7

 40
1.0
 41
0.1875
 42
0.0625
 43
0.38
 44
0.125
 45
0.0
 46
0.0
 47
0.01
 48
0.01
140
0.15625
141
0.09
142
0.0
143
25.3999999999999986
144
1.0
145
0.0
146
1.0
147
0.09
 71
     1
 72
     0
 73
     1
 74
     1
 75
     0
 76
     0
 77
     0
 78
     4
170
     0
171
     2
172
     0
173
     0
174
     0
175
     0
176
     0
177
     0
178
     0
  0
ENDTAB
  0
ENDSEC
  0
SECTION
  2
BLOCKS
  0
BLOCK
  8
0
  2
$MODEL_SPACE
 70
     0
 10
0.0
 20
0.0
 30
0.0
  3
$MODEL_SPACE
  1

  0
ENDBLK
  5
21
  8
0
  0
BLOCK
 67
     1
  8
0
  2
$PAPER_SPACE
 70
     0
 10
0.0
 20
0.0
 30
0.0
  3
$PAPER_SPACE
  1

  0
ENDBLK
  5
1D
 67
     1
  8
0
  0
ENDSEC
  0
SECTION
  2
ENTITIES
  0
ATTDEF
  5
159BF
  8
DEFPOINTS
 10
4568.2035286366399305
 20
482.6843752695083936
 30
0.0
 40
0.001
  1
18233T
  3

  2
MODELNUMBER
 70
     0
1001
ACDBATTR
1070
     0
1070
     1
  0
ATTDEF
  5
159C0
  8
DEFPOINTS
 10
4568.2035286366399305
 20
482.682708429129093
 30
0.0
 40
0.001
  1
BAIN DOUCHE
  3

  2
TRADENAME
 70
     0
1001
ACDBATTR
1070
     0
1070
     1
  0
ATTDEF
  5
159C1
  8
DEFPOINTS
 10
4568.2035286366399305
 20
482.6810419361750064
 30
0.0
 40
0.001
  1
BATH
  3

  2
PRODUCT
 70
     0
1001
ACDBATTR
1070
     0
1070
     1
  0
LINE
  5
18555
  8
0
 10
4537.0517518356109576
 20
482.6810330392178798
 30
0.0
 11
4599.3558876590359432
 21
482.6810330392178798
 31
0.0
  0
LINE
  5
18556
  8
0
 10
4599.701057608706833
 20
481.4980705727178929
 30
0.0
 11
4536.7059876459070438
 21
481.4980705727178929
 31
0.0
  0
LINE
  5
18557
  8
0
 10
4558.8678640608068235
 20
464.9581428708179942
 30
0.0
 11
4555.2615000541072732
 21
464.9581428708179942
 31
0.0
  0
LINE
  5
18558
  8
0
 10
4571.0095315502057929
 20
464.9581428708179942
 30
0.0
 11
4573.7654370620057307
 21
464.9581428708179942
 31
0.0
  0
LINE
  5
18559
  8
0
 10
4582.0738562454071143
 20
464.9581428708179942
 30
0.0
 11
4584.8297617572070521
 21
464.9581428708179942
 31
0.0
  0
LINE
  5
1855A
  8
0
 10
4585.1412280577069396
 20
464.9581428708179942
 30
0.0
 11
4587.8971335695068774
 21
464.9581428708179942
 31
0.0
  0
ARC
  5
1855B
  8
0
 10
4599.3527683469174008
 20
482.3631618689078095
 30
0.0
 40
0.317886475054306
 50
2.1486702314716788
 51
89.4377669335773362
  0
LINE
  5
1855C
  8
0
 10
4599.6704313179070596
 20
482.3750802532179023
 30
0.0
 11
4599.701057608706833
 21
481.4980705727178929
 31
0.0
  0
ARC
  5
1855D
  8
0
 10
4596.7514409654977499
 20
480.712856067568282
 30
0.0
 40
0.1479831350917117
 50
38.3525543400013618
 51
113.3185038792437069
  0
ARC
  5
1855E
  8
0
 10
4596.4876246813819307
 20
480.5003669440723115
 30
0.0
 40
0.4867279284936073
 50
12.8300593092933397
 51
38.6983995583155433
  0
ARC
  5
1855F
  8
0
 10
4595.0526983911358911
 20
480.1566818485621866
 30
0.0
 40
1.962216207305302
 50
357.5234982955610121
 51
13.3108200054148202
  0
ARC
  5
18560
  8
0
 10
4593.5390150395323872
 20
480.1314269104477148
 30
0.0
 40
3.4745769332982781
 50
346.9181583821217032
 51
359.0182734666091733
  0
ARC
  5
18561
  8
0
 10
4596.5622657101157529
 20
478.9569411135432233
 30
0.0
 40
0.1831706018729764
 50
241.4856796964722037
 51
295.0591290202789878
  0
ARC
  5
18562
  8
0
 10
4596.5401404997219288
 20
478.9919458555127108
 30
0.0
 40
0.224312252846382
 50
296.3916198756978133
 51
330.8327413499280851
  0
ARC
  5
18563
  8
0
 10
4595.6421853649571858
 20
479.5951485518712047
 30
0.0
 40
1.305428127778504
 50
326.91954953900688
 51
348.9517492814857746
  0
ARC
  5
18564
  8
0
 10
4596.9930805636568039
 20
479.3343612171282189
 30
0.0
 40
0.747284379693082
 50
184.9787082897763923
 51
226.0906156014686132
  0
ARC
  5
18565
  8
0
 10
4598.3090168471680954
 20
479.6353233784159897
 30
0.0
 40
2.0926237293674821
 50
151.7195883156877017
 51
190.067715095208996
  0
ARC
  5
18566
  8
0
 10
4596.9353518194911885
 20
480.3743601155692886
 30
0.0
 40
0.5327740868945983
 50
117.0741852799500009
 51
151.7195883156877017
  0
ARC
  5
18567
  8
0
 10
4596.2531118737251745
 20
479.1634236927595794
 30
0.0
 40
0.4291435191203728
 50
301.1070508279105979
 51
335.2763227124694936
  0
ARC
  5
18568
  8
0
 10
4593.8017312947968094
 20
480.1240382668020743
 30
0.0
 40
3.061400344491632
 50
338.1355836428538737
 51
6.7140452007078864
  0
ARC
  5
18569
  8
0
 10
4596.2558006651879623
 20
480.457109181080682
 30
0.0
 40
0.5868623189784273
 50
2.4268720551211249
 51
41.8628621690385927
  0
ARC
  5
1856A
  8
0
 10
4650.7528113288817622
 20
475.0522077606062226
 30
0.0
 40
53.3202948944774775
 50
173.0565601397177886
 51
176.1878209279798
  0
ARC
  5
1856B
  8
0
 10
4387.3622661541758134
 20
492.602823845175692
 30
0.0
 40
210.6543315611293963
 50
355.2344866064116218
 51
356.1878209279798853
  0
ARC
  5
1856C
  8
0
 10
4549.210323371139566
 20
479.1101618613470237
 30
0.0
 40
48.2448319857802517
 50
350.963092737101988
 51
355.2344866064116218
  0
ARC
  5
1856D
  8
0
 10
4586.8662437619977936
 20
473.1211827794704163
 30
0.0
 40
10.1156278119999907
 50
329.6104847625131242
 51
350.963092737101988
  0
ARC
  5
1856E
  8
0
 10
4592.5053639134266632
 20
469.4331987009147724
 30
0.0
 40
3.401532664258847
 50
275.2083378376025848
 51
335.1538164800278992
  0
ARC
  5
1856F
  8
0
 10
4590.4380008521347918
 20
500.0702440607627182
 30
0.0
 40
34.1074034022126398
 50
266.0051638416924789
 51
273.9948361583075211
  0
LINE
  5
18570
  8
0
 10
4567.2568683347071783
 20
466.619475548917876
 30
0.0
 11
4567.3196875408057167
 21
466.2632220892178907
 31
0.0
  0
LINE
  5
18571
  8
0
 10
4552.1933448722065805
 20
467.5594141574179048
 30
0.0
 11
4552.2564436635057064
 21
467.2015649908178716
 31
0.0
  0
ARC
  5
18572
  8
0
 10
4574.9734419877313485
 20
913.1491276811905209
 30
0.0
 40
446.5258006905610273
 50
267.083818547480405
 51
267.2982259669464042
  0
ARC
  5
18573
  8
0
 10
4533.2038024587373002
 20
28.0085042548331593
 30
0.0
 40
439.5998258579451772
 50
87.1238753430043573
 51
87.2982259669464469
  0
LINE
  5
18574
  8
0
 10
4555.2615000541072732
 20
467.1023137332178976
 30
0.0
 11
4555.2615000541072732
 21
464.9581428708179942
 31
0.0
  0
LINE
  5
18575
  8
0
 10
4558.017405565907211
 20
466.9615145455179004
 30
0.0
 11
4558.017405565907211
 21
464.9581428708179942
 31
0.0
  0
LINE
  5
18576
  8
0
 10
4558.8678640608068235
 20
466.8782033384180181
 30
0.0
 11
4558.8678640608068235
 21
464.9581428708179942
 31
0.0
  0
LINE
  5
18577
  8
0
 10
4571.0095315502057929
 20
466.1578792594179959
 30
0.0
 11
4571.0095315502057929
 21
464.9581428708179942
 31
0.0
  0
LINE
  5
18578
  8
0
 10
4573.7654370620057307
 20
466.0796393561179229
 30
0.0
 11
4573.7654370620057307
 21
464.9581428708179942
 31
0.0
  0
LINE
  5
18579
  8
0
 10
4582.0738562454071143
 20
465.7899877618179971
 30
0.0
 11
4582.0738562454071143
 21
464.9581428708179942
 31
0.0
  0
LINE
  5
1857A
  8
0
 10
4584.8297617572070521
 20
465.7014957389179131
 30
0.0
 11
4584.8297617572070521
 21
464.9581428708179942
 31
0.0
  0
LINE
  5
1857B
  8
0
 10
4585.1412280577069396
 20
465.7367272382178953
 30
0.0
 11
4585.1412280577069396
 21
464.9581428708179942
 31
0.0
  0
LINE
  5
1857C
  8
0
 10
4587.8971335695068774
 20
465.6741607252179165
 30
0.0
 11
4587.8971335695068774
 21
464.9581428708179942
 31
0.0
  0
ARC
  5
1857D
  8
0
 10
4557.7403347658682833
 20
466.3834083571877045
 30
0.0
 40
1.7340471863506819
 50
142.7181147339846063
 51
156.0321198838047962
  0
ARC
  5
1857E
  8
0
 10
4555.5172594932619177
 20
455.2848200172900874
 30
0.0
 40
11.8202610215135007
 50
86.9032838883649532
 51
91.2398271142691755
  0
ARC
  5
1857F
  8
0
 10
4555.4012614965859029
 20
466.3013356793920821
 30
0.0
 40
1.941297215364598
 50
22.1466037245409488
 51
34.473457431122192
  0
ARC
  5
18580
  8
0
 10
4556.6201561708594454
 20
455.7138363502565994
 30
0.0
 40
11.3341329909312893
 50
82.9186759352075882
 51
87.0708901501391068
  0
ARC
  5
18581
  8
0
 10
3867.1139133740921352
 20
-13636.5510482735899132
 30
0.0
 40
14120.3838534847600386
 50
87.1792295432093454
 51
87.195425634158525
  0
ARC
  5
18582
  8
0
 10
3824.3758604824761278
 20
-14503.949302903149146
 30
0.0
 40
14988.8343548372304213
 50
87.1680702476459572
 51
87.1792295432093454
  0
ARC
  5
18583
  8
0
 10
4571.0571702221641317
 20
590.6496107212565221
 30
0.0
 40
124.2212376465635941
 50
267.1680702476460283
 51
268.2577391282413828
  0
ARC
  5
18584
  8
0
 10
4580.9238978466373737
 20
820.0290156379661539
 30
0.0
 40
354.0272746882940851
 50
267.7977521844101148
 51
268.3952490060860896
  0
ARC
  5
18585
  8
0
 10
4567.1491374763591011
 20
421.1723042076666843
 30
0.0
 40
45.0912404212312694
 50
88.3070239467941747
 51
89.7832877938932654
  0
ARC
  5
18586
  8
0
 10
4774.0850101700598316
 20
8928.9258745067236305
 30
0.0
 40
8465.179249930255537
 50
268.6082535248556269
 51
268.6599749247910722
  0
ARC
  5
18587
  8
0
 10
4570.6308496937981545
 20
404.2434398596046208
 30
0.0
 40
61.9155974382993222
 50
87.0980585920160308
 51
89.6495712176388651
  0
ARC
  5
18588
  8
0
 10
4145.2777233142705882
 20
-13135.518273639070685
 30
0.0
 40
13608.3201492100306496
 50
88.160619828644883
 51
88.1956188673085677
  0
ARC
  5
18589
  8
0
 10
5734.22937047724281
 20
36342.5323228656270658
 30
0.0
 40
35895.2378862211407977
 50
268.160619828644883
 51
268.165518467851598
  0
ARC
  5
1858A
  8
0
 10
4585.5771689049888664
 20
424.212068585511588
 30
0.0
 40
41.5269469218013398
 50
86.7974186593639843
 51
90.6014896665902967
  0
ARC
  5
1858B
  8
0
 10
4589.7594781836569382
 20
582.0585359493368287
 30
0.0
 40
116.4483471818264064
 50
269.083636323122505
 51
270.9163636768773813
  0
LINE
  5
1858C
  8
0
 10
4591.685402836135836
 20
465.9856587599031172
 30
0.0
 11
4591.621822797806999
 21
465.625081848217917
 31
0.0
  0
ARC
  5
1858D
  8
0
 10
4562.0240178439153169
 20
-148.6747744807346976
 30
0.0
 40
614.8980906626894694
 50
87.8864692475165157
 51
88.6863639912870241
  0
ARC
  5
1858E
  8
0
 10
4596.4185284546256298
 20
783.3042694291880252
 30
0.0
 40
317.7153987569114975
 50
267.8864692475165157
 51
269.1349445685787032
  0
ARC
  5
1858F
  8
0
 10
4501.6827450438477172
 20
-1953.2364707065469247
 30
0.0
 40
2420.8237486321381766
 50
87.9551550375605302
 51
88.1078896601071477
  0
ARC
  5
18590
  8
0
 10
4535.6424701463065503
 20
-1115.167819734502018
 30
0.0
 40
1582.1031943880429935
 50
88.3349663955693956
 51
88.8550101136693655
  0
ARC
  5
18591
  8
0
 10
4552.1389962700559408
 20
472.2261778697883869
 30
0.0
 40
4.7152839177608019
 50
210.3741338854786989
 51
236.3021051221410005
  0
ARC
  5
18592
  8
0
 10
4551.5142720218527757
 20
470.7949438682301775
 30
0.0
 40
3.1897452427650879
 50
231.3686510305768138
 51
258.7429170195130155
  0
ARC
  5
18593
  8
0
 10
4552.7481041234977965
 20
482.2598309482099808
 30
0.0
 40
14.7108807231210896
 50
262.7499635457905924
 51
267.8388172089785257
  0
ARC
  5
18594
  8
0
 10
4552.4913439323336206
 20
408.2650894408005229
 30
0.0
 40
59.2950735478041793
 50
86.2585343025181288
 51
90.2879524267139857
  0
ARC
  5
18595
  8
0
 10
4554.0781067936313775
 20
417.7962381524573061
 30
0.0
 40
49.6899976273462372
 50
86.6270240340946032
 51
87.3671951388541856
  0
ARC
  5
18596
  8
0
 10
4719.9388927934805906
 20
3530.6248680683070233
 30
0.0
 40
3067.5550811273519685
 50
266.9552259650703832
 51
267.0929286049495772
  0
ARC
  5
18597
  8
0
 10
4564.2178621163711796
 20
460.2501232302905123
 30
0.0
 40
6.7688646901785141
 50
82.7193089938538293
 51
88.7616049172483059
  0
ARC
  5
18598
  8
0
 10
4565.796589032990596
 20
470.602849735897621
 30
0.0
 40
3.7091691146913051
 50
258.7927811688164184
 51
269.3082155917525142
  0
ARC
  5
18599
  8
0
 10
4562.2595497415941281
 20
454.2905983848896767
 30
0.0
 40
13.0782395546962906
 50
71.998783947363151
 51
74.5125080660607182
  0
ARC
  5
1859A
  8
0
 10
4566.937433542778308
 20
468.6511013754716828
 30
0.0
 40
2.024985944556708
 50
251.6883404890633926
 51
267.6188020967521197
  0
ARC
  5
1859B
  8
0
 10
4567.867508557527799
 20
486.4875321498224139
 30
0.0
 40
19.8855485087166706
 50
267.0765151526135242
 51
268.2444463707407181
  0
ARC
  5
1859C
  8
0
 10
4568.0535372447293412
 20
481.7489639931617944
 30
0.0
 40
23.2611812258344308
 50
204.3088532036709069
 51
210.7894502164515131
  0
ARC
  5
1859D
  8
0
 10
4546.224791249151167
 20
471.8888464144408772
 30
0.0
 40
0.6911896464965035
 50
24.3088532036709317
 51
50.6031333133384891
  0
ARC
  5
1859E
  8
0
 10
4572.8812510882171409
 20
499.8962359199909997
 30
0.0
 40
37.9756695367543315
 50
208.9779140101423138
 51
226.3395381278639888
  0
ARC
  5
1859F
  8
0
 10
4537.0543094477561681
 20
482.3631218076089908
 30
0.0
 40
0.3179215195028628
 50
90.4609375371040585
 51
177.8353805650714037
  0
LINE
  5
185A0
  8
0
 10
4536.7366147873071895
 20
482.3751299417180007
 30
0.0
 11
4536.7059876459070438
 21
481.4980705727180066
 31
0.0
  0
ENDSEC
  0
EOF
