  0
SECTION
  2
HEADER
  9
$ACADVER
  1
AC1009
  9
$INSBASE
 10
4296.673779060058223
 20
414.0776493430906839
 30
0.0
  9
$EXTMIN
 10
4262.9909704006859101
 20
399.2888261291151935
 30
-0.0000000000000058
  9
$EXTMAX
 10
4330.4025707027212775
 20
428.8488294661195255
 30
0.0000000000000104
  9
$LIMMIN
 10
0.0
 20
0.0
  9
$LIMMAX
 10
11.6929133858000007
 20
8.2677165353999982
  9
$ORTHOMODE
 70
     0
  9
$REGENMODE
 70
     1
  9
$FILLMODE
 70
     1
  9
$QTEXTMODE
 70
     0
  9
$MIRRTEXT
 70
     0
  9
$DRAGMODE
 70
     2
  9
$LTSCALE
 40
0.6431102362
  9
$OSMODE
 70
    19
  9
$ATTMODE
 70
     1
  9
$TEXTSIZE
 40
0.2
  9
$TRACEWID
 40
0.05
  9
$TEXTSTYLE
  7
STANDARD
  9
$CLAYER
  8
0
  9
$CELTYPE
  6
BYLAYER
  9
$CECOLOR
 62
   256
  9
$DIMSCALE
 40
1.0
  9
$DIMASZ
 40
0.1875
  9
$DIMEXO
 40
0.0625
  9
$DIMDLI
 40
0.4443307087
  9
$DIMRND
 40
0.0
  9
$DIMDLE
 40
0.0
  9
$DIMEXE
 40
0.125
  9
$DIMTP
 40
0.01
  9
$DIMTM
 40
0.01
  9
$DIMTXT
 40
2.0
  9
$DIMCEN
 40
0.1052362205
  9
$DIMTSZ
 40
0.0
  9
$DIMTOL
 70
     1
  9
$DIMLIM
 70
     0
  9
$DIMTIH
 70
     1
  9
$DIMTOH
 70
     1
  9
$DIMSE1
 70
     0
  9
$DIMSE2
 70
     0
  9
$DIMTAD
 70
     0
  9
$DIMZIN
 70
     0
  9
$DIMBLK
  1

  9
$DIMASO
 70
     1
  9
$DIMSHO
 70
     1
  9
$DIMPOST
  1
\X
  9
$DIMAPOST
  1

  9
$DIMALT
 70
     1
  9
$DIMALTD
 70
     2
  9
$DIMALTF
 40
25.3999999999999986
  9
$DIMLFAC
 40
1.0
  9
$DIMTOFL
 70
     0
  9
$DIMTVP
 40
0.0
  9
$DIMTIX
 70
     0
  9
$DIMSOXD
 70
     0
  9
$DIMSAH
 70
     0
  9
$DIMBLK1
  1

  9
$DIMBLK2
  1

  9
$DIMSTYLE
  2
STANDARD
  9
$DIMCLRD
 70
     0
  9
$DIMCLRE
 70
     0
  9
$DIMCLRT
 70
     0
  9
$DIMTFAC
 40
1.0
  9
$DIMGAP
 40
0.09
  9
$LUNITS
 70
     2
  9
$LUPREC
 70
     4
  9
$SKETCHINC
 40
0.1
  9
$FILLETRAD
 40
0.0
  9
$AUNITS
 70
     0
  9
$AUPREC
 70
     0
  9
$MENU
  1
.
  9
$ELEVATION
 40
0.0
  9
$PELEVATION
 40
0.0
  9
$THICKNESS
 40
0.0
  9
$LIMCHECK
 70
     0
  9
$BLIPMODE
 70
     0
  9
$CHAMFERA
 40
0.0
  9
$CHAMFERB
 40
0.0
  9
$SKPOLY
 70
     0
  9
$TDCREATE
 40
2458060.468368056230247
  9
$TDUPDATE
 40
2459137.6194907408207655
  9
$TDINDWG
 40
1.1116274306
  9
$TDUSRTIMER
 40
1.1116274306
  9
$USRTIMER
 70
     1
  9
$ANGBASE
 50
0.0
  9
$ANGDIR
 70
     0
  9
$PDMODE
 70
     0
  9
$PDSIZE
 40
0.3125
  9
$PLINEWID
 40
0.0
  9
$COORDS
 70
     1
  9
$SPLFRAME
 70
     0
  9
$SPLINETYPE
 70
     6
  9
$SPLINESEGS
 70
     8
  9
$ATTDIA
 70
     1
  9
$ATTREQ
 70
     1
  9
$HANDLING
 70
     1
  9
$HANDSEED
  5
16739
  9
$SURFTAB1
 70
     6
  9
$SURFTAB2
 70
     6
  9
$SURFTYPE
 70
     6
  9
$SURFU
 70
     6
  9
$SURFV
 70
     6
  9
$UCSNAME
  2

  9
$UCSORG
 10
0.0
 20
0.0
 30
0.0
  9
$UCSXDIR
 10
1.0
 20
0.0
 30
0.0
  9
$UCSYDIR
 10
0.0
 20
1.0
 30
0.0
  9
$PUCSNAME
  2

  9
$PUCSORG
 10
0.0
 20
0.0
 30
0.0
  9
$PUCSXDIR
 10
1.0
 20
0.0
 30
0.0
  9
$PUCSYDIR
 10
0.0
 20
1.0
 30
0.0
  9
$USERI1
 70
     0
  9
$USERI2
 70
     0
  9
$USERI3
 70
     0
  9
$USERI4
 70
     0
  9
$USERI5
 70
     0
  9
$USERR1
 40
0.0
  9
$USERR2
 40
0.0
  9
$USERR3
 40
0.0
  9
$USERR4
 40
0.0
  9
$USERR5
 40
0.0
  9
$WORLDVIEW
 70
     1
  9
$SHADEDGE
 70
     3
  9
$SHADEDIF
 70
    70
  9
$TILEMODE
 70
     1
  9
$MAXACTVP
 70
    64
  9
$PLIMCHECK
 70
     0
  9
$PEXTMIN
 10
1.0000000000000000E+20
 20
1.0000000000000000E+20
 30
1.0000000000000000E+20
  9
$PEXTMAX
 10
-1.0000000000000000E+20
 20
-1.0000000000000000E+20
 30
-1.0000000000000000E+20
  9
$PLIMMIN
 10
0.0
 20
0.0
  9
$PLIMMAX
 10
12.0
 20
9.0
  9
$UNITMODE
 70
     0
  9
$VISRETAIN
 70
     1
  9
$PLINEGEN
 70
     0
  9
$PSLTSCALE
 70
     1
  0
ENDSEC
  0
SECTION
  2
TABLES
  0
TABLE
  2
VPORT
 70
     1
  0
VPORT
  2
*ACTIVE
 70
     0
 10
0.0
 20
0.0
 11
1.0
 21
1.0
 12
385.3314141063910938
 22
281.489222695078297
 13
0.0
 23
0.0
 14
1.0
 24
1.0
 15
0.0
 25
0.0
 16
0.0
 26
0.0
 36
60.4960186965801583
 17
3911.3653564453120453
 27
132.5796051025390057
 37
0.0
 40
35.0972752916183097
 41
1.926706827309236
 42
50.0
 43
0.0
 44
0.0
 50
0.0
 51
0.0
 71
     0
 72
   100
 73
     1
 74
     1
 75
     0
 76
     0
 77
     0
 78
     0
  0
ENDTAB
  0
TABLE
  2
LTYPE
 70
     2
  0
LTYPE
  2
CONTINUOUS
 70
     0
  3
Solid line
 72
    65
 73
     0
 40
0.0
  0
LTYPE
  2
PHANTOM2
 70
     0
  3
___ _ _ ___ _ _ ___ _ _ ___ _ _
 72
    65
 73
     6
 40
1.25
 49
0.625
 49
-0.125
 49
0.125
 49
-0.125
 49
0.125
 49
-0.125
  0
ENDTAB
  0
TABLE
  2
LAYER
 70
     2
  0
LAYER
  2
0
 70
     0
 62
   255
  6
CONTINUOUS
  0
LAYER
  2
DEFPOINTS
 70
     0
 62
     7
  6
CONTINUOUS
  0
ENDTAB
  0
TABLE
  2
STYLE
 70
     1
  0
STYLE
  2
STANDARD
 70
     0
 40
0.0
 41
0.8
 50
0.0
 71
     0
 42
0.2
  3
txt
  4

  0
ENDTAB
  0
TABLE
  2
VIEW
 70
     0
  0
ENDTAB
  0
TABLE
  2
UCS
 70
     0
  0
ENDTAB
  0
TABLE
  2
APPID
 70
    10
  0
APPID
  2
ACAD
 70
     0
  0
APPID
  2
ACAD_MLEADERVER
 70
     0
  0
APPID
  2
ACAD_EXEMPT_FROM_CAD_STANDARDS
 70
     0
  0
APPID
  2
ACAD_NAV_VCDISPLAY
 70
     0
  0
APPID
  2
ACAECLAYERSTANDARD
 70
     0
  0
APPID
  2
ACCMTRANSPARENCY
 70
     0
  0
APPID
  2
ACAD_DSTYLE_DIMJAG
 70
     0
  0
APPID
  2
ACAD_DSTYLE_DIMTALN
 70
     0
  0
APPID
  2
ACDBATTR
 70
     0
  0
APPID
  2
ACADANNOTATIVE
 70
     0
  0
ENDTAB
  0
TABLE
  2
DIMSTYLE
 70
     1
  0
DIMSTYLE
  2
STANDARD
 70
     0
  3

  4

  5

  6

  7

 40
1.0
 41
0.1875
 42
0.0625
 43
0.38
 44
0.125
 45
0.0
 46
0.0
 47
0.01
 48
0.01
140
0.15625
141
0.09
142
0.0
143
25.3999999999999986
144
1.0
145
0.0
146
1.0
147
0.09
 71
     1
 72
     0
 73
     1
 74
     1
 75
     0
 76
     0
 77
     0
 78
     4
170
     0
171
     2
172
     0
173
     0
174
     0
175
     0
176
     0
177
     0
178
     0
  0
ENDTAB
  0
ENDSEC
  0
SECTION
  2
BLOCKS
  0
BLOCK
  8
0
  2
$MODEL_SPACE
 70
     0
 10
0.0
 20
0.0
 30
0.0
  3
$MODEL_SPACE
  1

  0
ENDBLK
  5
21
  8
0
  0
BLOCK
 67
     1
  8
0
  2
$PAPER_SPACE
 70
     0
 10
0.0
 20
0.0
 30
0.0
  3
$PAPER_SPACE
  1

  0
ENDBLK
  5
1D
 67
     1
  8
0
  0
ENDSEC
  0
SECTION
  2
ENTITIES
  0
ATTDEF
  5
159BF
  8
0
 10
4296.6745677838825941
 20
414.0760873132911115
 30
0.0
 40
0.001
  1
K-18204T
  3

  2
MODELNUMBER
 70
     0
1001
ACDBATTR
1070
     0
1070
     1
  0
ATTDEF
  5
159C0
  8
0
 10
4296.6744419742262835
 20
414.0744204729119247
 30
0.0
 40
0.001
  1
DIAPASON
  3

  2
TRADENAME
 70
     0
1001
ACDBATTR
1070
     0
1070
     1
  0
ATTDEF
  5
159C1
  8
0
 10
4296.6745677838825941
 20
414.0727539799577244
 30
0.0
 40
0.001
  1
BATH
  3

  2
PRODUCT
 70
     0
1001
ACDBATTR
1070
     0
1070
     1
  0
LINE
  5
16630
  8
0
 10
4263.9906749112078614
 20
428.8414984932406924
 30
0.0
 11
4329.356883208907675
 21
428.8414984932406924
 31
0.0
  0
LINE
  5
16631
  8
0
 10
4330.1384156118083411
 20
428.059966090440696
 30
0.0
 11
4330.1384156118083411
 21
400.0905745361006893
 31
0.0
  0
LINE
  5
16632
  8
0
 10
4263.2091425083081049
 20
428.059966090440696
 30
0.0
 11
4263.2091425083081049
 21
400.0905745357630963
 31
0.0
  0
LINE
  5
16633
  8
0
 10
4267.3062164039083655
 20
420.6100225515406805
 30
0.0
 11
4267.3062164039083655
 21
407.4432443888578064
 31
0.0
  0
ARC
  5
16634
  8
0
 10
4296.6860015933780232
 20
194.5235957066865922
 30
0.0
 40
232.7292270954201001
 50
83.6801823063359507
 51
96.276384408949184
  0
ARC
  5
16635
  8
0
 10
4271.6050195927491586
 20
422.0863875960953919
 30
0.0
 40
3.7888177522948219
 50
95.4834478755690981
 51
117.0820756301316976
  0
ARC
  5
16636
  8
0
 10
4271.9882007150172285
 20
421.4571072659227866
 30
0.0
 40
4.5268375959034932
 50
121.2155564613957068
 51
159.9328324315933116
  0
ARC
  5
16637
  8
0
 10
4274.4857983688289096
 20
420.5447388495803125
 30
0.0
 40
7.1858618845226934
 50
159.9328324315933116
 51
176.4672835261586954
  0
ARC
  5
16638
  8
0
 10
4274.3601087924171225
 20
420.6610384244320926
 30
0.0
 40
7.0540768671706724
 50
177.3472445036794909
 51
180.4143730981294027
  0
LINE
  5
16639
  8
0
 10
4268.9247345766079889
 20
418.0999259056407027
 30
0.0
 11
4268.9247345766079889
 21
410.0553727805406083
 31
0.0
  0
ARC
  5
1663A
  8
0
 10
4273.6220335654970768
 20
417.9820598652901822
 30
0.0
 40
4.6987775212798431
 50
95.4791600712524371
 51
178.5626186706597025
  0
ARC
  5
1663B
  8
0
 10
4297.5528266446917769
 20
178.364149118008612
 30
0.0
 40
245.5086797895233133
 50
86.3121310553445795
 51
95.6989654848506746
  0
ARC
  5
1663C
  8
0
 10
4312.6837947606472881
 20
418.7094927406945999
 30
0.0
 40
4.7015636799552754
 50
10.9331454004582405
 51
81.9252975539790071
  0
ARC
  5
1663D
  8
0
 10
4287.7187204111278334
 20
414.077649343090286
 30
0.0
 40
30.0925746064777613
 50
349.4232657787011931
 51
10.5767342213051805
  0
ARC
  5
1663E
  8
0
 10
4321.9631745166143446
 20
422.4487073446921954
 30
0.0
 40
3.4069363720710788
 50
1.505009350065033
 51
84.2519641839246987
  0
ARC
  5
1663F
  8
0
 10
4235.9764383657638973
 20
414.0776296775287051
 30
0.0
 40
89.7919796821433067
 50
354.5933561718982787
 51
5.4066573892590464
  0
CIRCLE
  5
16640
  8
0
 10
4274.7068499262068144
 20
414.0776493431407062
 30
0.0
 40
1.0236220120539159
  0
ARC
  5
16641
  8
0
 10
4263.9882958811185745
 20
428.062345120429427
 30
0.0
 40
0.7791570048118923
 50
89.8250563180843642
 51
180.174943674564787
  0
ARC
  5
16642
  8
0
 10
4329.3592622388268865
 20
428.0623451202599199
 30
0.0
 40
0.7791570049808266
 50
359.8250563379352229
 51
90.1749436694091457
  0
ARC
  5
16643
  8
0
 10
4271.6449128529111476
 20
421.9056213529086108
 30
0.0
 40
4.0663698070730154
 50
117.2700619559952031
 51
121.0881987201703964
  0
LINE
  5
16644
  8
0
 10
4269.781762497607815
 20
425.5200416586407073
 30
0.0
 11
4271.4407216157069342
 21
424.5034302035406881
 31
0.0
  0
LINE
  5
16645
  8
0
 10
4269.5452145354083768
 20
425.3879525237406938
 30
0.0
 11
4271.3172967579066608
 21
424.3020191411407041
 31
0.0
  0
LINE
  5
16646
  8
0
 10
4271.4407216157069342
 20
424.5034302035406881
 30
0.0
 11
4271.3172967579066608
 21
424.3020191411407041
 31
0.0
  0
LINE
  5
16647
  8
0
 10
4270.2995918805072506
 20
425.2027154046406849
 30
0.0
 11
4270.1761670227078866
 21
425.0013043422425767
 31
0.0
  0
LINE
  5
16648
  8
0
 10
4270.0498729086084495
 20
425.3557433874407252
 30
0.0
 11
4269.926448050808176
 21
425.1543323250406843
 31
0.0
  0
LINE
  5
16649
  8
0
 10
4270.3916909877070793
 20
425.1462769991405821
 30
0.0
 11
4270.2682661299077154
 21
424.9448659367407117
 31
0.0
  0
LINE
  5
1664A
  8
0
 10
4315.9243480839777476
 20
422.1158860232313259
 30
0.0
 11
4324.4597721820673542
 21
424.7669427814399228
 31
0.0
  0
ARC
  5
1664B
  8
0
 10
4265.7785867896091077
 20
414.5158546344467823
 30
0.0
 40
1.919021748287135
 50
3.2953836192065231
 51
14.9675942904996298
  0
ARC
  5
1664C
  8
0
 10
4267.4173222580056972
 20
414.9567628659244178
 30
0.0
 40
0.2220271710421185
 50
14.2686267979723294
 51
37.3609891231975624
  0
ARC
  5
1664D
  8
0
 10
4273.6659217851592985
 20
414.0709980954511025
 30
0.0
 40
6.233375416155674
 50
172.6343899835354136
 51
186.7935120657805896
  0
ARC
  5
1664E
  8
0
 10
4267.5734313337006824
 20
415.075197592896302
 30
0.0
 40
0.0260838322879106
 50
38.6728836142791224
 51
155.1716200710762052
  0
ARC
  5
1664F
  8
0
 10
4268.0956380370616898
 20
414.8019144717694076
 30
0.0
 40
0.6154465896574165
 50
152.4943158361606095
 51
173.6373409217924006
  0
ARC
  5
16650
  8
0
 10
4268.2507553760497103
 20
413.4116459290356147
 30
0.0
 40
0.7783623160417504
 50
185.7515333938256958
 51
206.5324626539519954
  0
ARC
  5
16651
  8
0
 10
4267.5744555403298364
 20
413.0792301335657157
 30
0.0
 40
0.0252391969830998
 50
217.2649682919517886
 51
329.0228240750889199
  0
ARC
  5
16652
  8
0
 10
4266.7805627639536397
 20
413.4515749192908061
 30
0.0
 40
0.9019844899499478
 50
334.7094743799297021
 51
356.8613942868802269
  0
ARC
  5
16653
  8
0
 10
4271.8413130576918775
 20
419.8807090100144137
 30
0.0
 40
4.6610403422467401
 50
99.9044049943727259
 51
166.2633108825004911
  0
ARC
  5
16654
  8
0
 10
4296.6382902231252956
 20
221.9420159416347076
 30
0.0
 40
203.7484887514708873
 50
86.247812844339137
 51
93.8612100621626269
  0
ARC
  5
16655
  8
0
 10
4319.7390096968865691
 20
566.726186836728175
 30
0.0
 40
141.8091910182023128
 50
266.0506015232959953
 51
268.6314699559433734
  0
ARC
  5
16656
  8
0
 10
4319.9091521692007518
 20
342.1410540035927852
 30
0.0
 40
82.8927431213230363
 50
88.9977598915168358
 51
92.4593555396255056
  0
ARC
  5
16657
  8
0
 10
4319.552948846640902
 20
419.572156637404305
 30
0.0
 40
5.7404902331276251
 50
54.8926236776335514
 51
71.6616148023928616
  0
ARC
  5
16658
  8
0
 10
4160.7464719989238802
 20
2442.2668611006301944
 30
0.0
 40
2020.7354015294579312
 50
273.1499997566363049
 51
273.4661533344975055
  0
ARC
  5
16659
  8
0
 10
4272.2444179687945507
 20
419.0032778764356181
 30
0.0
 40
5.6000903707075356
 50
94.6929948786366538
 51
98.8199078239426569
  0
LINE
  5
1665A
  8
0
 10
4263.9906749112078614
 20
399.3138001929407892
 30
0.0
 11
4329.356883208907675
 21
399.3138001929407892
 31
0.0
  0
ARC
  5
1665B
  8
0
 10
4296.6860015933780232
 20
633.6317029794948894
 30
0.0
 40
232.7292270954201001
 50
263.723615591050816
 51
276.3198176936639925
  0
ARC
  5
1665C
  8
0
 10
4271.6050195927491586
 20
406.068911090085976
 30
0.0
 40
3.7888177522948219
 50
242.9179243698683024
 51
264.5165521244309161
  0
ARC
  5
1665D
  8
0
 10
4271.9882007150172285
 20
406.6981914202585813
 30
0.0
 40
4.5268375959034932
 50
200.0671675684066884
 51
238.7844435386041937
  0
ARC
  5
1665E
  8
0
 10
4274.4857983688289096
 20
407.6105598366011122
 30
0.0
 40
7.1858618845226934
 50
183.5327164738411909
 51
200.0671675684066884
  0
ARC
  5
1665F
  8
0
 10
4274.3601087913066294
 20
407.4942602617128955
 30
0.0
 40
7.0540768660592237
 50
180.4143730978981921
 51
182.6527554964376066
  0
ARC
  5
16660
  8
0
 10
4273.6220335654970768
 20
410.1732388208911857
 30
0.0
 40
4.6987775212798431
 50
181.4373813293402975
 51
264.5208399287474776
  0
ARC
  5
16661
  8
0
 10
4297.5528266446917769
 20
649.7911495681728411
 30
0.0
 40
245.5086797895233133
 50
264.301034515149297
 51
273.6878689446554063
  0
ARC
  5
16662
  8
0
 10
4312.6837947606472881
 20
409.4458059454868248
 30
0.0
 40
4.7015636799552754
 50
278.0747024460210923
 51
349.0668545995417844
  0
ARC
  5
16663
  8
0
 10
4321.9631721531786752
 20
405.706596095350676
 30
0.0
 40
3.4069413387378411
 50
275.7480673558962962
 51
358.4946071403351198
  0
ARC
  5
16664
  8
0
 10
4263.9882958811185745
 20
400.0929535657515999
 30
0.0
 40
0.7791570048114619
 50
180.1749436745485013
 51
270.174943681915579
  0
ARC
  5
16665
  8
0
 10
4329.3592622388268865
 20
400.092953565922187
 30
0.0
 40
0.7791570049814731
 50
269.8250563305908827
 51
359.8250563377691265
  0
ARC
  5
16666
  8
0
 10
4271.6449128529111476
 20
406.2496773332729276
 30
0.0
 40
4.0663698070730154
 50
238.9118012798296036
 51
242.7299380440047969
  0
LINE
  5
16667
  8
0
 10
4269.781762497607815
 20
402.6352570275407174
 30
0.0
 11
4271.4407216157069342
 21
403.6518684826407934
 31
0.0
  0
LINE
  5
16668
  8
0
 10
4269.5452145354083768
 20
402.7673461624406741
 30
0.0
 11
4271.3172967579066608
 21
403.8532795450407207
 31
0.0
  0
LINE
  5
16669
  8
0
 10
4271.4407216157069342
 20
403.6518684826407934
 30
0.0
 11
4271.3172967579066608
 21
403.8532795450407207
 31
0.0
  0
LINE
  5
1666A
  8
0
 10
4270.2995918805072506
 20
402.9525832815407966
 30
0.0
 11
4270.1761670227078866
 21
403.1539943439387912
 31
0.0
  0
LINE
  5
1666B
  8
0
 10
4270.0498729086084495
 20
402.7995552987406995
 30
0.0
 11
4269.926448050808176
 21
403.0009663611406836
 31
0.0
  0
LINE
  5
1666C
  8
0
 10
4270.3916909877070793
 20
403.0090216870407858
 30
0.0
 11
4270.2682661299077154
 21
403.210432749440713
 31
0.0
  0
LINE
  5
1666D
  8
0
 10
4315.9243480839777476
 20
406.0394126629500988
 30
0.0
 11
4324.4597721820673542
 21
403.3883559047415019
 31
0.0
  0
ARC
  5
1666E
  8
0
 10
4271.8413130576936965
 20
408.2745896761672952
 30
0.0
 40
4.6610403422470714
 50
193.7366891175026069
 51
260.0955950056267056
  0
ARC
  5
1666F
  8
0
 10
4296.6382902231252956
 20
606.2132827445467456
 30
0.0
 40
203.7484887514708873
 50
266.1387899378373731
 51
273.7521871556609199
  0
ARC
  5
16670
  8
0
 10
4319.7390096968865691
 20
261.4291118494531929
 30
0.0
 40
141.8091910182023128
 50
91.3685300440566266
 51
93.9493984767039763
  0
ARC
  5
16671
  8
0
 10
4319.9091521692007518
 20
486.0142446825886964
 30
0.0
 40
82.8927431213230363
 50
267.5406444603744944
 51
271.002240108483079
  0
ARC
  5
16672
  8
0
 10
4319.552948846640902
 20
408.5831420487771197
 30
0.0
 40
5.7404902331276251
 50
288.3383851976071242
 51
305.1073763223664059
  0
ARC
  5
16673
  8
0
 10
4160.7464719989238802
 20
-1614.1115624144490539
 30
0.0
 40
2020.7354015294579312
 50
86.5338466655024519
 51
86.8500002433637235
  0
ARC
  5
16674
  8
0
 10
4272.2444179687945507
 20
409.1520208097458067
 30
0.0
 40
5.6000903707075356
 50
261.1800921760573146
 51
265.3070051213633178
  0
ARC
  5
16675
  8
0
 10
4261.1125171456478711
 20
414.0853103317764976
 30
0.0
 40
6.6041027372533714
 50
354.0627729272322881
 51
4.6976168347471798
  0
ARC
  5
16676
  8
0
 10
4261.3051903311461501
 20
414.0776614969627758
 30
0.0
 40
6.2164895705304852
 50
353.0976830392049806
 51
6.838576314036648
  0
ENDSEC
  0
EOF
