  0
SECTION
  2
HEADER
  9
$ACADVER
  1
AC1009
  9
$INSBASE
 10
3778.3996473711968065
 20
113.9465046981537029
 30
0.0
  9
$EXTMIN
 10
3777.2436389751469505
 20
107.8912071238089965
 30
0.0
  9
$EXTMAX
 10
3779.5556557672462077
 20
115.1944945048673929
 30
0.0
  9
$LIMMIN
 10
0.0
 20
0.0
  9
$LIMMAX
 10
11.6929133858000007
 20
8.2677165353999982
  9
$ORTHOMODE
 70
     0
  9
$REGENMODE
 70
     1
  9
$FILLMODE
 70
     1
  9
$QTEXTMODE
 70
     0
  9
$MIRRTEXT
 70
     0
  9
$DRAGMODE
 70
     2
  9
$LTSCALE
 40
0.6431102362
  9
$OSMODE
 70
  4095
  9
$ATTMODE
 70
     1
  9
$TEXTSIZE
 40
0.2
  9
$TRACEWID
 40
0.05
  9
$TEXTSTYLE
  7
STANDARD
  9
$CLAYER
  8
0
  9
$CELTYPE
  6
BYLAYER
  9
$CECOLOR
 62
   256
  9
$DIMSCALE
 40
1.0
  9
$DIMASZ
 40
0.1875
  9
$DIMEXO
 40
0.0625
  9
$DIMDLI
 40
0.4443307087
  9
$DIMRND
 40
0.0
  9
$DIMDLE
 40
0.0
  9
$DIMEXE
 40
0.125
  9
$DIMTP
 40
0.01
  9
$DIMTM
 40
0.01
  9
$DIMTXT
 40
2.0
  9
$DIMCEN
 40
0.1052362205
  9
$DIMTSZ
 40
0.0
  9
$DIMTOL
 70
     1
  9
$DIMLIM
 70
     0
  9
$DIMTIH
 70
     1
  9
$DIMTOH
 70
     1
  9
$DIMSE1
 70
     0
  9
$DIMSE2
 70
     0
  9
$DIMTAD
 70
     0
  9
$DIMZIN
 70
     0
  9
$DIMBLK
  1

  9
$DIMASO
 70
     1
  9
$DIMSHO
 70
     1
  9
$DIMPOST
  1
\X
  9
$DIMAPOST
  1

  9
$DIMALT
 70
     1
  9
$DIMALTD
 70
     2
  9
$DIMALTF
 40
25.3999999999999986
  9
$DIMLFAC
 40
1.0
  9
$DIMTOFL
 70
     0
  9
$DIMTVP
 40
0.0
  9
$DIMTIX
 70
     0
  9
$DIMSOXD
 70
     0
  9
$DIMSAH
 70
     0
  9
$DIMBLK1
  1

  9
$DIMBLK2
  1

  9
$DIMSTYLE
  2
STANDARD
  9
$DIMCLRD
 70
     0
  9
$DIMCLRE
 70
     0
  9
$DIMCLRT
 70
     0
  9
$DIMTFAC
 40
1.0
  9
$DIMGAP
 40
0.09
  9
$LUNITS
 70
     2
  9
$LUPREC
 70
     4
  9
$SKETCHINC
 40
0.1
  9
$FILLETRAD
 40
0.0
  9
$AUNITS
 70
     0
  9
$AUPREC
 70
     0
  9
$MENU
  1
.
  9
$ELEVATION
 40
0.0
  9
$PELEVATION
 40
0.0
  9
$THICKNESS
 40
0.0
  9
$LIMCHECK
 70
     0
  9
$BLIPMODE
 70
     0
  9
$CHAMFERA
 40
0.0
  9
$CHAMFERB
 40
0.0
  9
$SKPOLY
 70
     0
  9
$TDCREATE
 40
2458060.468368056230247
  9
$TDUPDATE
 40
2459384.5341435191221535
  9
$TDINDWG
 40
0.3796366898
  9
$TDUSRTIMER
 40
0.3796366898
  9
$USRTIMER
 70
     1
  9
$ANGBASE
 50
0.0
  9
$ANGDIR
 70
     0
  9
$PDMODE
 70
     0
  9
$PDSIZE
 40
0.3125
  9
$PLINEWID
 40
0.0
  9
$COORDS
 70
     1
  9
$SPLFRAME
 70
     0
  9
$SPLINETYPE
 70
     6
  9
$SPLINESEGS
 70
     8
  9
$ATTDIA
 70
     1
  9
$ATTREQ
 70
     1
  9
$HANDLING
 70
     1
  9
$HANDSEED
  5
137D1
  9
$SURFTAB1
 70
     6
  9
$SURFTAB2
 70
     6
  9
$SURFTYPE
 70
     6
  9
$SURFU
 70
     6
  9
$SURFV
 70
     6
  9
$UCSNAME
  2

  9
$UCSORG
 10
0.0
 20
0.0
 30
0.0
  9
$UCSXDIR
 10
1.0
 20
0.0
 30
0.0
  9
$UCSYDIR
 10
0.0
 20
1.0
 30
0.0
  9
$PUCSNAME
  2

  9
$PUCSORG
 10
0.0
 20
0.0
 30
0.0
  9
$PUCSXDIR
 10
1.0
 20
0.0
 30
0.0
  9
$PUCSYDIR
 10
0.0
 20
1.0
 30
0.0
  9
$USERI1
 70
     0
  9
$USERI2
 70
     0
  9
$USERI3
 70
     0
  9
$USERI4
 70
     0
  9
$USERI5
 70
     0
  9
$USERR1
 40
0.0
  9
$USERR2
 40
0.0
  9
$USERR3
 40
0.0
  9
$USERR4
 40
0.0
  9
$USERR5
 40
0.0
  9
$WORLDVIEW
 70
     1
  9
$SHADEDGE
 70
     3
  9
$SHADEDIF
 70
    70
  9
$TILEMODE
 70
     1
  9
$MAXACTVP
 70
    64
  9
$PLIMCHECK
 70
     0
  9
$PEXTMIN
 10
1.0000000000000000E+20
 20
1.0000000000000000E+20
 30
1.0000000000000000E+20
  9
$PEXTMAX
 10
-1.0000000000000000E+20
 20
-1.0000000000000000E+20
 30
-1.0000000000000000E+20
  9
$PLIMMIN
 10
0.0
 20
0.0
  9
$PLIMMAX
 10
12.0
 20
9.0
  9
$UNITMODE
 70
     0
  9
$VISRETAIN
 70
     1
  9
$PLINEGEN
 70
     0
  9
$PSLTSCALE
 70
     1
  0
ENDSEC
  0
SECTION
  2
TABLES
  0
TABLE
  2
VPORT
 70
     1
  0
VPORT
  2
*ACTIVE
 70
     0
 10
0.0
 20
0.0
 11
1.0
 21
1.0
 12
-486.6067002850535914
 22
7.2388385157542876
 13
0.0
 23
0.0
 14
1.0
 24
1.0
 15
0.0
 25
0.0
 16
0.0
 26
0.0
 36
122.0237731519760018
 17
4265.00634765625
 27
104.3040122985839986
 37
0.0
 40
7.3633144006287532
 41
2.6159122085048012
 42
50.0
 43
0.0
 44
0.0
 50
0.0
 51
0.0
 71
     0
 72
   100
 73
     1
 74
     1
 75
     0
 76
     0
 77
     0
 78
     0
  0
ENDTAB
  0
TABLE
  2
LTYPE
 70
     2
  0
LTYPE
  2
CONTINUOUS
 70
     0
  3
Solid line
 72
    65
 73
     0
 40
0.0
  0
LTYPE
  2
PHANTOM2
 70
     0
  3
___ _ _ ___ _ _ ___ _ _ ___ _ _
 72
    65
 73
     6
 40
1.25
 49
0.625
 49
-0.125
 49
0.125
 49
-0.125
 49
0.125
 49
-0.125
  0
ENDTAB
  0
TABLE
  2
LAYER
 70
     2
  0
LAYER
  2
0
 70
     0
 62
   255
  6
CONTINUOUS
  0
LAYER
  2
DEFPOINTS
 70
     0
 62
     7
  6
CONTINUOUS
  0
ENDTAB
  0
TABLE
  2
STYLE
 70
     1
  0
STYLE
  2
STANDARD
 70
     0
 40
0.0
 41
0.8
 50
0.0
 71
     0
 42
0.2
  3
txt
  4

  0
ENDTAB
  0
TABLE
  2
VIEW
 70
     0
  0
ENDTAB
  0
TABLE
  2
UCS
 70
     0
  0
ENDTAB
  0
TABLE
  2
APPID
 70
     9
  0
APPID
  2
ACAD
 70
     0
  0
APPID
  2
ACAD_MLEADERVER
 70
     0
  0
APPID
  2
ACAD_EXEMPT_FROM_CAD_STANDARDS
 70
     0
  0
APPID
  2
ACAD_NAV_VCDISPLAY
 70
     0
  0
APPID
  2
ACAECLAYERSTANDARD
 70
     0
  0
APPID
  2
ACCMTRANSPARENCY
 70
     0
  0
APPID
  2
ACAD_DSTYLE_DIMJAG
 70
     0
  0
APPID
  2
ACAD_DSTYLE_DIMTALN
 70
     0
  0
APPID
  2
ACDBATTR
 70
     0
  0
ENDTAB
  0
TABLE
  2
DIMSTYLE
 70
     1
  0
DIMSTYLE
  2
STANDARD
 70
     0
  3

  4

  5

  6

  7

 40
1.0
 41
0.1875
 42
0.0625
 43
0.38
 44
0.125
 45
0.0
 46
0.0
 47
0.01
 48
0.01
140
0.15625
141
0.09
142
0.0
143
25.3999999999999986
144
1.0
145
0.0
146
1.0
147
0.09
 71
     1
 72
     0
 73
     1
 74
     1
 75
     0
 76
     0
 77
     0
 78
     4
170
     0
171
     2
172
     0
173
     0
174
     0
175
     0
176
     0
177
     0
178
     0
  0
ENDTAB
  0
ENDSEC
  0
SECTION
  2
BLOCKS
  0
BLOCK
  8
0
  2
$MODEL_SPACE
 70
     0
 10
0.0
 20
0.0
 30
0.0
  3
$MODEL_SPACE
  1

  0
ENDBLK
  5
21
  8
0
  0
BLOCK
 67
     1
  8
0
  2
$PAPER_SPACE
 70
     0
 10
0.0
 20
0.0
 30
0.0
  3
$PAPER_SPACE
  1

  0
ENDBLK
  5
1D
 67
     1
  8
0
  0
BLOCK
  8
0
  2
_FILLED
 70
     0
 10
0.0
 20
0.0
 30
0.0
  3
_FILLED
  1

  0
SOLID
  5
10F92
  8
0
  6
BYBLOCK
 62
     0
 10
0.0
 20
0.0
 30
0.0
 11
-1.0
 21
0.1666666667
 31
0.0
 12
-1.0
 22
-0.1666666667
 32
0.0
 13
-1.0
 23
-0.1666666667
 33
0.0
  0
ENDBLK
  5
10F93
  8
0
  6
BYBLOCK
 62
     0
  0
ENDSEC
  0
SECTION
  2
ENTITIES
  0
ATTDEF
  5
1315D
  8
DEFPOINTS
 10
3778.4004348492289864
 20
113.9510594964069981
 30
0.0
 40
0.001
  1
K-18077T-B
  3

  2
MODELNUMBER
 70
     0
1001
ACDBATTR
1070
     0
1070
     1
  0
ATTDEF
  5
1315E
  8
DEFPOINTS
 10
3778.4004348492289864
 20
113.9493928297403045
 30
0.0
 40
0.001
  1
ELOSSIS
  3

  2
TRADENAME
 70
     0
1001
ACDBATTR
1070
     0
1070
     1
  0
ATTDEF
  5
1315F
  8
DEFPOINTS
 10
3778.4004348492289864
 20
113.9477261630736962
 30
0.0
 40
0.001
  1
BATHROOM SINK FAUCET
  3

  2
PRODUCT
 70
     0
1001
ACDBATTR
1070
     0
1070
     1
  0
ARC
  5
1358E
  8
0
 10
3778.4490329372220003
 20
113.9193898898129049
 30
0.0
 40
1.276060622958477
 50
92.2179912868182043
 51
120.2868711771508003
  0
ARC
  5
1358F
  8
0
 10
3778.4251980936819564
 20
114.0659584902251993
 30
0.0
 40
1.1387262116237571
 50
122.9715535592839046
 51
163.3595953291379033
  0
ARC
  5
13590
  8
0
 10
3781.5475717201079533
 20
113.5139798785231022
 30
0.0
 40
4.3039327449614948
 50
168.228127552834394
 51
182.4528020728384092
  0
ARC
  5
13591
  8
0
 10
3792.13756877807009
 20
113.3857805073659932
 30
0.0
 40
14.8900918827260202
 50
180.215458418957013
 51
186.935163489296599
  0
ARC
  5
13592
  8
0
 10
3799.533812027571912
 20
113.5489428621662995
 30
0.0
 40
22.2639282631791602
 50
185.0533566454589902
 51
190.0684594405286987
  0
ARC
  5
13593
  8
0
 10
3784.3100571638110523
 20
110.3750029452544936
 30
0.0
 40
6.7357136319632787
 50
186.1220825615837953
 51
197.6254408014947046
  0
ARC
  5
13594
  8
0
 10
3778.6984826289940429
 20
108.6190295068816027
 30
0.0
 40
0.8562533567579912
 50
199.339008240182693
 51
225.0296527032753033
  0
ARC
  5
13595
  8
0
 10
3778.4161877171359265
 20
108.5555071534090956
 30
0.0
 40
0.6645059159784622
 50
262.9869088020781192
 51
268.573692304307599
  0
ARC
  5
13596
  8
0
 10
3778.3838221327710016
 20
108.2924076076716062
 30
0.0
 40
0.3994230949233941
 50
239.1913701089590916
 51
262.9869088020781192
  0
ARC
  5
13597
  8
0
 10
3778.4490473310970629
 20
108.401786435102494
 30
0.0
 40
0.5267732201170242
 50
227.5249272796260982
 51
239.1913701089590916
  0
ARC
  5
13598
  8
0
 10
3778.4297882547712106
 20
108.4239488394636055
 30
0.0
 40
0.4759670096196828
 50
236.3936697079716964
 51
266.3692825666001909
  0
ARC
  5
13599
  8
0
 10
3778.559929594111054
 20
108.6164408214403068
 30
0.0
 40
0.7083194048085398
 50
199.4220699394977032
 51
236.2441546506445036
  0
ARC
  5
1359A
  8
0
 10
3774.7355567090730801
 20
107.2680104967055001
 30
0.0
 40
3.346812196567448
 50
19.4220699394977494
 51
22.63394817848231
  0
ARC
  5
1359B
  8
0
 10
3778.4087981399411547
 20
114.514084696357699
 30
0.0
 40
0.3267314345964879
 50
91.6048930097835949
 51
109.4292283835727062
  0
ARC
  5
1359C
  8
0
 10
3778.5214843031708369
 20
114.2622738611969027
 30
0.0
 40
0.6021073740337302
 50
111.5713804978412043
 51
134.3214856843187022
  0
ARC
  5
1359D
  8
0
 10
3779.2841770534978423
 20
113.5977790231782052
 30
0.0
 40
1.6124434100241001
 50
137.2145107526521031
 51
167.9154595872381037
  0
ARC
  5
1359E
  8
0
 10
3788.1786051193330422
 20
111.7987074281357991
 30
0.0
 40
10.6869082433901692
 50
168.4670758890416948
 51
180.8331912272093973
  0
ARC
  5
1359F
  8
0
 10
3791.4240097440838326
 20
111.6605258726888934
 30
0.0
 40
13.9311935640621591
 50
180.0708270030339122
 51
185.3485088956769005
  0
ARC
  5
135A0
  8
0
 10
3835.4437894201560084
 20
116.7483225786480006
 30
0.0
 40
58.2415209554444004
 50
186.2953283319137938
 51
187.3456051756492968
  0
ARC
  5
135A1
  8
0
 10
3782.4822864265529461
 20
109.8372311375809005
 30
0.0
 40
4.8317757477251009
 50
186.3610011438836978
 51
193.8924531725346867
  0
ARC
  5
135A2
  8
0
 10
3778.3504213469200295
 20
113.9199371663118967
 30
0.0
 40
1.275507589445084
 50
59.7069190055224226
 51
87.7882185305177671
  0
ARC
  5
135A3
  8
0
 10
3778.3740966487112019
 20
114.0659584902251993
 30
0.0
 40
1.1387262116237571
 50
16.64040467086215
 51
57.0284464407160172
  0
ARC
  5
135A4
  8
0
 10
3775.2517230222852049
 20
113.5139798785231022
 30
0.0
 40
4.3039327449614948
 50
357.5471979271616192
 51
11.7718724471656007
  0
ARC
  5
135A5
  8
0
 10
3764.6617259643239777
 20
113.3857805073659932
 30
0.0
 40
14.8900918827260202
 50
353.064836510703401
 51
359.7845415810422196
  0
ARC
  5
135A6
  8
0
 10
3757.2654827148207914
 20
113.5489428621662995
 30
0.0
 40
22.2639282631791602
 50
349.9315405594712161
 51
354.9466433545409814
  0
ARC
  5
135A7
  8
0
 10
3772.4892375785821059
 20
110.3750029452544936
 30
0.0
 40
6.7357136319632787
 50
342.3745591985053238
 51
353.8779174384162047
  0
ARC
  5
135A8
  8
0
 10
3778.1008121133991153
 20
108.6190295068816027
 30
0.0
 40
0.8562533567579912
 50
314.9703472967248103
 51
340.6609917598171933
  0
ARC
  5
135A9
  8
0
 10
3778.3831070252581412
 20
108.5555071534090956
 30
0.0
 40
0.6645059159784622
 50
271.4263076956922873
 51
277.0130911979218808
  0
ARC
  5
135AA
  8
0
 10
3778.4154726096207924
 20
108.2924076076716062
 30
0.0
 40
0.3994230949233941
 50
277.0130911979218808
 51
300.80862989104088
  0
ARC
  5
135AB
  8
0
 10
3778.3502474112960954
 20
108.401786435102494
 30
0.0
 40
0.5267732201170242
 50
300.80862989104088
 51
312.4750727203738734
  0
ARC
  5
135AC
  8
0
 10
3778.3695064876210381
 20
108.4239488394636055
 30
0.0
 40
0.4759670096196828
 50
273.6307174333996954
 51
303.6063302920283036
  0
ARC
  5
135AD
  8
0
 10
3778.2393651482821042
 20
108.6164408214403068
 30
0.0
 40
0.7083194048085398
 50
303.7558453493555248
 51
340.5779300605021831
  0
ARC
  5
135AE
  8
0
 10
3782.0637380333209876
 20
107.2680104967055001
 30
0.0
 40
3.346812196567448
 50
157.3660518215176864
 51
160.5779300605022115
  0
ARC
  5
135AF
  8
0
 10
3778.3831941258008555
 20
114.4747494285605001
 30
0.0
 40
0.3663082312420134
 50
71.5402646258705346
 51
87.4256139807688442
  0
ARC
  5
135B0
  8
0
 10
3778.2778104392218665
 20
114.2622738611969027
 30
0.0
 40
0.6021073740337302
 50
45.6785143156812481
 51
68.4286195021587531
  0
ARC
  5
135B1
  8
0
 10
3777.5151176888962254
 20
113.5977790231782052
 30
0.0
 40
1.6124434100241001
 50
12.0845404127618306
 51
42.7854892473479111
  0
ARC
  5
135B2
  8
0
 10
3768.6206896230610255
 20
111.7987074281357991
 30
0.0
 40
10.6869082433901692
 50
359.1668087727906027
 51
11.5329241109582394
  0
ARC
  5
135B3
  8
0
 10
3765.3752849983088709
 20
111.6605258726888934
 30
0.0
 40
13.9311935640621591
 50
354.6514911043229858
 51
359.9291729969662015
  0
ARC
  5
135B4
  8
0
 10
3721.3555053222371498
 20
116.7483225786480006
 30
0.0
 40
58.2415209554444004
 50
352.6543948243506179
 51
353.7046716680861778
  0
ARC
  5
135B5
  8
0
 10
3774.3170083158402122
 20
109.8372311375809005
 30
0.0
 40
4.8317757477251009
 50
346.1075468274652849
 51
353.6389988561161886
  0
LINE
  5
135B7
  8
0
 10
3778.360275838373127
 20
108.4118153282402943
 30
0.0
 11
3778.360275838373127
 21
108.3781185241402056
 31
0.0
  0
LINE
  5
135B8
  8
0
 10
3778.360275838373127
 20
108.3781185241402056
 30
0.0
 11
3778.4390160061980168
 21
108.3781185241402056
 31
0.0
  0
LINE
  5
135B9
  8
0
 10
3778.4390160061980168
 20
108.3781185241402056
 30
0.0
 11
3778.4390160061980168
 21
108.4118153282402943
 31
0.0
  0
LINE
  5
135BA
  8
0
 10
3778.4390160061980168
 20
108.4118153282402943
 30
0.0
 11
3778.360275838373127
 21
108.4118153282402943
 31
0.0
  0
LINE
  5
135BB
  8
0
 10
3778.322057076746205
 20
108.3289059257402016
 30
0.0
 11
3778.2821079143500356
 21
108.2796933272402953
 31
0.0
  0
ARC
  5
135BC
  8
0
 10
3778.399645922255786
 20
108.5889807112944965
 30
0.0
 40
0.330868356355844
 50
249.1917841734575063
 51
290.808215837606383
  0
LINE
  5
135BD
  8
0
 10
3778.5171839302220178
 20
108.2796933272629047
 30
0.0
 11
3778.4772376656369488
 21
108.3289059257324993
 31
0.0
  0
ARC
  5
135BE
  8
0
 10
3778.3996473710099053
 20
108.6138048894763983
 30
0.0
 40
0.2952755888361223
 50
254.7653658010146955
 51
285.2346342786759124
  0
ARC
  5
135BF
  8
0
 10
3778.3996459222857993
 20
108.588980707960701
 30
0.0
 40
0.3937008128169728
 50
247.0952100163430032
 51
292.9047899836567126
  0
ARC
  5
135C0
  8
0
 10
3778.3923838475461707
 20
108.6283507612401991
 30
0.0
 40
0.3937007873999922
 50
251.8051276611975027
 51
288.1948723388024973
  0
LINE
  5
135C1
  8
0
 10
3778.2464171876740693
 20
108.2263220738402936
 30
0.0
 11
3778.2694508160830082
 21
108.2543350132102944
 31
0.0
  0
LINE
  5
135C2
  8
0
 10
3778.5153168790111522
 20
108.2543350132102944
 30
0.0
 11
3778.5528746568970746
 21
108.2263220738402936
 31
0.0
  0
ENDSEC
  0
EOF
