  0
SECTION
  2
HEADER
  9
$ACADVER
  1
AC1009
  9
$INSBASE
 10
4782.6053543456209809
 20
538.2478943171696528
 30
0.0
  9
$EXTMIN
 10
4779.8494488337701114
 20
534.1737108001609613
 30
0.0
  9
$EXTMAX
 10
4785.3612598574709409
 20
542.3191926209623261
 30
0.0
  9
$LIMMIN
 10
0.0
 20
0.0
  9
$LIMMAX
 10
11.6929133858000007
 20
8.2677165353999982
  9
$ORTHOMODE
 70
     0
  9
$REGENMODE
 70
     1
  9
$FILLMODE
 70
     1
  9
$QTEXTMODE
 70
     0
  9
$MIRRTEXT
 70
     0
  9
$DRAGMODE
 70
     2
  9
$LTSCALE
 40
0.6431102362
  9
$OSMODE
 70
     7
  9
$ATTMODE
 70
     1
  9
$TEXTSIZE
 40
0.2
  9
$TRACEWID
 40
0.05
  9
$TEXTSTYLE
  7
STANDARD
  9
$CLAYER
  8
0
  9
$CELTYPE
  6
BYLAYER
  9
$CECOLOR
 62
   256
  9
$DIMSCALE
 40
1.0
  9
$DIMASZ
 40
0.1875
  9
$DIMEXO
 40
0.0625
  9
$DIMDLI
 40
0.4443307087
  9
$DIMRND
 40
0.0
  9
$DIMDLE
 40
0.0
  9
$DIMEXE
 40
0.125
  9
$DIMTP
 40
0.01
  9
$DIMTM
 40
0.01
  9
$DIMTXT
 40
2.0
  9
$DIMCEN
 40
0.1052362205
  9
$DIMTSZ
 40
0.0
  9
$DIMTOL
 70
     1
  9
$DIMLIM
 70
     0
  9
$DIMTIH
 70
     1
  9
$DIMTOH
 70
     1
  9
$DIMSE1
 70
     0
  9
$DIMSE2
 70
     0
  9
$DIMTAD
 70
     0
  9
$DIMZIN
 70
     0
  9
$DIMBLK
  1

  9
$DIMASO
 70
     1
  9
$DIMSHO
 70
     1
  9
$DIMPOST
  1
\X
  9
$DIMAPOST
  1

  9
$DIMALT
 70
     1
  9
$DIMALTD
 70
     2
  9
$DIMALTF
 40
25.3999999999999986
  9
$DIMLFAC
 40
1.0
  9
$DIMTOFL
 70
     0
  9
$DIMTVP
 40
0.0
  9
$DIMTIX
 70
     0
  9
$DIMSOXD
 70
     0
  9
$DIMSAH
 70
     0
  9
$DIMBLK1
  1

  9
$DIMBLK2
  1

  9
$DIMSTYLE
  2
STANDARD
  9
$DIMCLRD
 70
     0
  9
$DIMCLRE
 70
     0
  9
$DIMCLRT
 70
     0
  9
$DIMTFAC
 40
1.0
  9
$DIMGAP
 40
0.09
  9
$LUNITS
 70
     2
  9
$LUPREC
 70
     4
  9
$SKETCHINC
 40
0.1
  9
$FILLETRAD
 40
0.0
  9
$AUNITS
 70
     0
  9
$AUPREC
 70
     0
  9
$MENU
  1
.
  9
$ELEVATION
 40
0.0
  9
$PELEVATION
 40
0.0
  9
$THICKNESS
 40
0.0
  9
$LIMCHECK
 70
     0
  9
$BLIPMODE
 70
     0
  9
$CHAMFERA
 40
0.0
  9
$CHAMFERB
 40
0.0
  9
$SKPOLY
 70
     0
  9
$TDCREATE
 40
2458060.468368056230247
  9
$TDUPDATE
 40
2459383.7783564808778465
  9
$TDINDWG
 40
1.5785154398000001
  9
$TDUSRTIMER
 40
1.5785154398000001
  9
$USRTIMER
 70
     1
  9
$ANGBASE
 50
0.0
  9
$ANGDIR
 70
     0
  9
$PDMODE
 70
     0
  9
$PDSIZE
 40
0.3125
  9
$PLINEWID
 40
0.0
  9
$COORDS
 70
     1
  9
$SPLFRAME
 70
     0
  9
$SPLINETYPE
 70
     6
  9
$SPLINESEGS
 70
     8
  9
$ATTDIA
 70
     1
  9
$ATTREQ
 70
     1
  9
$HANDLING
 70
     1
  9
$HANDSEED
  5
1E1E1
  9
$SURFTAB1
 70
     6
  9
$SURFTAB2
 70
     6
  9
$SURFTYPE
 70
     6
  9
$SURFU
 70
     6
  9
$SURFV
 70
     6
  9
$UCSNAME
  2

  9
$UCSORG
 10
0.0
 20
0.0
 30
0.0
  9
$UCSXDIR
 10
1.0
 20
0.0
 30
0.0
  9
$UCSYDIR
 10
0.0
 20
1.0
 30
0.0
  9
$PUCSNAME
  2

  9
$PUCSORG
 10
0.0
 20
0.0
 30
0.0
  9
$PUCSXDIR
 10
1.0
 20
0.0
 30
0.0
  9
$PUCSYDIR
 10
0.0
 20
1.0
 30
0.0
  9
$USERI1
 70
     0
  9
$USERI2
 70
     0
  9
$USERI3
 70
     0
  9
$USERI4
 70
     0
  9
$USERI5
 70
     0
  9
$USERR1
 40
0.0
  9
$USERR2
 40
0.0
  9
$USERR3
 40
0.0
  9
$USERR4
 40
0.0
  9
$USERR5
 40
0.0
  9
$WORLDVIEW
 70
     1
  9
$SHADEDGE
 70
     3
  9
$SHADEDIF
 70
    70
  9
$TILEMODE
 70
     1
  9
$MAXACTVP
 70
    64
  9
$PLIMCHECK
 70
     0
  9
$PEXTMIN
 10
1.0000000000000000E+20
 20
1.0000000000000000E+20
 30
1.0000000000000000E+20
  9
$PEXTMAX
 10
-1.0000000000000000E+20
 20
-1.0000000000000000E+20
 30
-1.0000000000000000E+20
  9
$PLIMMIN
 10
0.0
 20
0.0
  9
$PLIMMAX
 10
12.0
 20
9.0
  9
$UNITMODE
 70
     0
  9
$VISRETAIN
 70
     1
  9
$PLINEGEN
 70
     0
  9
$PSLTSCALE
 70
     1
  0
ENDSEC
  0
SECTION
  2
TABLES
  0
TABLE
  2
VPORT
 70
     1
  0
VPORT
  2
*ACTIVE
 70
     0
 10
0.0
 20
0.0
 11
1.0
 21
1.0
 12
871.2399979003080261
 22
405.6668466080225812
 13
0.0
 23
0.0
 14
1.0
 24
1.0
 15
0.0
 25
0.0
 16
0.0
 26
0.0
 36
60.4960186965801583
 17
3911.3653564453120453
 27
132.5796051025390057
 37
0.0
 40
8.2103860584171571
 41
2.433510638297872
 42
50.0
 43
0.0
 44
0.0
 50
0.0
 51
0.0
 71
     0
 72
   100
 73
     1
 74
     1
 75
     0
 76
     0
 77
     0
 78
     0
  0
ENDTAB
  0
TABLE
  2
LTYPE
 70
     2
  0
LTYPE
  2
CONTINUOUS
 70
     0
  3
Solid line
 72
    65
 73
     0
 40
0.0
  0
LTYPE
  2
PHANTOM2
 70
     0
  3
___ _ _ ___ _ _ ___ _ _ ___ _ _
 72
    65
 73
     6
 40
1.25
 49
0.625
 49
-0.125
 49
0.125
 49
-0.125
 49
0.125
 49
-0.125
  0
ENDTAB
  0
TABLE
  2
LAYER
 70
     2
  0
LAYER
  2
0
 70
     0
 62
   255
  6
CONTINUOUS
  0
LAYER
  2
DEFPOINTS
 70
     0
 62
     7
  6
CONTINUOUS
  0
ENDTAB
  0
TABLE
  2
STYLE
 70
     1
  0
STYLE
  2
STANDARD
 70
     0
 40
0.0
 41
0.8
 50
0.0
 71
     0
 42
0.2
  3
txt
  4

  0
ENDTAB
  0
TABLE
  2
VIEW
 70
     0
  0
ENDTAB
  0
TABLE
  2
UCS
 70
     0
  0
ENDTAB
  0
TABLE
  2
APPID
 70
    11
  0
APPID
  2
ACAD
 70
     0
  0
APPID
  2
ACAD_MLEADERVER
 70
     0
  0
APPID
  2
ACAD_EXEMPT_FROM_CAD_STANDARDS
 70
     0
  0
APPID
  2
ACAD_NAV_VCDISPLAY
 70
     0
  0
APPID
  2
ACAECLAYERSTANDARD
 70
     0
  0
APPID
  2
ACCMTRANSPARENCY
 70
     0
  0
APPID
  2
ACAD_DSTYLE_DIMJAG
 70
     0
  0
APPID
  2
ACAD_DSTYLE_DIMTALN
 70
     0
  0
APPID
  2
ACDBATTR
 70
     0
  0
APPID
  2
ACADANNOTATIVE
 70
     0
  0
APPID
  2
DCO15
 70
     0
  0
ENDTAB
  0
TABLE
  2
DIMSTYLE
 70
     1
  0
DIMSTYLE
  2
STANDARD
 70
     0
  3

  4

  5

  6

  7

 40
1.0
 41
0.1875
 42
0.0625
 43
0.38
 44
0.125
 45
0.0
 46
0.0
 47
0.01
 48
0.01
140
0.15625
141
0.09
142
0.0
143
25.3999999999999986
144
1.0
145
0.0
146
1.0
147
0.09
 71
     1
 72
     0
 73
     1
 74
     1
 75
     0
 76
     0
 77
     0
 78
     4
170
     0
171
     2
172
     0
173
     0
174
     0
175
     0
176
     0
177
     0
178
     0
  0
ENDTAB
  0
ENDSEC
  0
SECTION
  2
BLOCKS
  0
BLOCK
  8
0
  2
$MODEL_SPACE
 70
     0
 10
0.0
 20
0.0
 30
0.0
  3
$MODEL_SPACE
  1

  0
ENDBLK
  5
21
  8
0
  0
BLOCK
 67
     1
  8
0
  2
$PAPER_SPACE
 70
     0
 10
0.0
 20
0.0
 30
0.0
  3
$PAPER_SPACE
  1

  0
ENDBLK
  5
1D
 67
     1
  8
0
  0
ENDSEC
  0
SECTION
  2
ENTITIES
  0
ATTDEF
  5
159BF
  8
DEFPOINTS
 10
4782.6053572222999719
 20
538.2512317552177592
 30
0.0
 40
0.001
  1
K-18019T-4
  3

  2
MODELNUMBER
 70
     0
1001
ACDBATTR
1070
     0
1070
     1
  0
ATTDEF
  5
159C0
  8
DEFPOINTS
 10
4782.6053572222999719
 20
538.2495649148387429
 30
0.0
 40
0.001
  1
NATEO
  3

  2
TRADENAME
 70
     0
1001
ACDBATTR
1070
     0
1070
     1
  0
ATTDEF
  5
159C1
  8
DEFPOINTS
 10
4782.6053572222999719
 20
538.2478984218845426
 30
0.0
 40
0.001
  1
VALVE TRIM
  3

  2
PRODUCT
 70
     0
1001
ACDBATTR
1070
     0
1070
     1
  0
ARC
  5
1E0F4
  8
0
 10
4782.6053543456209809
 20
540.4101372006625752
 30
0.0
 40
1.909055420299784
 50
65.6674175223201217
 51
114.3325824776799067
  0
ARC
  5
1E0F5
  8
0
 10
4785.7056628104410265
 20
538.2443888014412323
 30
0.0
 40
5.8562139766705839
 50
162.0674920152436016
 51
197.9325079847563984
  0
ARC
  5
1E0F6
  8
0
 10
4784.2374771098384372
 20
538.7232456949166135
 30
0.0
 40
4.3119160422201981
 50
145.5846162677489133
 51
162.1145939777528895
  0
ARC
  5
1E0F7
  8
0
 10
4783.3183075754332094
 20
539.3575257351304799
 30
0.0
 40
3.1951507144691771
 50
131.4680323253041081
 51
145.651910400712211
  0
ARC
  5
1E0F8
  8
0
 10
4782.8074078151539652
 20
539.9420121331060045
 30
0.0
 40
2.4188650626110269
 50
114.1246594750094943
 51
131.5679439745364903
  0
ARC
  5
1E0F9
  8
0
 10
4782.6032100968968734
 20
536.1110864144704919
 30
0.0
 40
1.9410514632600091
 50
237.5959367567062941
 51
265.2877470069923902
  0
ARC
  5
1E0FA
  8
0
 10
4782.6074985943478168
 20
536.1110864144616244
 30
0.0
 40
1.9410514632503799
 50
274.71225299290262
 51
302.404063243302403
  0
ARC
  5
1E0FB
  8
0
 10
4782.605354345608248
 20
536.0358506595656536
 30
0.0
 40
1.8621398594047101
 50
265.1487275731000182
 51
274.8512724276321819
  0
ARC
  5
1E0FC
  8
0
 10
2594.7658696093340041
 20
2917.6074346606860672
 30
0.0
 40
3235.2244232681068752
 50
312.5478663078072259
 51
312.5479654574803021
  0
ARC
  5
1E0FD
  8
0
 10
4784.2328483072678864
 20
537.7680965061795177
 30
0.0
 40
4.3083002931252281
 50
197.9367695397563125
 51
216.6316282330627985
  0
ARC
  5
1E0FE
  8
0
 10
4783.0847709967356423
 20
536.9150586770587097
 30
0.0
 40
2.8780014709134991
 50
216.6409477261622953
 51
238.0789349733389884
  0
ARC
  5
1E0FF
  8
0
 10
4782.6053543455709587
 20
539.3073815969622729
 30
0.0
 40
0.9940944881999991
 50
1.4773703905892861
 51
178.5226296625087059
  0
ARC
  5
1E100
  8
0
 10
4782.6053543455709587
 20
539.3073815969622729
 30
0.0
 40
0.9940944881999991
 50
192.3574394113016979
 51
224.5729775640567993
  0
ARC
  5
1E101
  8
0
 10
4782.6053543456209809
 20
539.3073815969040652
 30
0.0
 40
0.9842519685582422
 50
8.7080544281308025
 51
171.2919455718692063
  0
ARC
  5
1E102
  8
0
 10
4783.441840721005974
 20
539.0870697476834721
 30
0.0
 40
1.84670081460791
 50
168.4634458015680138
 51
172.436972508644601
  0
ARC
  5
1E103
  8
0
 10
4781.8796935736427258
 20
539.294478779505539
 30
0.0
 40
0.2708447880321601
 50
172.436972508644601
 51
177.363698277084211
  0
ARC
  5
1E104
  8
0
 10
4782.6191718559539368
 20
539.3189775050963135
 30
0.0
 40
1.0101081854294309
 50
180.6830092743234104
 51
224.3119611862829004
  0
ARC
  5
1E105
  8
0
 10
4782.6053543456209809
 20
535.8333430931858175
 30
0.0
 40
0.8256112664503525
 50
224.1492292226224947
 51
315.8507707773774769
  0
ARC
  5
1E106
  8
0
 10
4782.0551978219218654
 20
535.2995653673997367
 30
0.0
 40
0.0590668754919502
 50
180.0013118520830915
 51
224.3430070132664014
  0
LINE
  5
1E107
  8
0
 10
4781.9961309464451915
 20
535.2995640149963492
 30
0.0
 11
4781.9951108734712761
 21
536.2230187654622569
 31
0.0
  0
ARC
  5
1E108
  8
0
 10
4743.7011497582798256
 20
536.2999844833741463
 30
0.0
 40
38.2940384604904267
 50
359.8848433346345246
 51
1.503946160445764
  0
ARC
  5
1E109
  8
0
 10
4741.7347088213637107
 20
536.253903119820734
 30
0.0
 40
40.2610118213111718
 50
1.496054566101803
 51
2.5812951555736521
  0
ARC
  5
1E10A
  8
0
 10
4776.0317642242298461
 20
537.7624796369744899
 30
0.0
 40
5.9309343020936982
 50
2.9443961197586361
 51
7.331525941607727
  0
ARC
  5
1E10B
  8
0
 10
4780.0623592715719496
 20
538.2216688861235525
 30
0.0
 40
1.8756199505106359
 50
9.1314021932245986
 51
19.7197286645312708
  0
ARC
  5
1E10C
  8
0
 10
4781.5802810351988228
 20
538.7631213693099426
 30
0.0
 40
0.2640326382001112
 50
20.2573794930992186
 51
73.4465574646647212
  0
ARC
  5
1E10E
  8
0
 10
4782.6053543456209809
 20
539.2857429242059197
 30
0.0
 40
0.9814245822564611
 50
36.4755092396132525
 51
143.5244907603866977
  0
ARC
  5
1E10F
  8
0
 10
4782.6820538353722441
 20
539.2360343613635223
 30
0.0
 40
1.07266494082687
 50
143.8249504923448967
 51
167.971353243124895
  0
ARC
  5
1E110
  8
0
 10
4782.6053543456209809
 20
536.3774127076018203
 30
0.0
 40
1.2337626708400109
 50
248.1587112370550017
 51
291.8412887629448846
  0
ARC
  5
1E111
  8
0
 10
4780.4194797663685677
 20
531.5818907742973352
 30
0.0
 40
4.038183164276167
 50
64.6824201082632158
 51
67.0183825873224066
  0
ARC
  5
1E112
  8
0
 10
4779.5050458807991163
 20
538.2443888014412323
 30
0.0
 40
5.8562139766705821
 50
342.0674920152436016
 51
17.9325079847563806
  0
ARC
  5
1E113
  8
0
 10
4780.9732315814044341
 20
538.7232456949166135
 30
0.0
 40
4.3119160422201981
 50
17.8854060222471212
 51
34.4153837322511365
  0
ARC
  5
1E114
  8
0
 10
4781.8924011158078429
 20
539.3575257351304799
 30
0.0
 40
3.1951507144691771
 50
34.348089599287853
 51
48.5319676746958919
  0
ARC
  5
1E115
  8
0
 10
4782.4033008760870871
 20
539.9420121331060045
 30
0.0
 40
2.4188650626110269
 50
48.4320560254634884
 51
65.8753405249905057
  0
ARC
  5
1E116
  8
0
 10
6971.5392856157377537
 20
2918.7998096011710913
 30
0.0
 40
3236.8429322159058756
 50
227.452034562891896
 51
227.4521336629827886
  0
ARC
  5
1E117
  8
0
 10
4780.9778603839731659
 20
537.7680965061795177
 30
0.0
 40
4.3083002931252281
 50
323.3683717669371731
 51
342.0632304602436875
  0
ARC
  5
1E118
  8
0
 10
4782.125937694503591
 20
536.9150586770587097
 30
0.0
 40
2.8780014709134991
 50
301.9210650266609264
 51
323.3590522738376762
  0
ARC
  5
1E119
  8
0
 10
4782.6053543456710031
 20
539.3073815969622729
 30
0.0
 40
0.9940944881999991
 50
315.4270224359431722
 51
347.6425605886983021
  0
ARC
  5
1E11A
  8
0
 10
4781.7688679702341688
 20
539.0870697476834721
 30
0.0
 40
1.84670081460791
 50
7.563027491355343
 51
11.5365541984320199
  0
ARC
  5
1E11B
  8
0
 10
4783.331015117599236
 20
539.294478779505539
 30
0.0
 40
0.2708447880321601
 50
2.636301722915761
 51
7.563027491355343
  0
ARC
  5
1E11C
  8
0
 10
4782.591536835286206
 20
539.3189775050963135
 30
0.0
 40
1.0101081854294309
 50
315.6880388137171281
 51
359.3169907256764759
  0
ARC
  5
1E11D
  8
0
 10
4783.1555108693200964
 20
535.2995653673997367
 30
0.0
 40
0.0590668754919502
 50
315.6569929867335986
 51
359.9986881479168801
  0
LINE
  5
1E11E
  8
0
 10
4783.2145777447958608
 20
535.2995640149963492
 30
0.0
 11
4783.2155978177706857
 21
536.2230187654622569
 31
0.0
  0
ARC
  5
1E11F
  8
0
 10
4821.5095589329621362
 20
536.2999844833741463
 30
0.0
 40
38.2940384604904267
 50
178.4960538395542073
 51
180.1151566653655891
  0
ARC
  5
1E120
  8
0
 10
4823.4759998698773416
 20
536.253903119820734
 30
0.0
 40
40.2610118213111718
 50
177.4187048444262871
 51
178.5039454338981955
  0
ARC
  5
1E121
  8
0
 10
4789.1789444670102966
 20
537.7624796369744899
 30
0.0
 40
5.9309343020936982
 50
172.6684740583922917
 51
177.0556038802413923
  0
ARC
  5
1E122
  8
0
 10
4785.1483494196700121
 20
538.2216688861235525
 30
0.0
 40
1.8756199505106359
 50
160.2802713354687114
 51
170.8685978067753979
  0
ARC
  5
1E123
  8
0
 10
4783.6304276560422295
 20
538.7631213693099426
 30
0.0
 40
0.2640326382001112
 50
106.553442535335293
 51
159.7426205069008063
  0
ARC
  5
1E124
  8
0
 10
4782.5286548558688082
 20
539.2360343613635223
 30
0.0
 40
1.07266494082687
 50
12.02864675703883
 51
36.1750495076551104
  0
ARC
  5
1E125
  8
0
 10
4784.7912289248733941
 20
531.5818907742973352
 30
0.0
 40
4.038183164276167
 50
112.9816174126775934
 51
115.317579891736699
  0
ENDSEC
  0
EOF
