  0
SECTION
  2
HEADER
  9
$ACADVER
  1
AC1009
  9
$INSBASE
 10
4778.1504830317153392
 20
536.3965054953821436
 30
0.0
  9
$EXTMIN
 10
4775.3945775198635602
 20
531.8838916773821666
 30
0.0
  9
$EXTMAX
 10
4780.9063885435652992
 20
536.4008407354722294
 30
0.0
  9
$LIMMIN
 10
0.0
 20
0.0
  9
$LIMMAX
 10
11.6929133858000007
 20
8.2677165353999982
  9
$ORTHOMODE
 70
     0
  9
$REGENMODE
 70
     1
  9
$FILLMODE
 70
     1
  9
$QTEXTMODE
 70
     0
  9
$MIRRTEXT
 70
     0
  9
$DRAGMODE
 70
     2
  9
$LTSCALE
 40
0.6431102362
  9
$OSMODE
 70
     7
  9
$ATTMODE
 70
     1
  9
$TEXTSIZE
 40
0.2
  9
$TRACEWID
 40
0.05
  9
$TEXTSTYLE
  7
STANDARD
  9
$CLAYER
  8
0
  9
$CELTYPE
  6
BYLAYER
  9
$CECOLOR
 62
   256
  9
$DIMSCALE
 40
1.0
  9
$DIMASZ
 40
0.1875
  9
$DIMEXO
 40
0.0625
  9
$DIMDLI
 40
0.4443307087
  9
$DIMRND
 40
0.0
  9
$DIMDLE
 40
0.0
  9
$DIMEXE
 40
0.125
  9
$DIMTP
 40
0.01
  9
$DIMTM
 40
0.01
  9
$DIMTXT
 40
2.0
  9
$DIMCEN
 40
0.1052362205
  9
$DIMTSZ
 40
0.0
  9
$DIMTOL
 70
     1
  9
$DIMLIM
 70
     0
  9
$DIMTIH
 70
     1
  9
$DIMTOH
 70
     1
  9
$DIMSE1
 70
     0
  9
$DIMSE2
 70
     0
  9
$DIMTAD
 70
     0
  9
$DIMZIN
 70
     0
  9
$DIMBLK
  1

  9
$DIMASO
 70
     1
  9
$DIMSHO
 70
     1
  9
$DIMPOST
  1
\X
  9
$DIMAPOST
  1

  9
$DIMALT
 70
     1
  9
$DIMALTD
 70
     2
  9
$DIMALTF
 40
25.3999999999999986
  9
$DIMLFAC
 40
1.0
  9
$DIMTOFL
 70
     0
  9
$DIMTVP
 40
0.0
  9
$DIMTIX
 70
     0
  9
$DIMSOXD
 70
     0
  9
$DIMSAH
 70
     0
  9
$DIMBLK1
  1

  9
$DIMBLK2
  1

  9
$DIMSTYLE
  2
STANDARD
  9
$DIMCLRD
 70
     0
  9
$DIMCLRE
 70
     0
  9
$DIMCLRT
 70
     0
  9
$DIMTFAC
 40
1.0
  9
$DIMGAP
 40
0.09
  9
$LUNITS
 70
     2
  9
$LUPREC
 70
     4
  9
$SKETCHINC
 40
0.1
  9
$FILLETRAD
 40
0.0
  9
$AUNITS
 70
     0
  9
$AUPREC
 70
     0
  9
$MENU
  1
.
  9
$ELEVATION
 40
0.0
  9
$PELEVATION
 40
0.0
  9
$THICKNESS
 40
0.0
  9
$LIMCHECK
 70
     0
  9
$BLIPMODE
 70
     0
  9
$CHAMFERA
 40
0.0
  9
$CHAMFERB
 40
0.0
  9
$SKPOLY
 70
     0
  9
$TDCREATE
 40
2458060.468368056230247
  9
$TDUPDATE
 40
2459383.6507638888433576
  9
$TDINDWG
 40
1.5766172917000001
  9
$TDUSRTIMER
 40
1.5766172917000001
  9
$USRTIMER
 70
     1
  9
$ANGBASE
 50
0.0
  9
$ANGDIR
 70
     0
  9
$PDMODE
 70
     0
  9
$PDSIZE
 40
0.3125
  9
$PLINEWID
 40
0.0
  9
$COORDS
 70
     1
  9
$SPLFRAME
 70
     0
  9
$SPLINETYPE
 70
     6
  9
$SPLINESEGS
 70
     8
  9
$ATTDIA
 70
     1
  9
$ATTREQ
 70
     1
  9
$HANDLING
 70
     1
  9
$HANDSEED
  5
1E1D6
  9
$SURFTAB1
 70
     6
  9
$SURFTAB2
 70
     6
  9
$SURFTYPE
 70
     6
  9
$SURFU
 70
     6
  9
$SURFV
 70
     6
  9
$UCSNAME
  2

  9
$UCSORG
 10
0.0
 20
0.0
 30
0.0
  9
$UCSXDIR
 10
1.0
 20
0.0
 30
0.0
  9
$UCSYDIR
 10
0.0
 20
1.0
 30
0.0
  9
$PUCSNAME
  2

  9
$PUCSORG
 10
0.0
 20
0.0
 30
0.0
  9
$PUCSXDIR
 10
1.0
 20
0.0
 30
0.0
  9
$PUCSYDIR
 10
0.0
 20
1.0
 30
0.0
  9
$USERI1
 70
     0
  9
$USERI2
 70
     0
  9
$USERI3
 70
     0
  9
$USERI4
 70
     0
  9
$USERI5
 70
     0
  9
$USERR1
 40
0.0
  9
$USERR2
 40
0.0
  9
$USERR3
 40
0.0
  9
$USERR4
 40
0.0
  9
$USERR5
 40
0.0
  9
$WORLDVIEW
 70
     1
  9
$SHADEDGE
 70
     3
  9
$SHADEDIF
 70
    70
  9
$TILEMODE
 70
     1
  9
$MAXACTVP
 70
    64
  9
$PLIMCHECK
 70
     0
  9
$PEXTMIN
 10
1.0000000000000000E+20
 20
1.0000000000000000E+20
 30
1.0000000000000000E+20
  9
$PEXTMAX
 10
-1.0000000000000000E+20
 20
-1.0000000000000000E+20
 30
-1.0000000000000000E+20
  9
$PLIMMIN
 10
0.0
 20
0.0
  9
$PLIMMAX
 10
12.0
 20
9.0
  9
$UNITMODE
 70
     0
  9
$VISRETAIN
 70
     1
  9
$PLINEGEN
 70
     0
  9
$PSLTSCALE
 70
     1
  0
ENDSEC
  0
SECTION
  2
TABLES
  0
TABLE
  2
VPORT
 70
     1
  0
VPORT
  2
*ACTIVE
 70
     0
 10
0.0
 20
0.0
 11
1.0
 21
1.0
 12
866.7851265864019297
 22
401.5627611038880787
 13
0.0
 23
0.0
 14
1.0
 24
1.0
 15
0.0
 25
0.0
 16
0.0
 26
0.0
 36
60.4960186965801583
 17
3911.3653564453120453
 27
132.5796051025390057
 37
0.0
 40
4.5529406840507809
 41
2.433510638297872
 42
50.0
 43
0.0
 44
0.0
 50
0.0
 51
0.0
 71
     0
 72
   100
 73
     1
 74
     1
 75
     0
 76
     0
 77
     0
 78
     0
  0
ENDTAB
  0
TABLE
  2
LTYPE
 70
     2
  0
LTYPE
  2
CONTINUOUS
 70
     0
  3
Solid line
 72
    65
 73
     0
 40
0.0
  0
LTYPE
  2
PHANTOM2
 70
     0
  3
___ _ _ ___ _ _ ___ _ _ ___ _ _
 72
    65
 73
     6
 40
1.25
 49
0.625
 49
-0.125
 49
0.125
 49
-0.125
 49
0.125
 49
-0.125
  0
ENDTAB
  0
TABLE
  2
LAYER
 70
     2
  0
LAYER
  2
0
 70
     0
 62
   255
  6
CONTINUOUS
  0
LAYER
  2
DEFPOINTS
 70
     0
 62
     7
  6
CONTINUOUS
  0
ENDTAB
  0
TABLE
  2
STYLE
 70
     1
  0
STYLE
  2
STANDARD
 70
     0
 40
0.0
 41
0.8
 50
0.0
 71
     0
 42
0.2
  3
txt
  4

  0
ENDTAB
  0
TABLE
  2
VIEW
 70
     0
  0
ENDTAB
  0
TABLE
  2
UCS
 70
     0
  0
ENDTAB
  0
TABLE
  2
APPID
 70
    11
  0
APPID
  2
ACAD
 70
     0
  0
APPID
  2
ACAD_MLEADERVER
 70
     0
  0
APPID
  2
ACAD_EXEMPT_FROM_CAD_STANDARDS
 70
     0
  0
APPID
  2
ACAD_NAV_VCDISPLAY
 70
     0
  0
APPID
  2
ACAECLAYERSTANDARD
 70
     0
  0
APPID
  2
ACCMTRANSPARENCY
 70
     0
  0
APPID
  2
ACAD_DSTYLE_DIMJAG
 70
     0
  0
APPID
  2
ACAD_DSTYLE_DIMTALN
 70
     0
  0
APPID
  2
ACDBATTR
 70
     0
  0
APPID
  2
ACADANNOTATIVE
 70
     0
  0
APPID
  2
DCO15
 70
     0
  0
ENDTAB
  0
TABLE
  2
DIMSTYLE
 70
     1
  0
DIMSTYLE
  2
STANDARD
 70
     0
  3

  4

  5

  6

  7

 40
1.0
 41
0.1875
 42
0.0625
 43
0.38
 44
0.125
 45
0.0
 46
0.0
 47
0.01
 48
0.01
140
0.15625
141
0.09
142
0.0
143
25.3999999999999986
144
1.0
145
0.0
146
1.0
147
0.09
 71
     1
 72
     0
 73
     1
 74
     1
 75
     0
 76
     0
 77
     0
 78
     4
170
     0
171
     2
172
     0
173
     0
174
     0
175
     0
176
     0
177
     0
178
     0
  0
ENDTAB
  0
ENDSEC
  0
SECTION
  2
BLOCKS
  0
BLOCK
  8
0
  2
$MODEL_SPACE
 70
     0
 10
0.0
 20
0.0
 30
0.0
  3
$MODEL_SPACE
  1

  0
ENDBLK
  5
21
  8
0
  0
BLOCK
 67
     1
  8
0
  2
$PAPER_SPACE
 70
     0
 10
0.0
 20
0.0
 30
0.0
  3
$PAPER_SPACE
  1

  0
ENDBLK
  5
1D
 67
     1
  8
0
  0
ENDSEC
  0
SECTION
  2
ENTITIES
  0
ATTDEF
  5
159BF
  8
DEFPOINTS
 10
4778.1504825817810342
 20
536.399840735471912
 30
0.0
 40
0.001
  1
K-18009T-4
  3

  2
MODELNUMBER
 70
     0
1001
ACDBATTR
1070
     0
1070
     1
  0
ATTDEF
  5
159C0
  8
DEFPOINTS
 10
4778.1504825817810342
 20
536.3981738950926683
 30
0.0
 40
0.001
  1
NATEO
  3

  2
TRADENAME
 70
     0
1001
ACDBATTR
1070
     0
1070
     1
  0
ATTDEF
  5
159C1
  8
DEFPOINTS
 10
4778.1504825817810342
 20
536.396507402138468
 30
0.0
 40
0.001
  1
VALVE TRIM
  3

  2
PRODUCT
 70
     0
1001
ACDBATTR
1070
     0
1070
     1
  0
LINE
  5
1E10F
  8
0
 10
4780.9063885435652992
 20
536.3965054953821436
 30
0.0
 11
4775.3945775198635602
 21
536.3965054953821436
 31
0.0
  0
LINE
  5
1E110
  8
0
 10
4775.3945775198635602
 20
536.3965054953821436
 30
0.0
 11
4775.4071483322641143
 21
536.0365245261822338
 31
0.0
  0
LINE
  5
1E111
  8
0
 10
4777.1977271261630449
 20
534.1524110072822396
 30
0.0
 11
4779.103238937263086
 21
534.1524110072822396
 31
0.0
  0
LINE
  5
1E112
  8
0
 10
4777.1542641262449251
 20
533.8925671285321641
 30
0.0
 11
4777.3373850885191132
 21
533.8925671285321641
 31
0.0
  0
ARC
  5
1E113
  8
0
 10
4775.4464948711256511
 20
536.0378989440898749
 30
0.0
 40
0.0393705365092062
 50
182.0005912084369015
 51
265.1787788166370206
  0
ARC
  5
1E114
  8
0
 10
4778.1506781177640732
 20
568.1005987413852836
 30
0.0
 40
32.2159043045032334
 50
265.1790559129973985
 51
268.2839120259794754
  0
LINE
  5
1E115
  8
0
 10
4777.1859161025631693
 20
534.1642220308822289
 30
0.0
 11
4777.1859161025631693
 21
535.9093609518037056
 31
0.0
  0
ARC
  5
1E116
  8
0
 10
4778.1504830278518057
 20
458.553070722381392
 30
0.0
 40
77.3623036589008137
 50
89.2486976022073435
 51
90.7513023921642343
  0
ARC
  5
1E117
  8
0
 10
4777.2144366003576579
 20
536.3829430525534008
 30
0.0
 40
0.4806489205698006
 50
260.6180310491236014
 51
266.5982143403152236
  0
LINE
  5
1E118
  8
0
 10
4775.4431858988673412
 20
535.9986677084782514
 30
0.0
 11
4780.8577801645596992
 21
535.9986677084782514
 31
0.0
  0
ARC
  5
1E119
  8
0
 10
4777.1977271261630449
 20
534.1642220308822289
 30
0.0
 40
0.0118110235999955
 50
180.0
 51
270.0
  0
ARC
  5
1E11A
  8
0
 10
4777.2843412988177079
 20
534.183809325117636
 30
0.0
 40
0.0787401568530469
 50
203.518000882635306
 51
244.2086870688459896
  0
ARC
  5
1E11B
  8
0
 10
4777.21582245130503
 20
534.0420164582592406
 30
0.0
 40
0.078740157968619
 50
14.9999971572198305
 51
64.2086753338362826
  0
LINE
  5
1E11C
  8
0
 10
4777.2918796044641567
 20
534.0623959069821467
 30
0.0
 11
4777.4037192464766122
 21
533.6450046808520256
 31
0.0
  0
ARC
  5
1E11D
  8
0
 10
4793.536441771416321
 20
535.9022328257879053
 30
0.0
 40
16.50498411428023
 50
186.9937539407742122
 51
189.7773112341128012
  0
ARC
  5
1E11E
  8
0
 10
4778.1504830317153392
 20
535.3839764928350178
 30
0.0
 40
1.9389594101527989
 50
252.1143788387109055
 51
287.8856211612891229
  0
ARC
  5
1E11F
  8
0
 10
4777.7907794470393128
 20
534.2858868286825782
 30
0.0
 40
0.7834838395254615
 50
227.2467443942869068
 51
252.4856433121495911
  0
ARC
  5
1E120
  8
0
 10
4777.4946913951789611
 20
533.9672584491886482
 30
0.0
 40
0.3485247750368605
 50
192.3748773550929059
 51
227.4299178464779061
  0
ARC
  5
1E121
  8
0
 10
4778.1504830317153392
 20
535.4304911280263468
 30
0.0
 40
1.9438908689012691
 50
252.5952624394014947
 51
287.4047375605985053
  0
ARC
  5
1E122
  8
0
 10
4777.8591068304358487
 20
534.4980795943962448
 30
0.0
 40
0.967013267614625
 50
238.2084993552246885
 51
252.54389626444339
  0
ARC
  5
1E123
  8
0
 10
4777.5799990970836006
 20
534.0409375329268187
 30
0.0
 40
0.4314286336459731
 50
219.8120860567387069
 51
237.730053492366693
  0
ARC
  5
1E124
  8
0
 10
4777.4070866428901354
 20
533.8999750096503476
 30
0.0
 40
0.2083660529267658
 50
182.0374229913485067
 51
220.480517312804011
  0
ARC
  5
1E125
  8
0
 10
4778.104935216380909
 20
533.1709763390384751
 30
0.0
 40
1.2842581701182141
 50
254.5697092247054911
 51
264.6383971466523803
  0
ARC
  5
1E126
  8
0
 10
4777.9272858744179757
 20
532.5369191429956572
 30
0.0
 40
0.6257944095487051
 50
242.0704731957893046
 51
254.8027250422512111
  0
ARC
  5
1E127
  8
0
 10
4777.7480283809363755
 20
532.2020972800823984
 30
0.0
 40
0.2460144789485931
 50
222.2539095299763119
 51
242.4321074781261984
  0
ARC
  5
1E128
  8
0
 10
4777.6452557316051752
 20
532.1063798116445014
 30
0.0
 40
0.1055972911720165
 50
195.2603456442845129
 51
221.3090562765401046
  0
ARC
  5
1E129
  8
0
 10
4688.3172516319482384
 20
93.7736982582360383
 30
0.0
 40
447.6824219077161047
 50
78.4747761975013987
 51
78.4998608520099168
  0
ARC
  5
1E12A
  8
0
 10
4777.5130621368425636
 20
532.1796635739400472
 30
0.0
 40
0.2948013413671162
 50
78.4998608520099168
 51
91.8735016483865365
  0
ARC
  5
1E12B
  8
0
 10
4777.5019472137882985
 20
532.4109407413178587
 30
0.0
 40
0.0633837969977968
 50
88.6647461385583853
 51
168.9988604390624971
  0
ARC
  5
1E12C
  8
0
 10
4777.5942689665898797
 20
532.4066273868086228
 30
0.0
 40
0.155409453111264
 50
173.9391712374556107
 51
191.0774190639970982
  0
ARC
  5
1E12D
  8
0
 10
4778.0514286863299276
 20
532.4859816454827524
 30
0.0
 40
0.619378430178479
 50
190.1559607156270886
 51
200.7153787440217911
  0
ARC
  5
1E12E
  8
0
 10
4775.9900968824031224
 20
531.7743920053578677
 30
0.0
 40
1.561688194301158
 50
14.02444093896864
 51
18.3827587409147704
  0
ARC
  5
1E12F
  8
0
 10
4777.6493639866166632
 20
532.1843664347878757
 30
0.0
 40
0.1475356939893513
 50
192.3365389272348125
 51
215.2173824020823929
  0
ARC
  5
1E130
  8
0
 10
4777.9404608062950501
 20
532.373163956863209
 30
0.0
 40
0.4944167011662591
 50
213.6379092458618061
 51
216.570325965743109
  0
ARC
  5
1E131
  8
0
 10
4782.9797934958351107
 20
534.0310815673168463
 30
0.0
 40
5.7841383189900792
 50
189.2696300192737056
 51
197.2725214427208869
  0
LINE
  5
1E132
  8
0
 10
4780.9063885435652992
 20
536.3965054953821436
 30
0.0
 11
4780.8938177311638356
 21
536.0365245261822338
 31
0.0
  0
LINE
  5
1E133
  8
0
 10
4779.1467019371821152
 20
533.8925671285321641
 30
0.0
 11
4778.9635809749097461
 21
533.8925671285321641
 31
0.0
  0
ARC
  5
1E134
  8
0
 10
4780.8544711923022987
 20
536.0378989440898749
 30
0.0
 40
0.0393705365092062
 50
274.8212211833629794
 51
357.9994087915630985
  0
ARC
  5
1E135
  8
0
 10
4778.1502879456629671
 20
568.1005987413852836
 30
0.0
 40
32.2159043045032334
 50
271.7160879740205246
 51
274.8209440870024878
  0
LINE
  5
1E136
  8
0
 10
4779.1150499608629616
 20
534.1642220308822289
 30
0.0
 11
4779.1150499608629616
 21
535.9093609517072991
 31
0.0
  0
ARC
  5
1E137
  8
0
 10
4779.0865294630712015
 20
536.3829430525534008
 30
0.0
 40
0.4806489205698006
 50
273.4017856596847764
 51
279.3819689508763986
  0
ARC
  5
1E138
  8
0
 10
4779.103238937263086
 20
534.1642220308822289
 30
0.0
 40
0.0118110235999964
 50
269.9999999999478746
 51
0.0000000000195413
  0
ARC
  5
1E139
  8
0
 10
4779.0166247649049183
 20
534.1838093249217536
 30
0.0
 40
0.0787401565051693
 50
295.7913127348957119
 51
336.4994020851185041
  0
ARC
  5
1E13A
  8
0
 10
4779.0851436123402891
 20
534.042016458146577
 30
0.0
 40
0.078740158208226
 50
115.7913248388592962
 51
165.0000028047712988
  0
LINE
  5
1E13B
  8
0
 10
4779.0090864589647026
 20
534.0623959069821467
 30
0.0
 11
4778.8972468169522472
 21
533.6450046808520256
 31
0.0
  0
ARC
  5
1E13C
  8
0
 10
4762.7645242920143573
 20
535.9022328257876779
 30
0.0
 40
16.5049841142780416
 50
350.2226887658871988
 51
353.0062460592258162
  0
ARC
  5
1E13D
  8
0
 10
4778.5101866163877276
 20
534.2858868286825782
 30
0.0
 40
0.7834838395254615
 50
287.5143566878504089
 51
312.7532556057130932
  0
ARC
  5
1E13E
  8
0
 10
4778.8062746682498982
 20
533.9672584491886482
 30
0.0
 40
0.3485247750368619
 50
312.5700821535222076
 51
347.6251226449070941
  0
ARC
  5
1E13F
  8
0
 10
4778.4418592329930107
 20
534.4980795943962448
 30
0.0
 40
0.967013267614625
 50
287.45610373555661
 51
301.791500644775283
  0
ARC
  5
1E140
  8
0
 10
4778.7209669663452587
 20
534.0409375329268187
 30
0.0
 40
0.4314286336459731
 50
302.2699465076332217
 51
320.1879139432613215
  0
ARC
  5
1E141
  8
0
 10
4778.8938794205378144
 20
533.8999750096503476
 30
0.0
 40
0.2083660529267658
 50
319.519482687195989
 51
357.9625770086515217
  0
ARC
  5
1E142
  8
0
 10
4778.1960308470470409
 20
533.1709763390384751
 30
0.0
 40
1.2842581701182141
 50
275.3616028533476197
 51
285.4302907752945089
  0
ARC
  5
1E143
  8
0
 10
4778.3736801890099741
 20
532.5369191429956572
 30
0.0
 40
0.6257944095487051
 50
285.1972749577487889
 51
297.9295268042106954
  0
ARC
  5
1E144
  8
0
 10
4778.5529376824915744
 20
532.2020972800823984
 30
0.0
 40
0.2460144789485931
 50
297.5678925218737163
 51
317.7460904700237165
  0
ARC
  5
1E145
  8
0
 10
4778.6557103318236841
 20
532.1063798116445014
 30
0.0
 40
0.1055972911720165
 50
318.6909437234598954
 51
344.7396543557155155
  0
ARC
  5
1E146
  8
0
 10
4867.983714431478802
 20
93.7736982582360383
 30
0.0
 40
447.6824219077161047
 50
101.5001391479899979
 51
101.5252238024986013
  0
ARC
  5
1E147
  8
0
 10
4778.7879039265853862
 20
532.1796635739400472
 30
0.0
 40
0.2948013413671162
 50
88.1264983516134777
 51
101.5001391479899979
  0
ARC
  5
1E148
  8
0
 10
4778.7990188496405608
 20
532.4109407413178587
 30
0.0
 40
0.0633837969977968
 50
11.0011395609375207
 51
91.3352538614416147
  0
ARC
  5
1E149
  8
0
 10
4778.7066970968389796
 20
532.4066273868086228
 30
0.0
 40
0.155409453111264
 50
348.9225809360028165
 51
6.060828762544368
  0
ARC
  5
1E14A
  8
0
 10
4778.2495373770989318
 20
532.4859816454827524
 30
0.0
 40
0.619378430178479
 50
339.2846212559782089
 51
349.8440392843729114
  0
ARC
  5
1E14B
  8
0
 10
4780.3108691810248274
 20
531.7743920053578677
 30
0.0
 40
1.561688194301158
 50
161.6172412590852048
 51
165.975559061031305
  0
ARC
  5
1E14C
  8
0
 10
4778.6516020768112867
 20
532.1843664347878757
 30
0.0
 40
0.1475356939893513
 50
324.7826175979175787
 51
347.6634610727651875
  0
ARC
  5
1E14D
  8
0
 10
4778.3605052571328997
 20
532.373163956863209
 30
0.0
 40
0.4944167011662591
 50
323.429674034256891
 51
326.3620907541381939
  0
ARC
  5
1E14E
  8
0
 10
4773.3211725675928392
 20
534.0310815673168463
 30
0.0
 40
5.7841383189900792
 50
342.7274785572790847
 51
350.7303699807262092
  0
LINE
  5
1E14F
  8
0
 10
4777.2500818825647002
 20
534.1129128886822173
 30
0.0
 11
4779.0508841807641147
 21
534.1129128886822173
 31
0.0
  0
ARC
  5
1E150
  8
0
 10
4778.1504830317153392
 20
534.2131596108132499
 30
0.0
 40
1.8251439162873171
 50
257.7713576173982801
 51
282.2286423826017199
  0
ARC
  5
1E151
  8
0
 10
4778.1504830314215724
 20
533.5107146193381595
 30
0.0
 40
1.6268229419560081
 50
264.1593011859029048
 51
275.840698832849796
  0
LINE
  5
1E153
  8
0
 10
4777.9000099277900517
 20
533.5028047078822055
 30
0.0
 11
4778.4009561356369886
 21
533.5028047078822055
 31
0.0
  0
ENDSEC
  0
EOF
