  0
SECTION
  2
HEADER
  9
$ACADVER
  1
AC1009
  9
$INSBASE
 10
4771.0165124723616827
 20
530.0998106493602791
 30
0.0
  9
$EXTMIN
 10
4768.2606069605117227
 20
526.0256271323514738
 30
0.0
  9
$EXTMAX
 10
4773.7724179842125523
 20
534.1711089531528387
 30
0.0
  9
$LIMMIN
 10
0.0
 20
0.0
  9
$LIMMAX
 10
11.6929133858000007
 20
8.2677165353999982
  9
$ORTHOMODE
 70
     0
  9
$REGENMODE
 70
     1
  9
$FILLMODE
 70
     1
  9
$QTEXTMODE
 70
     0
  9
$MIRRTEXT
 70
     0
  9
$DRAGMODE
 70
     2
  9
$LTSCALE
 40
0.6431102362
  9
$OSMODE
 70
     7
  9
$ATTMODE
 70
     1
  9
$TEXTSIZE
 40
0.2
  9
$TRACEWID
 40
0.05
  9
$TEXTSTYLE
  7
STANDARD
  9
$CLAYER
  8
0
  9
$CELTYPE
  6
BYLAYER
  9
$CECOLOR
 62
   256
  9
$DIMSCALE
 40
1.0
  9
$DIMASZ
 40
0.1875
  9
$DIMEXO
 40
0.0625
  9
$DIMDLI
 40
0.4443307087
  9
$DIMRND
 40
0.0
  9
$DIMDLE
 40
0.0
  9
$DIMEXE
 40
0.125
  9
$DIMTP
 40
0.01
  9
$DIMTM
 40
0.01
  9
$DIMTXT
 40
2.0
  9
$DIMCEN
 40
0.1052362205
  9
$DIMTSZ
 40
0.0
  9
$DIMTOL
 70
     1
  9
$DIMLIM
 70
     0
  9
$DIMTIH
 70
     1
  9
$DIMTOH
 70
     1
  9
$DIMSE1
 70
     0
  9
$DIMSE2
 70
     0
  9
$DIMTAD
 70
     0
  9
$DIMZIN
 70
     0
  9
$DIMBLK
  1

  9
$DIMASO
 70
     1
  9
$DIMSHO
 70
     1
  9
$DIMPOST
  1
\X
  9
$DIMAPOST
  1

  9
$DIMALT
 70
     1
  9
$DIMALTD
 70
     2
  9
$DIMALTF
 40
25.3999999999999986
  9
$DIMLFAC
 40
1.0
  9
$DIMTOFL
 70
     0
  9
$DIMTVP
 40
0.0
  9
$DIMTIX
 70
     0
  9
$DIMSOXD
 70
     0
  9
$DIMSAH
 70
     0
  9
$DIMBLK1
  1

  9
$DIMBLK2
  1

  9
$DIMSTYLE
  2
STANDARD
  9
$DIMCLRD
 70
     0
  9
$DIMCLRE
 70
     0
  9
$DIMCLRT
 70
     0
  9
$DIMTFAC
 40
1.0
  9
$DIMGAP
 40
0.09
  9
$LUNITS
 70
     2
  9
$LUPREC
 70
     4
  9
$SKETCHINC
 40
0.1
  9
$FILLETRAD
 40
0.0
  9
$AUNITS
 70
     0
  9
$AUPREC
 70
     0
  9
$MENU
  1
.
  9
$ELEVATION
 40
0.0
  9
$PELEVATION
 40
0.0
  9
$THICKNESS
 40
0.0
  9
$LIMCHECK
 70
     0
  9
$BLIPMODE
 70
     0
  9
$CHAMFERA
 40
0.0
  9
$CHAMFERB
 40
0.0
  9
$SKPOLY
 70
     0
  9
$TDCREATE
 40
2458060.468368056230247
  9
$TDUPDATE
 40
2459383.6497685192152858
  9
$TDINDWG
 40
1.5748117361
  9
$TDUSRTIMER
 40
1.5748117361
  9
$USRTIMER
 70
     1
  9
$ANGBASE
 50
0.0
  9
$ANGDIR
 70
     0
  9
$PDMODE
 70
     0
  9
$PDSIZE
 40
0.3125
  9
$PLINEWID
 40
0.0
  9
$COORDS
 70
     1
  9
$SPLFRAME
 70
     0
  9
$SPLINETYPE
 70
     6
  9
$SPLINESEGS
 70
     8
  9
$ATTDIA
 70
     1
  9
$ATTREQ
 70
     1
  9
$HANDLING
 70
     1
  9
$HANDSEED
  5
1E09D
  9
$SURFTAB1
 70
     6
  9
$SURFTAB2
 70
     6
  9
$SURFTYPE
 70
     6
  9
$SURFU
 70
     6
  9
$SURFV
 70
     6
  9
$UCSNAME
  2

  9
$UCSORG
 10
0.0
 20
0.0
 30
0.0
  9
$UCSXDIR
 10
1.0
 20
0.0
 30
0.0
  9
$UCSYDIR
 10
0.0
 20
1.0
 30
0.0
  9
$PUCSNAME
  2

  9
$PUCSORG
 10
0.0
 20
0.0
 30
0.0
  9
$PUCSXDIR
 10
1.0
 20
0.0
 30
0.0
  9
$PUCSYDIR
 10
0.0
 20
1.0
 30
0.0
  9
$USERI1
 70
     0
  9
$USERI2
 70
     0
  9
$USERI3
 70
     0
  9
$USERI4
 70
     0
  9
$USERI5
 70
     0
  9
$USERR1
 40
0.0
  9
$USERR2
 40
0.0
  9
$USERR3
 40
0.0
  9
$USERR4
 40
0.0
  9
$USERR5
 40
0.0
  9
$WORLDVIEW
 70
     1
  9
$SHADEDGE
 70
     3
  9
$SHADEDIF
 70
    70
  9
$TILEMODE
 70
     1
  9
$MAXACTVP
 70
    64
  9
$PLIMCHECK
 70
     0
  9
$PEXTMIN
 10
1.0000000000000000E+20
 20
1.0000000000000000E+20
 30
1.0000000000000000E+20
  9
$PEXTMAX
 10
-1.0000000000000000E+20
 20
-1.0000000000000000E+20
 30
-1.0000000000000000E+20
  9
$PLIMMIN
 10
0.0
 20
0.0
  9
$PLIMMAX
 10
12.0
 20
9.0
  9
$UNITMODE
 70
     0
  9
$VISRETAIN
 70
     1
  9
$PLINEGEN
 70
     0
  9
$PSLTSCALE
 70
     1
  0
ENDSEC
  0
SECTION
  2
TABLES
  0
TABLE
  2
VPORT
 70
     1
  0
VPORT
  2
*ACTIVE
 70
     0
 10
0.0
 20
0.0
 11
1.0
 21
1.0
 12
859.651156027050547
 22
397.5187629402132075
 13
0.0
 23
0.0
 14
1.0
 24
1.0
 15
0.0
 25
0.0
 16
0.0
 26
0.0
 36
60.4960186965801583
 17
3911.3653564453120453
 27
132.5796051025390057
 37
0.0
 40
8.2103860584171571
 41
2.433510638297872
 42
50.0
 43
0.0
 44
0.0
 50
0.0
 51
0.0
 71
     0
 72
   100
 73
     1
 74
     1
 75
     0
 76
     0
 77
     0
 78
     0
  0
ENDTAB
  0
TABLE
  2
LTYPE
 70
     2
  0
LTYPE
  2
CONTINUOUS
 70
     0
  3
Solid line
 72
    65
 73
     0
 40
0.0
  0
LTYPE
  2
PHANTOM2
 70
     0
  3
___ _ _ ___ _ _ ___ _ _ ___ _ _
 72
    65
 73
     6
 40
1.25
 49
0.625
 49
-0.125
 49
0.125
 49
-0.125
 49
0.125
 49
-0.125
  0
ENDTAB
  0
TABLE
  2
LAYER
 70
     2
  0
LAYER
  2
0
 70
     0
 62
   255
  6
CONTINUOUS
  0
LAYER
  2
DEFPOINTS
 70
     0
 62
     7
  6
CONTINUOUS
  0
ENDTAB
  0
TABLE
  2
STYLE
 70
     1
  0
STYLE
  2
STANDARD
 70
     0
 40
0.0
 41
0.8
 50
0.0
 71
     0
 42
0.2
  3
txt
  4

  0
ENDTAB
  0
TABLE
  2
VIEW
 70
     0
  0
ENDTAB
  0
TABLE
  2
UCS
 70
     0
  0
ENDTAB
  0
TABLE
  2
APPID
 70
    11
  0
APPID
  2
ACAD
 70
     0
  0
APPID
  2
ACAD_MLEADERVER
 70
     0
  0
APPID
  2
ACAD_EXEMPT_FROM_CAD_STANDARDS
 70
     0
  0
APPID
  2
ACAD_NAV_VCDISPLAY
 70
     0
  0
APPID
  2
ACAECLAYERSTANDARD
 70
     0
  0
APPID
  2
ACCMTRANSPARENCY
 70
     0
  0
APPID
  2
ACAD_DSTYLE_DIMJAG
 70
     0
  0
APPID
  2
ACAD_DSTYLE_DIMTALN
 70
     0
  0
APPID
  2
ACDBATTR
 70
     0
  0
APPID
  2
ACADANNOTATIVE
 70
     0
  0
APPID
  2
DCO15
 70
     0
  0
ENDTAB
  0
TABLE
  2
DIMSTYLE
 70
     1
  0
DIMSTYLE
  2
STANDARD
 70
     0
  3

  4

  5

  6

  7

 40
1.0
 41
0.1875
 42
0.0625
 43
0.38
 44
0.125
 45
0.0
 46
0.0
 47
0.01
 48
0.01
140
0.15625
141
0.09
142
0.0
143
25.3999999999999986
144
1.0
145
0.0
146
1.0
147
0.09
 71
     1
 72
     0
 73
     1
 74
     1
 75
     0
 76
     0
 77
     0
 78
     4
170
     0
171
     2
172
     0
173
     0
174
     0
175
     0
176
     0
177
     0
178
     0
  0
ENDTAB
  0
ENDSEC
  0
SECTION
  2
BLOCKS
  0
BLOCK
  8
0
  2
$MODEL_SPACE
 70
     0
 10
0.0
 20
0.0
 30
0.0
  3
$MODEL_SPACE
  1

  0
ENDBLK
  5
21
  8
0
  0
BLOCK
 67
     1
  8
0
  2
$PAPER_SPACE
 70
     0
 10
0.0
 20
0.0
 30
0.0
  3
$PAPER_SPACE
  1

  0
ENDBLK
  5
1D
 67
     1
  8
0
  0
ENDSEC
  0
SECTION
  2
ENTITIES
  0
ATTDEF
  5
159BF
  8
DEFPOINTS
 10
4771.0165144258444343
 20
530.1031451042379103
 30
0.0
 40
0.001
  1
K-18009T-4
  3

  2
MODELNUMBER
 70
     0
1001
ACDBATTR
1070
     0
1070
     1
  0
ATTDEF
  5
159C0
  8
DEFPOINTS
 10
4771.0165144258444343
 20
530.1014782638587803
 30
0.0
 40
0.001
  1
NATEO
  3

  2
TRADENAME
 70
     0
1001
ACDBATTR
1070
     0
1070
     1
  0
ATTDEF
  5
159C1
  8
DEFPOINTS
 10
4771.0165144258444343
 20
530.0998117709044664
 30
0.0
 40
0.001
  1
VALVE TRIM
  3

  2
PRODUCT
 70
     0
1001
ACDBATTR
1070
     0
1070
     1
  0
ARC
  5
1DFE8
  8
0
 10
4771.0165124723616827
 20
532.2620535328530877
 30
0.0
 40
1.909055420299784
 50
65.6674175223201217
 51
114.3325824776799067
  0
ARC
  5
1DFE9
  8
0
 10
4774.1168209371826379
 20
530.0963051336317449
 30
0.0
 40
5.8562139766705839
 50
162.0674920152436016
 51
197.9325079847563984
  0
ARC
  5
1DFEA
  8
0
 10
4772.6486352365800485
 20
530.5751620271071261
 30
0.0
 40
4.3119160422201981
 50
145.5846162677489133
 51
162.1145939777528895
  0
ARC
  5
1DFEB
  8
0
 10
4771.7294657021757303
 20
531.2094420673211062
 30
0.0
 40
3.1951507144691771
 50
131.4680323253041081
 51
145.651910400712211
  0
ARC
  5
1DFEC
  8
0
 10
4771.2185659418955765
 20
531.7939284652967444
 30
0.0
 40
2.4188650626110269
 50
114.1246594750094943
 51
131.5679439745364903
  0
ARC
  5
1DFED
  8
0
 10
4771.0143682236375753
 20
527.9630027466610045
 30
0.0
 40
1.9410514632600091
 50
237.5959367567062941
 51
265.2877470069923902
  0
ARC
  5
1DFEE
  8
0
 10
4771.0186567210912472
 20
527.9630027466522506
 30
0.0
 40
1.9410514632503799
 50
274.71225299290262
 51
302.404063243302403
  0
ARC
  5
1DFEF
  8
0
 10
4771.0165124723498593
 20
527.8877669917561661
 30
0.0
 40
1.8621398594047101
 50
265.1487275731000182
 51
274.8512724276321819
  0
ARC
  5
1DFF0
  8
0
 10
2582.9463929491098497
 20
2909.710622755967961
 30
0.0
 40
3235.5654949671461509
 50
312.5478663099235064
 51
312.5479654491359156
  0
ARC
  5
1DFF1
  8
0
 10
4772.6440064340085883
 20
529.6200128383700303
 30
0.0
 40
4.3083002931252281
 50
197.9367695397563125
 51
216.6316282330627985
  0
ARC
  5
1DFF2
  8
0
 10
4771.4959291234790726
 20
528.7669750092493359
 30
0.0
 40
2.8780014709134991
 50
216.6409477261622953
 51
238.0789349733389884
  0
ARC
  5
1DFF3
  8
0
 10
4771.0165124723116605
 20
531.1592979291527854
 30
0.0
 40
0.9940944881999991
 50
1.4773703905892861
 51
178.5226296625087059
  0
ARC
  5
1DFF4
  8
0
 10
4771.0165124723116605
 20
531.1592979291527854
 30
0.0
 40
0.9940944881999991
 50
192.3574394113016979
 51
224.5729775640567993
  0
ARC
  5
1DFF5
  8
0
 10
4771.0165124723616827
 20
531.1592979290946914
 30
0.0
 40
0.9842519685582422
 50
8.7080544281308025
 51
171.2919455718692063
  0
ARC
  5
1DFF6
  8
0
 10
4771.8529988477475854
 20
530.9389860798739846
 30
0.0
 40
1.84670081460791
 50
168.4634458015680138
 51
172.436972508644601
  0
ARC
  5
1DFF7
  8
0
 10
4770.2908517003852467
 20
531.1463951116960516
 30
0.0
 40
0.2708447880321601
 50
172.436972508644601
 51
177.363698277084211
  0
ARC
  5
1DFF8
  8
0
 10
4771.0303299826973671
 20
531.1708938372868261
 30
0.0
 40
1.0101081854294309
 50
180.6830092743234104
 51
224.3119611862829004
  0
ARC
  5
1DFF9
  8
0
 10
4771.0165124723616827
 20
527.68525942537633
 30
0.0
 40
0.8256112664503525
 50
224.1492292226224947
 51
315.8507707773774769
  0
ARC
  5
1DFFA
  8
0
 10
4770.4663559486625672
 20
527.1514816995902493
 30
0.0
 40
0.0590668754919502
 50
180.0013118520830915
 51
224.3430070132664014
  0
LINE
  5
1DFFB
  8
0
 10
4770.4072890731868029
 20
527.1514803471867481
 30
0.0
 11
4770.4062690002128875
 21
528.0749350976527694
 31
0.0
  0
ARC
  5
1DFFC
  8
0
 10
4732.112307885021437
 20
528.1519008155646588
 30
0.0
 40
38.2940384604904267
 50
359.8848433346345246
 51
1.503946160445764
  0
ARC
  5
1DFFD
  8
0
 10
4730.1458669481062316
 20
528.1058194520112465
 30
0.0
 40
40.2610118213111718
 50
1.496054566101803
 51
2.5812951555736521
  0
ARC
  5
1DFFE
  8
0
 10
4764.442922350972367
 20
529.6143959691650025
 30
0.0
 40
5.9309343020936982
 50
2.9443961197586361
 51
7.331525941607727
  0
ARC
  5
1DFFF
  8
0
 10
4768.4735173983126515
 20
530.0735852183141787
 30
0.0
 40
1.8756199505106359
 50
9.1314021932245986
 51
19.7197286645312708
  0
ARC
  5
1E000
  8
0
 10
4769.9914391619413436
 20
530.6150377015004551
 30
0.0
 40
0.2640326382001112
 50
20.2573794930992186
 51
73.4465574646647212
  0
ARC
  5
1E001
  8
0
 10
4771.0165124723616827
 20
531.1592979290475114
 30
0.0
 40
0.9645669292132845
 50
50.7726784332801202
 51
129.2273215667198087
  0
ARC
  5
1E002
  8
0
 10
4771.0165124723616827
 20
531.1376592563964323
 30
0.0
 40
0.9814245822564611
 50
36.4755092396132525
 51
143.5244907603866977
  0
ARC
  5
1E003
  8
0
 10
4771.0932119621138554
 20
531.0879506935540348
 30
0.0
 40
1.07266494082687
 50
143.8249504923448967
 51
167.971353243124895
  0
ARC
  5
1E004
  8
0
 10
4771.0165124723616827
 20
528.2293290397923329
 30
0.0
 40
1.2337626708400109
 50
248.1587112370550017
 51
291.8412887629448846
  0
ARC
  5
1E005
  8
0
 10
4768.8306378931110885
 20
523.4338071064878477
 30
0.0
 40
4.038183164276167
 50
64.6824201082632158
 51
67.0183825873224066
  0
ARC
  5
1E006
  8
0
 10
4767.9162040075416371
 20
530.0963051336317449
 30
0.0
 40
5.8562139766705821
 50
342.0674920152436016
 51
17.9325079847563806
  0
ARC
  5
1E007
  8
0
 10
4769.384389708145136
 20
530.5751620271071261
 30
0.0
 40
4.3119160422201981
 50
17.8854060222471212
 51
34.4153837322511365
  0
ARC
  5
1E008
  8
0
 10
4770.3035592425512732
 20
531.2094420673211062
 30
0.0
 40
3.1951507144691771
 50
34.348089599287853
 51
48.5319676746958919
  0
ARC
  5
1E009
  8
0
 10
4770.8144590028296079
 20
531.7939284652967444
 30
0.0
 40
2.4188650626110269
 50
48.4320560254634884
 51
65.8753405249905057
  0
ARC
  5
1E00A
  8
0
 10
6960.1707954851317481
 20
2910.8917945569801304
 30
0.0
 40
3237.16879696474507
 50
227.4520345711044911
 51
227.452133661259694
  0
ARC
  5
1E00B
  8
0
 10
4769.3890185107147772
 20
529.6200128383700303
 30
0.0
 40
4.3083002931252281
 50
323.3683717669371731
 51
342.0632304602436875
  0
ARC
  5
1E00C
  8
0
 10
4770.5370958212461119
 20
528.7669750092493359
 30
0.0
 40
2.8780014709134991
 50
301.9210650266609264
 51
323.3590522738376762
  0
ARC
  5
1E00D
  8
0
 10
4771.0165124724126144
 20
531.1592979291527854
 30
0.0
 40
0.9940944881999991
 50
315.4270224359431722
 51
347.6425605886983021
  0
ARC
  5
1E00E
  8
0
 10
4770.1800260969766896
 20
530.9389860798739846
 30
0.0
 40
1.84670081460791
 50
7.563027491355343
 51
11.5365541984320199
  0
ARC
  5
1E00F
  8
0
 10
4771.7421732443399378
 20
531.1463951116960516
 30
0.0
 40
0.2708447880321601
 50
2.636301722915761
 51
7.563027491355343
  0
ARC
  5
1E010
  8
0
 10
4771.0026949620278174
 20
531.1708938372868261
 30
0.0
 40
1.0101081854294309
 50
315.6880388137171281
 51
359.3169907256764759
  0
ARC
  5
1E011
  8
0
 10
4771.5666689960617077
 20
527.1514816995902493
 30
0.0
 40
0.0590668754919502
 50
315.6569929867335986
 51
359.9986881479168801
  0
LINE
  5
1E012
  8
0
 10
4771.6257358715383816
 20
527.1514803471867481
 30
0.0
 11
4771.6267559445132065
 21
528.0749350976527694
 31
0.0
  0
ARC
  5
1E013
  8
0
 10
4809.9207170597037475
 20
528.1519008155646588
 30
0.0
 40
38.2940384604904267
 50
178.4960538395542073
 51
180.1151566653655891
  0
ARC
  5
1E014
  8
0
 10
4811.8871579966180434
 20
528.1058194520112465
 30
0.0
 40
40.2610118213111718
 50
177.4187048444262871
 51
178.5039454338981955
  0
ARC
  5
1E015
  8
0
 10
4777.5901025937528175
 20
529.6143959691650025
 30
0.0
 40
5.9309343020936982
 50
172.6684740583922917
 51
177.0556038802413923
  0
ARC
  5
1E016
  8
0
 10
4773.559507546410714
 20
530.0735852183141787
 30
0.0
 40
1.8756199505106359
 50
160.2802713354687114
 51
170.8685978067753979
  0
ARC
  5
1E017
  8
0
 10
4772.0415857827838408
 20
530.6150377015004551
 30
0.0
 40
0.2640326382001112
 50
106.553442535335293
 51
159.7426205069008063
  0
ARC
  5
1E018
  8
0
 10
4770.9398129826104196
 20
531.0879506935540348
 30
0.0
 40
1.07266494082687
 50
12.02864675703883
 51
36.1750495076551104
  0
ARC
  5
1E019
  8
0
 10
4773.202387051614096
 20
523.4338071064878477
 30
0.0
 40
4.038183164276167
 50
112.9816174126775934
 51
115.317579891736699
  0
ENDSEC
  0
EOF
