  0
SECTION
  2
HEADER
  9
$ACADVER
  1
AC1009
  9
$INSBASE
 10
4561.2583786502536896
 20
103.1963746703578977
 30
0.0
  9
$EXTMIN
 10
4527.548938763168735
 20
88.2724078544428039
 30
-0.0000000000112498
  9
$EXTMAX
 10
4594.781566312144605
 20
117.9985536089998988
 30
0.0000000000002956
  9
$LIMMIN
 10
0.0
 20
0.0
  9
$LIMMAX
 10
11.6929133858000007
 20
8.2677165353999982
  9
$ORTHOMODE
 70
     0
  9
$REGENMODE
 70
     1
  9
$FILLMODE
 70
     1
  9
$QTEXTMODE
 70
     0
  9
$MIRRTEXT
 70
     0
  9
$DRAGMODE
 70
     2
  9
$LTSCALE
 40
0.6431102362
  9
$OSMODE
 70
  4095
  9
$ATTMODE
 70
     1
  9
$TEXTSIZE
 40
0.2
  9
$TRACEWID
 40
0.05
  9
$TEXTSTYLE
  7
STANDARD
  9
$CLAYER
  8
0
  9
$CELTYPE
  6
BYLAYER
  9
$CECOLOR
 62
   256
  9
$DIMSCALE
 40
1.0
  9
$DIMASZ
 40
0.1875
  9
$DIMEXO
 40
0.0625
  9
$DIMDLI
 40
0.4443307087
  9
$DIMRND
 40
0.0
  9
$DIMDLE
 40
0.0
  9
$DIMEXE
 40
0.125
  9
$DIMTP
 40
0.01
  9
$DIMTM
 40
0.01
  9
$DIMTXT
 40
2.0
  9
$DIMCEN
 40
0.1052362205
  9
$DIMTSZ
 40
0.0
  9
$DIMTOL
 70
     1
  9
$DIMLIM
 70
     0
  9
$DIMTIH
 70
     1
  9
$DIMTOH
 70
     1
  9
$DIMSE1
 70
     0
  9
$DIMSE2
 70
     0
  9
$DIMTAD
 70
     0
  9
$DIMZIN
 70
     0
  9
$DIMBLK
  1

  9
$DIMASO
 70
     1
  9
$DIMSHO
 70
     1
  9
$DIMPOST
  1
\X
  9
$DIMAPOST
  1

  9
$DIMALT
 70
     1
  9
$DIMALTD
 70
     2
  9
$DIMALTF
 40
25.3999999999999986
  9
$DIMLFAC
 40
1.0
  9
$DIMTOFL
 70
     0
  9
$DIMTVP
 40
0.0
  9
$DIMTIX
 70
     0
  9
$DIMSOXD
 70
     0
  9
$DIMSAH
 70
     0
  9
$DIMBLK1
  1

  9
$DIMBLK2
  1

  9
$DIMSTYLE
  2
STANDARD
  9
$DIMCLRD
 70
     0
  9
$DIMCLRE
 70
     0
  9
$DIMCLRT
 70
     0
  9
$DIMTFAC
 40
1.0
  9
$DIMGAP
 40
0.09
  9
$LUNITS
 70
     2
  9
$LUPREC
 70
     4
  9
$SKETCHINC
 40
0.1
  9
$FILLETRAD
 40
0.0
  9
$AUNITS
 70
     0
  9
$AUPREC
 70
     0
  9
$MENU
  1
.
  9
$ELEVATION
 40
0.0
  9
$PELEVATION
 40
0.0
  9
$THICKNESS
 40
0.0
  9
$LIMCHECK
 70
     0
  9
$BLIPMODE
 70
     0
  9
$CHAMFERA
 40
0.0
  9
$CHAMFERB
 40
0.0
  9
$SKPOLY
 70
     0
  9
$TDCREATE
 40
2458060.468368056230247
  9
$TDUPDATE
 40
2459377.6232870370149612
  9
$TDINDWG
 40
0.3750070602
  9
$TDUSRTIMER
 40
0.3750070602
  9
$USRTIMER
 70
     1
  9
$ANGBASE
 50
0.0
  9
$ANGDIR
 70
     0
  9
$PDMODE
 70
     0
  9
$PDSIZE
 40
0.3125
  9
$PLINEWID
 40
0.0
  9
$COORDS
 70
     1
  9
$SPLFRAME
 70
     0
  9
$SPLINETYPE
 70
     6
  9
$SPLINESEGS
 70
     8
  9
$ATTDIA
 70
     1
  9
$ATTREQ
 70
     1
  9
$HANDLING
 70
     1
  9
$HANDSEED
  5
8169
  9
$SURFTAB1
 70
     6
  9
$SURFTAB2
 70
     6
  9
$SURFTYPE
 70
     6
  9
$SURFU
 70
     6
  9
$SURFV
 70
     6
  9
$UCSNAME
  2

  9
$UCSORG
 10
0.0
 20
0.0
 30
0.0
  9
$UCSXDIR
 10
1.0
 20
0.0
 30
0.0
  9
$UCSYDIR
 10
0.0
 20
1.0
 30
0.0
  9
$PUCSNAME
  2

  9
$PUCSORG
 10
0.0
 20
0.0
 30
0.0
  9
$PUCSXDIR
 10
1.0
 20
0.0
 30
0.0
  9
$PUCSYDIR
 10
0.0
 20
1.0
 30
0.0
  9
$USERI1
 70
     0
  9
$USERI2
 70
     0
  9
$USERI3
 70
     0
  9
$USERI4
 70
     0
  9
$USERI5
 70
     0
  9
$USERR1
 40
0.0
  9
$USERR2
 40
0.0
  9
$USERR3
 40
0.0
  9
$USERR4
 40
0.0
  9
$USERR5
 40
0.0
  9
$WORLDVIEW
 70
     1
  9
$SHADEDGE
 70
     3
  9
$SHADEDIF
 70
    70
  9
$TILEMODE
 70
     1
  9
$MAXACTVP
 70
    64
  9
$PLIMCHECK
 70
     0
  9
$PEXTMIN
 10
1.0000000000000000E+20
 20
1.0000000000000000E+20
 30
1.0000000000000000E+20
  9
$PEXTMAX
 10
-1.0000000000000000E+20
 20
-1.0000000000000000E+20
 30
-1.0000000000000000E+20
  9
$PLIMMIN
 10
0.0
 20
0.0
  9
$PLIMMAX
 10
12.0
 20
9.0
  9
$UNITMODE
 70
     0
  9
$VISRETAIN
 70
     1
  9
$PLINEGEN
 70
     0
  9
$PSLTSCALE
 70
     1
  0
ENDSEC
  0
SECTION
  2
TABLES
  0
TABLE
  2
VPORT
 70
     1
  0
VPORT
  2
*ACTIVE
 70
     0
 10
0.0
 20
0.0
 11
1.0
 21
1.0
 12
532.3783873032825795
 22
-32.7388783991380308
 13
0.0
 23
0.0
 14
1.0
 24
1.0
 15
0.0
 25
0.0
 16
0.0
 26
0.0
 36
47.0568789906323275
 17
4028.786865234375
 27
135.8743591308592897
 37
0.0
 40
33.0688599875863929
 41
2.0410052910052912
 42
50.0
 43
0.0
 44
0.0
 50
0.0
 51
0.0
 71
     0
 72
   100
 73
     1
 74
     1
 75
     0
 76
     0
 77
     0
 78
     0
  0
ENDTAB
  0
TABLE
  2
LTYPE
 70
     2
  0
LTYPE
  2
CONTINUOUS
 70
     0
  3
Solid line
 72
    65
 73
     0
 40
0.0
  0
LTYPE
  2
PHANTOM2
 70
     0
  3
___ _ _ ___ _ _ ___ _ _ ___ _ _
 72
    65
 73
     6
 40
1.25
 49
0.625
 49
-0.125
 49
0.125
 49
-0.125
 49
0.125
 49
-0.125
  0
ENDTAB
  0
TABLE
  2
LAYER
 70
     2
  0
LAYER
  2
0
 70
     0
 62
   255
  6
CONTINUOUS
  0
LAYER
  2
DEFPOINTS
 70
     0
 62
     7
  6
CONTINUOUS
  0
ENDTAB
  0
TABLE
  2
STYLE
 70
     1
  0
STYLE
  2
STANDARD
 70
     0
 40
0.0
 41
0.8
 50
0.0
 71
     0
 42
0.2
  3
txt
  4

  0
ENDTAB
  0
TABLE
  2
VIEW
 70
     1
  0
ENDTAB
  0
TABLE
  2
UCS
 70
     0
  0
ENDTAB
  0
TABLE
  2
APPID
 70
     9
  0
APPID
  2
ACAD
 70
     0
  0
APPID
  2
ACAD_MLEADERVER
 70
     0
  0
APPID
  2
ACAD_EXEMPT_FROM_CAD_STANDARDS
 70
     0
  0
APPID
  2
ACAD_NAV_VCDISPLAY
 70
     0
  0
APPID
  2
ACAECLAYERSTANDARD
 70
     0
  0
APPID
  2
ACCMTRANSPARENCY
 70
     0
  0
APPID
  2
ACAD_DSTYLE_DIMJAG
 70
     0
  0
APPID
  2
ACAD_DSTYLE_DIMTALN
 70
     0
  0
APPID
  2
ACDBATTR
 70
     0
  0
ENDTAB
  0
TABLE
  2
DIMSTYLE
 70
     1
  0
DIMSTYLE
  2
STANDARD
 70
     0
  3

  4

  5

  6

  7

 40
1.0
 41
0.1875
 42
0.0625
 43
0.38
 44
0.125
 45
0.0
 46
0.0
 47
0.01
 48
0.01
140
0.15625
141
0.09
142
0.0
143
25.3999999999999986
144
1.0
145
0.0
146
1.0
147
0.09
 71
     1
 72
     0
 73
     1
 74
     1
 75
     0
 76
     0
 77
     0
 78
     4
170
     0
171
     2
172
     0
173
     0
174
     0
175
     0
176
     0
177
     0
178
     0
  0
ENDTAB
  0
ENDSEC
  0
SECTION
  2
BLOCKS
  0
BLOCK
  8
0
  2
$MODEL_SPACE
 70
     0
 10
0.0
 20
0.0
 30
0.0
  3
$MODEL_SPACE
  1

  0
ENDBLK
  5
21
  8
0
  0
BLOCK
 67
     1
  8
0
  2
$PAPER_SPACE
 70
     0
 10
0.0
 20
0.0
 30
0.0
  3
$PAPER_SPACE
  1

  0
ENDBLK
  5
1D
 67
     1
  8
0
  0
ENDSEC
  0
SECTION
  2
ENTITIES
  0
ATTDEF
  5
7608
  8
DEFPOINTS
 10
4561.2536621396411647
 20
103.192936088469196
 30
0.0
 40
0.001
  1
K-1789T-1P
  3

  2
MODELNUMBER
 70
     0
1001
ACDBATTR
1070
     0
1070
     1
  0
ATTDEF
  5
7609
  8
DEFPOINTS
 10
4561.2536621396411647
 20
103.1912694218025024
 30
0.0
 40
0.001
  1
OVE
  3

  2
TRADENAME
 70
     0
1001
ACDBATTR
1070
     0
1070
     1
  0
ATTDEF
  5
760A
  8
DEFPOINTS
 10
4561.2536621396411647
 20
103.1896027551357946
 30
0.0
 40
0.001
  1
BATH
  3

  2
PRODUCT
 70
     0
1001
ACDBATTR
1070
     0
1070
     1
  0
LINE
  5
80E2
  8
0
 10
4594.3689135236054426
 20
117.9973214298078972
 30
0.0
 11
4528.2266426931528258
 21
117.9973214298078972
 31
0.0
  0
ARC
  5
80E3
  8
0
 10
4594.3689120142753382
 20
117.6039177859645974
 30
0.0
 40
0.3934036438462093
 50
0.0005306937200091
 51
89.9997801794453949
  0
LINE
  5
80E4
  8
0
 10
4594.2869784266704301
 20
88.273151894407917
 30
0.0
 11
4528.0694982685054129
 21
88.273151894407917
 31
0.0
  0
LINE
  5
80E5
  8
0
 10
4527.6757974147049026
 20
117.7258965926078957
 30
0.0
 11
4527.6757974147049026
 21
88.6668527481079281
 31
0.0
  0
LINE
  5
80E6
  8
0
 10
4594.7623156581048534
 20
117.6039214298078974
 30
0.0
 11
4594.7623156581048534
 21
88.8632312175404451
 31
0.0
  0
LINE
  5
80E7
  8
0
 10
4527.8331817384041642
 20
117.6038579114586042
 30
0.0
 11
4527.8331817384041642
 21
88.8632232688079142
 31
0.0
  0
ARC
  5
80E8
  8
0
 10
4528.226559445314706
 20
117.6039437223476938
 30
0.0
 40
0.3933777162689062
 50
89.9878747760483293
 51
180.0124983878964997
  0
ARC
  5
80E9
  8
0
 10
4527.833277729526344
 20
117.7258965927829024
 30
0.0
 40
0.157480314822088
 50
91.4976724985523475
 51
180.000000063661588
  0
LINE
  5
80EA
  8
0
 10
4527.9529324827308301
 20
117.8865641605919024
 30
0.0
 11
4527.8291617705317549
 21
117.8833231103649979
 31
0.0
  0
ARC
  5
80EB
  8
0
 10
4528.2228614882687907
 20
88.8594509401800252
 30
0.0
 40
0.3896980086140844
 50
179.4453605606842075
 51
270.5403822527205193
  0
ARC
  5
80EC
  8
0
 10
4528.0694982685054129
 20
88.6668527481079138
 30
0.0
 40
0.3937008538
 50
179.9999999999992042
 51
270.0
  0
ARC
  5
80ED
  8
0
 10
4594.2899483502042131
 20
88.6668668803079214
 30
0.0
 40
0.3937261873029153
 50
269.5678070098005037
 51
353.7606432752386922
  0
ARC
  5
80EE
  8
0
 10
4594.3689567304627417
 20
88.863129189192108
 30
0.0
 40
0.3933589408732777
 50
269.9839809606024232
 51
0.0148613163587668
  0
LINE
  5
80EF
  8
0
 10
4594.3688467538313489
 20
88.4697702636928227
 30
0.0
 11
4528.2265368508788015
 21
88.4697702636928227
 31
0.0
  0
CIRCLE
  5
80F0
  8
0
 10
4581.6374709163037551
 20
103.2335418715078958
 30
0.0
 40
0.984251968499997
  0
CIRCLE
  5
80F1
  8
0
 10
4581.6374709163037551
 20
103.2335418715078958
 30
0.0
 40
1.7716535335000161
  0
ARC
  5
80F2
  8
0
 10
4592.5617380602880075
 20
95.0533810341211165
 30
0.0
 40
6.902007355515301
 50
113.5422742875377935
 51
116.7564171648103013
  0
ARC
  5
80F3
  8
0
 10
4589.3998471592658461
 20
101.3247099733264065
 30
0.0
 40
0.121319543731284
 50
220.6700325209525886
 51
296.7564171648107276
  0
ARC
  5
80F4
  8
0
 10
4598.7357078940813153
 20
102.8300064167574988
 30
0.0
 40
9.560078119894289
 50
177.5810960623053916
 51
189.5394550221988936
  0
ARC
  5
80F5
  8
0
 10
4597.0697075678854162
 20
103.740722423449597
 30
0.0
 40
7.9018560485155396
 50
169.1996241600755013
 51
183.6804185192164027
  0
ARC
  5
80F6
  8
0
 10
4589.3961471683933269
 20
105.1609300843510937
 30
0.0
 40
0.1070583990806244
 50
56.976493801375689
 51
145.5876977945877968
  0
ARC
  5
80F7
  8
0
 10
4588.9307455919333734
 20
103.7172139667770949
 30
0.0
 40
1.6204530476396319
 50
57.3335748485893504
 51
71.142837855075939
  0
ARC
  5
80F8
  8
0
 10
4575.7975762599908194
 20
103.5427634045566947
 30
0.0
 40
14.0920489429728093
 50
358.735598933515007
 51
6.2681388614613729
  0
ARC
  5
80F9
  8
0
 10
4575.5555710278822517
 20
102.933991249961295
 30
0.0
 40
14.3337171477878194
 50
353.7796746585368055
 51
1.190531902467552
  0
ARC
  5
80FA
  8
0
 10
4587.7222994578351063
 20
103.3985356151501946
 30
0.0
 40
2.0455330515755419
 50
355.3734670040067272
 51
24.8192908852307994
  0
ARC
  5
80FB
  8
0
 10
4591.6935586036106542
 20
103.3525850089205989
 30
0.0
 40
2.3000101813791192
 50
156.8404190651930037
 51
182.9668209079837879
  0
ARC
  5
80FC
  8
0
 10
4591.5324924503947841
 20
103.0858189439807973
 30
0.0
 40
2.1409636633734048
 50
176.0435430835781005
 51
204.1492148075986961
  0
ARC
  5
80FD
  8
0
 10
4587.6234424594676966
 20
103.0861508331416019
 30
0.0
 40
2.1428000573442172
 50
335.8630745722679762
 51
3.944165398967399
  0
ARC
  5
80FE
  8
0
 10
4570.0714967968970086
 20
102.9496822570336008
 30
0.0
 40
21.2088040743857107
 50
0.7668722590077214
 51
37.8803944304433529
  0
ARC
  5
80FF
  8
0
 10
4585.9456138940486198
 20
114.1941104190836995
 30
0.0
 40
1.9777174168360609
 50
64.035597194398278
 51
96.5203353663376618
  0
ARC
  5
8100
  8
0
 10
4578.9477327893491747
 20
238.8469655512490135
 30
0.0
 40
122.8747567384359058
 50
270.0053894439612918
 51
273.1599516925109015
  0
ARC
  5
8101
  8
0
 10
4570.071515026275847
 20
103.5173947708519933
 30
0.0
 40
21.208785756764911
 50
322.1195896576411997
 51
359.2331452213283001
  0
ARC
  5
8102
  8
0
 10
4585.9456138294272023
 20
92.2729756134197885
 30
0.0
 40
1.9777196763127001
 50
263.4796739996162955
 51
295.9643780011174954
  0
ARC
  5
8103
  8
0
 10
4578.9477327893491747
 20
-32.3798818003184081
 30
0.0
 40
122.8747567384359058
 50
86.8400483074890701
 51
89.9946105560387082
  0
ARC
  5
8104
  8
0
 10
4571.3951713453461707
 20
103.0374782404638978
 30
0.0
 40
14.6474462269112795
 50
0.766956497826791
 51
32.4685507702801175
  0
ARC
  5
8105
  8
0
 10
4582.5230933207549242
 20
110.1174291304271975
 30
0.0
 40
1.458194987701434
 50
32.4928577358452912
 51
90.9451807172697073
  0
ARC
  5
8106
  8
0
 10
4571.3951713453461707
 20
103.4296055025518939
 30
0.0
 40
14.6474462269112795
 50
327.531449229719783
 51
359.2330435021731887
  0
ARC
  5
8107
  8
0
 10
4582.5230933210532385
 20
96.3496546122747333
 30
0.0
 40
1.4581949872827
 50
269.054819293935509
 51
327.5071422683067226
  0
ARC
  5
8108
  8
0
 10
4557.5674672726363497
 20
103.0374782404638978
 30
0.0
 40
14.6474462269112795
 50
147.5314492297198967
 51
179.2330435021731887
  0
ARC
  5
8109
  8
0
 10
4546.4395452972266867
 20
110.1174291304271975
 30
0.0
 40
1.458194987701432
 50
89.0548192823133746
 51
147.5071422641547088
  0
ARC
  5
810A
  8
0
 10
4557.5674672726363497
 20
103.4296055025518939
 30
0.0
 40
14.6474462269112795
 50
180.7669564978268113
 51
212.4685507702801033
  0
ARC
  5
810B
  8
0
 10
4546.4395452969301914
 20
96.3496546122747048
 30
0.0
 40
1.4581949872826929
 50
212.4928577316933058
 51
270.945180706064491
  0
LINE
  5
810C
  8
0
 10
4582.4990392755025823
 20
111.5754257096634063
 30
0.0
 11
4546.4635993424899425
 21
111.5754257096634063
 31
0.0
  0
LINE
  5
810D
  8
0
 10
4582.4990392760919349
 20
94.8916580334524582
 30
0.0
 11
4546.4635993418905855
 21
94.8916580334524582
 31
0.0
  0
LINE
  5
810E
  8
0
 10
4578.9592908242038902
 20
90.4948743945226539
 30
0.0
 11
4532.0104635542465985
 21
90.4948743945226539
 31
0.0
  0
ARC
  5
810F
  8
0
 10
4540.2088138736371548
 20
18.2499059565172601
 30
0.0
 40
72.7086543168544495
 50
91.7735194315851572
 51
96.4742219645423233
  0
ARC
  5
8110
  8
0
 10
4536.4492374632372957
 20
111.5020872916777961
 30
0.0
 40
20.6336336327244503
 50
274.1948766551956282
 51
295.5862217660651936
  0
ARC
  5
8111
  8
0
 10
4538.9221602927163985
 20
97.748192207184573
 30
0.0
 40
8.0643096677956407
 50
322.9723492131964235
 51
339.2543949603600026
  0
ARC
  5
8112
  8
0
 10
4539.8430697974436043
 20
109.3062414924360013
 30
0.0
 40
6.9759290794144677
 50
18.9847319759716484
 51
37.7312590411995217
  0
ARC
  5
8113
  8
0
 10
4536.518285767549969
 20
95.1646530224346634
 30
0.0
 40
20.4237496992750209
 50
64.3465960019274945
 51
86.2321652696803227
  0
LINE
  5
8114
  8
0
 10
4578.9592908242038902
 20
115.9722093564079017
 30
0.0
 11
4532.0104622003673285
 21
115.9722093564079017
 31
0.0
  0
ARC
  5
8115
  8
0
 10
4530.6589400843513431
 20
57.3001803528113314
 30
0.0
 40
58.6875932325475134
 50
82.9515562638281665
 51
88.6804134377034359
  0
ENDSEC
  0
EOF
