  0
SECTION
  2
HEADER
  9
$ACADVER
  1
AC1009
  9
$INSBASE
 10
4493.6749787723201734
 20
92.4050720859619474
 30
0.0
  9
$EXTMIN
 10
4459.9078507036683732
 20
92.3935896309776012
 30
-0.0000000349181948
  9
$EXTMAX
 10
4527.2586271866293828
 20
113.852880807712495
 30
0.0000000814935746
  9
$LIMMIN
 10
0.0
 20
0.0
  9
$LIMMAX
 10
11.6929133858000007
 20
8.2677165353999982
  9
$ORTHOMODE
 70
     0
  9
$REGENMODE
 70
     1
  9
$FILLMODE
 70
     1
  9
$QTEXTMODE
 70
     0
  9
$MIRRTEXT
 70
     0
  9
$DRAGMODE
 70
     2
  9
$LTSCALE
 40
0.6431102362
  9
$OSMODE
 70
  4095
  9
$ATTMODE
 70
     1
  9
$TEXTSIZE
 40
0.2
  9
$TRACEWID
 40
0.05
  9
$TEXTSTYLE
  7
STANDARD
  9
$CLAYER
  8
0
  9
$CELTYPE
  6
BYLAYER
  9
$CECOLOR
 62
   256
  9
$DIMSCALE
 40
1.0
  9
$DIMASZ
 40
0.1875
  9
$DIMEXO
 40
0.0625
  9
$DIMDLI
 40
0.4443307087
  9
$DIMRND
 40
0.0
  9
$DIMDLE
 40
0.0
  9
$DIMEXE
 40
0.125
  9
$DIMTP
 40
0.01
  9
$DIMTM
 40
0.01
  9
$DIMTXT
 40
2.0
  9
$DIMCEN
 40
0.1052362205
  9
$DIMTSZ
 40
0.0
  9
$DIMTOL
 70
     1
  9
$DIMLIM
 70
     0
  9
$DIMTIH
 70
     1
  9
$DIMTOH
 70
     1
  9
$DIMSE1
 70
     0
  9
$DIMSE2
 70
     0
  9
$DIMTAD
 70
     0
  9
$DIMZIN
 70
     0
  9
$DIMBLK
  1

  9
$DIMASO
 70
     1
  9
$DIMSHO
 70
     1
  9
$DIMPOST
  1
\X
  9
$DIMAPOST
  1

  9
$DIMALT
 70
     1
  9
$DIMALTD
 70
     2
  9
$DIMALTF
 40
25.3999999999999986
  9
$DIMLFAC
 40
1.0
  9
$DIMTOFL
 70
     0
  9
$DIMTVP
 40
0.0
  9
$DIMTIX
 70
     0
  9
$DIMSOXD
 70
     0
  9
$DIMSAH
 70
     0
  9
$DIMBLK1
  1

  9
$DIMBLK2
  1

  9
$DIMSTYLE
  2
STANDARD
  9
$DIMCLRD
 70
     0
  9
$DIMCLRE
 70
     0
  9
$DIMCLRT
 70
     0
  9
$DIMTFAC
 40
1.0
  9
$DIMGAP
 40
0.09
  9
$LUNITS
 70
     2
  9
$LUPREC
 70
     4
  9
$SKETCHINC
 40
0.1
  9
$FILLETRAD
 40
0.0
  9
$AUNITS
 70
     0
  9
$AUPREC
 70
     0
  9
$MENU
  1
.
  9
$ELEVATION
 40
0.0
  9
$PELEVATION
 40
0.0
  9
$THICKNESS
 40
0.0
  9
$LIMCHECK
 70
     0
  9
$BLIPMODE
 70
     0
  9
$CHAMFERA
 40
0.0
  9
$CHAMFERB
 40
0.0
  9
$SKPOLY
 70
     0
  9
$TDCREATE
 40
2458060.468368056230247
  9
$TDUPDATE
 40
2459377.623043981846422
  9
$TDINDWG
 40
0.3756899306
  9
$TDUSRTIMER
 40
0.3756899306
  9
$USRTIMER
 70
     1
  9
$ANGBASE
 50
0.0
  9
$ANGDIR
 70
     0
  9
$PDMODE
 70
     0
  9
$PDSIZE
 40
0.3125
  9
$PLINEWID
 40
0.0
  9
$COORDS
 70
     1
  9
$SPLFRAME
 70
     0
  9
$SPLINETYPE
 70
     6
  9
$SPLINESEGS
 70
     8
  9
$ATTDIA
 70
     1
  9
$ATTREQ
 70
     1
  9
$HANDLING
 70
     1
  9
$HANDSEED
  5
809E
  9
$SURFTAB1
 70
     6
  9
$SURFTAB2
 70
     6
  9
$SURFTYPE
 70
     6
  9
$SURFU
 70
     6
  9
$SURFV
 70
     6
  9
$UCSNAME
  2

  9
$UCSORG
 10
0.0
 20
0.0
 30
0.0
  9
$UCSXDIR
 10
1.0
 20
0.0
 30
0.0
  9
$UCSYDIR
 10
0.0
 20
1.0
 30
0.0
  9
$PUCSNAME
  2

  9
$PUCSORG
 10
0.0
 20
0.0
 30
0.0
  9
$PUCSXDIR
 10
1.0
 20
0.0
 30
0.0
  9
$PUCSYDIR
 10
0.0
 20
1.0
 30
0.0
  9
$USERI1
 70
     0
  9
$USERI2
 70
     0
  9
$USERI3
 70
     0
  9
$USERI4
 70
     0
  9
$USERI5
 70
     0
  9
$USERR1
 40
0.0
  9
$USERR2
 40
0.0
  9
$USERR3
 40
0.0
  9
$USERR4
 40
0.0
  9
$USERR5
 40
0.0
  9
$WORLDVIEW
 70
     1
  9
$SHADEDGE
 70
     3
  9
$SHADEDIF
 70
    70
  9
$TILEMODE
 70
     1
  9
$MAXACTVP
 70
    64
  9
$PLIMCHECK
 70
     0
  9
$PEXTMIN
 10
1.0000000000000000E+20
 20
1.0000000000000000E+20
 30
1.0000000000000000E+20
  9
$PEXTMAX
 10
-1.0000000000000000E+20
 20
-1.0000000000000000E+20
 30
-1.0000000000000000E+20
  9
$PLIMMIN
 10
0.0
 20
0.0
  9
$PLIMMAX
 10
12.0
 20
9.0
  9
$UNITMODE
 70
     0
  9
$VISRETAIN
 70
     1
  9
$PLINEGEN
 70
     0
  9
$PSLTSCALE
 70
     1
  0
ENDSEC
  0
SECTION
  2
TABLES
  0
TABLE
  2
VPORT
 70
     1
  0
VPORT
  2
*ACTIVE
 70
     0
 10
0.0
 20
0.0
 11
1.0
 21
1.0
 12
464.796373710773878
 22
-32.7511239115143269
 13
0.0
 23
0.0
 14
1.0
 24
1.0
 15
0.0
 25
0.0
 16
0.0
 26
0.0
 36
47.0568789906323275
 17
4028.786865234375
 27
135.8743591308592897
 37
0.0
 40
33.1269724055904291
 41
2.0410052910052912
 42
50.0
 43
0.0
 44
0.0
 50
0.0
 51
0.0
 71
     0
 72
   100
 73
     1
 74
     1
 75
     0
 76
     0
 77
     0
 78
     0
  0
ENDTAB
  0
TABLE
  2
LTYPE
 70
     2
  0
LTYPE
  2
CONTINUOUS
 70
     0
  3
Solid line
 72
    65
 73
     0
 40
0.0
  0
LTYPE
  2
PHANTOM2
 70
     0
  3
___ _ _ ___ _ _ ___ _ _ ___ _ _
 72
    65
 73
     6
 40
1.25
 49
0.625
 49
-0.125
 49
0.125
 49
-0.125
 49
0.125
 49
-0.125
  0
ENDTAB
  0
TABLE
  2
LAYER
 70
     2
  0
LAYER
  2
0
 70
     0
 62
   255
  6
CONTINUOUS
  0
LAYER
  2
DEFPOINTS
 70
     0
 62
     7
  6
CONTINUOUS
  0
ENDTAB
  0
TABLE
  2
STYLE
 70
     1
  0
STYLE
  2
STANDARD
 70
     0
 40
0.0
 41
0.8
 50
0.0
 71
     0
 42
0.2
  3
txt
  4

  0
ENDTAB
  0
TABLE
  2
VIEW
 70
     1
  0
ENDTAB
  0
TABLE
  2
UCS
 70
     0
  0
ENDTAB
  0
TABLE
  2
APPID
 70
     9
  0
APPID
  2
ACAD
 70
     0
  0
APPID
  2
ACAD_MLEADERVER
 70
     0
  0
APPID
  2
ACAD_EXEMPT_FROM_CAD_STANDARDS
 70
     0
  0
APPID
  2
ACAD_NAV_VCDISPLAY
 70
     0
  0
APPID
  2
ACAECLAYERSTANDARD
 70
     0
  0
APPID
  2
ACCMTRANSPARENCY
 70
     0
  0
APPID
  2
ACAD_DSTYLE_DIMJAG
 70
     0
  0
APPID
  2
ACAD_DSTYLE_DIMTALN
 70
     0
  0
APPID
  2
ACDBATTR
 70
     0
  0
ENDTAB
  0
TABLE
  2
DIMSTYLE
 70
     1
  0
DIMSTYLE
  2
STANDARD
 70
     0
  3

  4

  5

  6

  7

 40
1.0
 41
0.1875
 42
0.0625
 43
0.38
 44
0.125
 45
0.0
 46
0.0
 47
0.01
 48
0.01
140
0.15625
141
0.09
142
0.0
143
25.3999999999999986
144
1.0
145
0.0
146
1.0
147
0.09
 71
     1
 72
     0
 73
     1
 74
     1
 75
     0
 76
     0
 77
     0
 78
     4
170
     0
171
     2
172
     0
173
     0
174
     0
175
     0
176
     0
177
     0
178
     0
  0
ENDTAB
  0
ENDSEC
  0
SECTION
  2
BLOCKS
  0
BLOCK
  8
0
  2
$MODEL_SPACE
 70
     0
 10
0.0
 20
0.0
 30
0.0
  3
$MODEL_SPACE
  1

  0
ENDBLK
  5
21
  8
0
  0
BLOCK
 67
     1
  8
0
  2
$PAPER_SPACE
 70
     0
 10
0.0
 20
0.0
 30
0.0
  3
$PAPER_SPACE
  1

  0
ENDBLK
  5
1D
 67
     1
  8
0
  0
ENDSEC
  0
SECTION
  2
ENTITIES
  0
ATTDEF
  5
7608
  8
DEFPOINTS
 10
4493.6682764745492022
 20
92.4023948375408963
 30
0.0
 40
0.001
  1
K-1789T-1P
  3

  2
MODELNUMBER
 70
     0
1001
ACDBATTR
1070
     0
1070
     1
  0
ATTDEF
  5
7609
  8
DEFPOINTS
 10
4493.6682764745492022
 20
92.4007281708742312
 30
0.0
 40
0.001
  1
OVE
  3

  2
TRADENAME
 70
     0
1001
ACDBATTR
1070
     0
1070
     1
  0
ATTDEF
  5
760A
  8
DEFPOINTS
 10
4493.6682764745492022
 20
92.399061504207566
 30
0.0
 40
0.001
  1
BATH
  3

  2
PRODUCT
 70
     0
1001
ACDBATTR
1070
     0
1070
     1
  0
LINE
  5
802F
  8
0
 10
4527.1789157801704278
 20
93.6255445269619457
 30
0.0
 11
4527.1789157801704278
 21
111.9326311411619059
 31
0.0
  0
LINE
  5
8030
  8
0
 10
4527.0214354652698603
 20
112.090111456061905
 30
0.0
 11
4526.7089648929959367
 21
112.090111456061905
 31
0.0
  0
LINE
  5
8031
  8
0
 10
4526.5883645990697914
 20
92.4050720859619474
 30
0.0
 11
4460.761592945569646
 21
92.4050720859619474
 31
0.0
  0
LINE
  5
8032
  8
0
 10
4526.5883645990697914
 20
93.2318437395619526
 30
0.0
 11
4526.5883645990697914
 21
92.4050720859619474
 31
0.0
  0
LINE
  5
8033
  8
0
 10
4526.7458449140704033
 20
93.3893240544619516
 30
0.0
 11
4526.9426953077690996
 21
93.3893240544619516
 31
0.0
  0
ARC
  5
8034
  8
0
 10
4526.7458449140704033
 20
93.2318437395619526
 30
0.0
 40
0.1574803149999994
 50
90.0
 51
180.0
  0
ARC
  5
8035
  8
0
 10
4526.9426953077690996
 20
93.6255445269619457
 30
0.0
 40
0.2362204723999997
 50
270.0
 51
0.0
  0
ARC
  5
8036
  8
0
 10
4527.0214354652698603
 20
111.9326311411619059
 30
0.0
 40
0.1574803150000007
 50
0.0
 51
90.0
  0
LINE
  5
8037
  8
0
 10
4526.9709438468571534
 20
113.6174273258383067
 30
0.0
 11
4527.0215314564702567
 21
112.1688516135618983
 31
0.0
  0
LINE
  5
8038
  8
0
 10
4526.7182771847074036
 20
113.8474041497049996
 30
0.0
 11
4460.3825881091051997
 21
113.8474041497049996
 31
0.0
  0
ARC
  5
8039
  8
0
 10
4526.7340142843841022
 20
113.6101999385257955
 30
0.0
 40
0.2370397702950406
 50
1.7472299164013301
 51
66.9904450874660853
  0
ARC
  5
803A
  8
0
 10
4526.7306592672848637
 20
113.5996425556056977
 30
0.0
 40
0.2480708033602302
 50
67.2303329171429453
 51
92.8610218253839435
  0
LINE
  5
803B
  8
0
 10
4527.0215314564702567
 20
112.1688516135618983
 30
0.0
 11
4460.0923975367713865
 21
112.1688516135618983
 31
0.0
  0
ARC
  5
803C
  8
0
 10
4526.706474835269546
 20
112.2475917710619058
 30
0.0
 40
0.1575
 50
209.9958656444854057
 51
270.9058777321149023
  0
LINE
  5
803D
  8
0
 10
4460.3302128535187876
 20
112.0901067829289985
 30
0.0
 11
4460.6426834257927112
 21
112.0901067829289985
 31
0.0
  0
ARC
  5
803E
  8
0
 10
4460.3314240242743836
 20
111.9297024431673009
 30
0.0
 40
0.160408912411581
 50
90.4326170587852403
 51
178.9555221046985025
  0
ARC
  5
803F
  8
0
 10
4460.6451734835191019
 20
112.2475870979289994
 30
0.0
 40
0.1575
 50
269.0941222678850977
 51
330.0041343555146227
  0
LINE
  5
8040
  8
0
 10
4460.761592945569646
 20
93.2318437395619526
 30
0.0
 11
4460.761592945569646
 21
92.4050720859619474
 31
0.0
  0
LINE
  5
8041
  8
0
 10
4526.7458449140704033
 20
93.3893240544619516
 30
0.0
 11
4460.4072622368703378
 21
93.3893240544619516
 31
0.0
  0
ARC
  5
8042
  8
0
 10
4460.6041126305690341
 20
93.2318437395619526
 30
0.0
 40
0.1574803149999994
 50
0.0
 51
90.0
  0
ARC
  5
8043
  8
0
 10
4460.4072622368703378
 20
93.6255445269619457
 30
0.0
 40
0.2362204723999997
 50
180.0
 51
270.0
  0
LINE
  5
8044
  8
0
 10
4460.1710417644699191
 20
111.9326264680289995
 30
0.0
 11
4460.1710417644699191
 21
93.6255445269619457
 31
0.0
  0
LINE
  5
8045
  8
0
 10
4460.1430109127695687
 20
113.6182290660619003
 30
0.0
 11
4460.0923975367713865
 21
112.1688516135618983
 31
0.0
  0
ARC
  5
8046
  8
0
 10
4460.3801860521225535
 20
113.6101019655336017
 30
0.0
 40
0.2373143410971323
 50
89.4200515793166062
 51
178.0374568831406066
  0
LINE
  5
8047
  8
0
 10
4460.0923975367713865
 20
112.1688516135618983
 30
0.0
 11
4527.0215314564702567
 21
112.1688516135618983
 31
0.0
  0
CIRCLE
  5
8049
  8
0
 10
4465.2497819219706798
 20
92.7318000122050847
 30
0.0
 40
0.0984251969000001
  0
CIRCLE
  5
804A
  8
0
 10
4494.7773409770707076
 20
92.7318000122050847
 30
0.0
 40
0.0984251969000001
  0
CIRCLE
  5
804B
  8
0
 10
4521.3521441266702823
 20
92.7318000122050847
 30
0.0
 40
0.0984251969000001
  0
ENDSEC
  0
EOF
