  0
SECTION
  2
HEADER
  9
$ACADVER
  1
AC1009
  9
$INSBASE
 10
4242.352425767884597
 20
92.5982190151218134
 30
0.0
  9
$EXTMIN
 10
4208.7250622280917014
 20
92.5964418254732209
 30
-0.0000000000000058
  9
$EXTMAX
 10
4275.9310291248239082
 20
114.637798948121997
 30
0.0000000000000104
  9
$LIMMIN
 10
0.0
 20
0.0
  9
$LIMMAX
 10
11.6929133858000007
 20
8.2677165353999982
  9
$ORTHOMODE
 70
     0
  9
$REGENMODE
 70
     1
  9
$FILLMODE
 70
     1
  9
$QTEXTMODE
 70
     0
  9
$MIRRTEXT
 70
     0
  9
$DRAGMODE
 70
     2
  9
$LTSCALE
 40
0.6431102362
  9
$OSMODE
 70
  4095
  9
$ATTMODE
 70
     1
  9
$TEXTSIZE
 40
0.2
  9
$TRACEWID
 40
0.05
  9
$TEXTSTYLE
  7
STANDARD
  9
$CLAYER
  8
0
  9
$CELTYPE
  6
BYLAYER
  9
$CECOLOR
 62
   256
  9
$DIMSCALE
 40
1.0
  9
$DIMASZ
 40
0.1875
  9
$DIMEXO
 40
0.0625
  9
$DIMDLI
 40
0.4443307087
  9
$DIMRND
 40
0.0
  9
$DIMDLE
 40
0.0
  9
$DIMEXE
 40
0.125
  9
$DIMTP
 40
0.01
  9
$DIMTM
 40
0.01
  9
$DIMTXT
 40
2.0
  9
$DIMCEN
 40
0.1052362205
  9
$DIMTSZ
 40
0.0
  9
$DIMTOL
 70
     1
  9
$DIMLIM
 70
     0
  9
$DIMTIH
 70
     1
  9
$DIMTOH
 70
     1
  9
$DIMSE1
 70
     0
  9
$DIMSE2
 70
     0
  9
$DIMTAD
 70
     0
  9
$DIMZIN
 70
     0
  9
$DIMBLK
  1

  9
$DIMASO
 70
     1
  9
$DIMSHO
 70
     1
  9
$DIMPOST
  1
\X
  9
$DIMAPOST
  1

  9
$DIMALT
 70
     1
  9
$DIMALTD
 70
     2
  9
$DIMALTF
 40
25.3999999999999986
  9
$DIMLFAC
 40
1.0
  9
$DIMTOFL
 70
     0
  9
$DIMTVP
 40
0.0
  9
$DIMTIX
 70
     0
  9
$DIMSOXD
 70
     0
  9
$DIMSAH
 70
     0
  9
$DIMBLK1
  1

  9
$DIMBLK2
  1

  9
$DIMSTYLE
  2
STANDARD
  9
$DIMCLRD
 70
     0
  9
$DIMCLRE
 70
     0
  9
$DIMCLRT
 70
     0
  9
$DIMTFAC
 40
1.0
  9
$DIMGAP
 40
0.09
  9
$LUNITS
 70
     2
  9
$LUPREC
 70
     4
  9
$SKETCHINC
 40
0.1
  9
$FILLETRAD
 40
0.0
  9
$AUNITS
 70
     0
  9
$AUPREC
 70
     0
  9
$MENU
  1
.
  9
$ELEVATION
 40
0.0
  9
$PELEVATION
 40
0.0
  9
$THICKNESS
 40
0.0
  9
$LIMCHECK
 70
     0
  9
$BLIPMODE
 70
     0
  9
$CHAMFERA
 40
0.0
  9
$CHAMFERB
 40
0.0
  9
$SKPOLY
 70
     0
  9
$TDCREATE
 40
2458060.468368056230247
  9
$TDUPDATE
 40
2459375.513310186099261
  9
$TDINDWG
 40
0.3720556713
  9
$TDUSRTIMER
 40
0.3720556713
  9
$USRTIMER
 70
     1
  9
$ANGBASE
 50
0.0
  9
$ANGDIR
 70
     0
  9
$PDMODE
 70
     0
  9
$PDSIZE
 40
0.3125
  9
$PLINEWID
 40
0.0
  9
$COORDS
 70
     1
  9
$SPLFRAME
 70
     0
  9
$SPLINETYPE
 70
     6
  9
$SPLINESEGS
 70
     8
  9
$ATTDIA
 70
     1
  9
$ATTREQ
 70
     1
  9
$HANDLING
 70
     1
  9
$HANDSEED
  5
8014
  9
$SURFTAB1
 70
     6
  9
$SURFTAB2
 70
     6
  9
$SURFTYPE
 70
     6
  9
$SURFU
 70
     6
  9
$SURFV
 70
     6
  9
$UCSNAME
  2

  9
$UCSORG
 10
0.0
 20
0.0
 30
0.0
  9
$UCSXDIR
 10
1.0
 20
0.0
 30
0.0
  9
$UCSYDIR
 10
0.0
 20
1.0
 30
0.0
  9
$PUCSNAME
  2

  9
$PUCSORG
 10
0.0
 20
0.0
 30
0.0
  9
$PUCSXDIR
 10
1.0
 20
0.0
 30
0.0
  9
$PUCSYDIR
 10
0.0
 20
1.0
 30
0.0
  9
$USERI1
 70
     0
  9
$USERI2
 70
     0
  9
$USERI3
 70
     0
  9
$USERI4
 70
     0
  9
$USERI5
 70
     0
  9
$USERR1
 40
0.0
  9
$USERR2
 40
0.0
  9
$USERR3
 40
0.0
  9
$USERR4
 40
0.0
  9
$USERR5
 40
0.0
  9
$WORLDVIEW
 70
     1
  9
$SHADEDGE
 70
     3
  9
$SHADEDIF
 70
    70
  9
$TILEMODE
 70
     1
  9
$MAXACTVP
 70
    64
  9
$PLIMCHECK
 70
     0
  9
$PEXTMIN
 10
1.0000000000000000E+20
 20
1.0000000000000000E+20
 30
1.0000000000000000E+20
  9
$PEXTMAX
 10
-1.0000000000000000E+20
 20
-1.0000000000000000E+20
 30
-1.0000000000000000E+20
  9
$PLIMMIN
 10
0.0
 20
0.0
  9
$PLIMMAX
 10
12.0
 20
9.0
  9
$UNITMODE
 70
     0
  9
$VISRETAIN
 70
     1
  9
$PLINEGEN
 70
     0
  9
$PSLTSCALE
 70
     1
  0
ENDSEC
  0
SECTION
  2
TABLES
  0
TABLE
  2
VPORT
 70
     1
  0
VPORT
  2
*ACTIVE
 70
     0
 10
0.0
 20
0.0
 11
1.0
 21
1.0
 12
213.5411804420828048
 22
-32.2572387440617376
 13
0.0
 23
0.0
 14
1.0
 24
1.0
 15
0.0
 25
0.0
 16
0.0
 26
0.0
 36
47.0568789906323275
 17
4028.786865234375
 27
135.8743591308592897
 37
0.0
 40
26.7169896715313584
 41
2.5251322751322749
 42
50.0
 43
0.0
 44
0.0
 50
0.0
 51
0.0
 71
     0
 72
   100
 73
     1
 74
     1
 75
     0
 76
     0
 77
     0
 78
     0
  0
ENDTAB
  0
TABLE
  2
LTYPE
 70
     2
  0
LTYPE
  2
CONTINUOUS
 70
     0
  3
Solid line
 72
    65
 73
     0
 40
0.0
  0
LTYPE
  2
PHANTOM2
 70
     0
  3
___ _ _ ___ _ _ ___ _ _ ___ _ _
 72
    65
 73
     6
 40
1.25
 49
0.625
 49
-0.125
 49
0.125
 49
-0.125
 49
0.125
 49
-0.125
  0
ENDTAB
  0
TABLE
  2
LAYER
 70
     2
  0
LAYER
  2
0
 70
     0
 62
   255
  6
CONTINUOUS
  0
LAYER
  2
DEFPOINTS
 70
     0
 62
     7
  6
CONTINUOUS
  0
ENDTAB
  0
TABLE
  2
STYLE
 70
     1
  0
STYLE
  2
STANDARD
 70
     0
 40
0.0
 41
0.8
 50
0.0
 71
     0
 42
0.2
  3
txt
  4

  0
ENDTAB
  0
TABLE
  2
VIEW
 70
     0
  0
ENDTAB
  0
TABLE
  2
UCS
 70
     0
  0
ENDTAB
  0
TABLE
  2
APPID
 70
     9
  0
APPID
  2
ACAD
 70
     0
  0
APPID
  2
ACAD_MLEADERVER
 70
     0
  0
APPID
  2
ACAD_EXEMPT_FROM_CAD_STANDARDS
 70
     0
  0
APPID
  2
ACAD_NAV_VCDISPLAY
 70
     0
  0
APPID
  2
ACAECLAYERSTANDARD
 70
     0
  0
APPID
  2
ACCMTRANSPARENCY
 70
     0
  0
APPID
  2
ACAD_DSTYLE_DIMJAG
 70
     0
  0
APPID
  2
ACAD_DSTYLE_DIMTALN
 70
     0
  0
APPID
  2
ACDBATTR
 70
     0
  0
ENDTAB
  0
TABLE
  2
DIMSTYLE
 70
     1
  0
DIMSTYLE
  2
STANDARD
 70
     0
  3

  4

  5

  6

  7

 40
1.0
 41
0.1875
 42
0.0625
 43
0.38
 44
0.125
 45
0.0
 46
0.0
 47
0.01
 48
0.01
140
0.15625
141
0.09
142
0.0
143
25.3999999999999986
144
1.0
145
0.0
146
1.0
147
0.09
 71
     1
 72
     0
 73
     1
 74
     1
 75
     0
 76
     0
 77
     0
 78
     4
170
     0
171
     2
172
     0
173
     0
174
     0
175
     0
176
     0
177
     0
178
     0
  0
ENDTAB
  0
ENDSEC
  0
SECTION
  2
BLOCKS
  0
BLOCK
  8
0
  2
$MODEL_SPACE
 70
     0
 10
0.0
 20
0.0
 30
0.0
  3
$MODEL_SPACE
  1

  0
ENDBLK
  5
21
  8
0
  0
BLOCK
 67
     1
  8
0
  2
$PAPER_SPACE
 70
     0
 10
0.0
 20
0.0
 30
0.0
  3
$PAPER_SPACE
  1

  0
ENDBLK
  5
1D
 67
     1
  8
0
  0
ENDSEC
  0
SECTION
  2
ENTITIES
  0
ATTDEF
  5
7608
  8
DEFPOINTS
 10
4242.3487726711646246
 20
92.6043461298166335
 30
0.0
 40
0.001
  1
K-1788T-58
  3

  2
MODELNUMBER
 70
     0
1001
ACDBATTR
1070
     0
1070
     1
  0
ATTDEF
  5
7609
  8
DEFPOINTS
 10
4242.3487726711646246
 20
92.6026794631499541
 30
0.0
 40
0.001
  1
OVE
  3

  2
TRADENAME
 70
     0
1001
ACDBATTR
1070
     0
1070
     1
  0
ATTDEF
  5
760A
  8
DEFPOINTS
 10
4242.3487726711646246
 20
92.601012796483289
 30
0.0
 40
0.001
  1
BATH
  3

  2
PRODUCT
 70
     0
1001
ACDBATTR
1070
     0
1070
     1
  0
LINE
  5
7EDF
  8
0
 10
4275.8563627757339418
 20
94.409242637221837
 30
0.0
 11
4275.8563627757339418
 21
112.7163292514217972
 31
0.0
  0
LINE
  5
7EE0
  8
0
 10
4275.6988824608351933
 20
112.8738095663217962
 30
0.0
 11
4275.3864118885621792
 21
112.8738095663217962
 31
0.0
  0
LINE
  5
7EE1
  8
0
 10
4275.2658115946351245
 20
93.1887701962218244
 30
0.0
 11
4209.439039941134979
 21
93.1887701962218244
 31
0.0
  0
LINE
  5
7EE2
  8
0
 10
4260.1477013584335509
 20
92.5982190151218134
 30
0.0
 11
4258.1791974214338552
 21
92.5982190151218134
 31
0.0
  0
LINE
  5
7EE3
  8
0
 10
4260.1477013584335509
 20
93.1100300388218187
 30
0.0
 11
4260.1477013584335509
 21
92.5982190151218134
 31
0.0
  0
LINE
  5
7EE4
  8
0
 10
4258.1791974214338552
 20
93.1100300388218187
 30
0.0
 11
4258.1791974214338552
 21
92.5982190151218134
 31
0.0
  0
ARC
  5
7EE5
  8
0
 10
4258.2973076576336098
 20
93.1100300388218187
 30
0.0
 40
0.1181102362000061
 50
138.1896851476012955
 51
180.0
  0
ARC
  5
7EE6
  8
0
 10
4260.0295911221337519
 20
93.1100300388218187
 30
0.0
 40
0.1181102362000061
 50
0.0
 51
41.81031485239928
  0
LINE
  5
7EE7
  8
0
 10
4224.3996698623350312
 20
92.5982190151218134
 30
0.0
 11
4222.4311659253353355
 21
92.5982190151218134
 31
0.0
  0
CIRCLE
  5
7EE8
  8
0
 10
4214.6752604135335787
 20
93.5155418498218154
 30
0.0
 40
0.1574803150000008
  0
LINE
  5
7EE9
  8
0
 10
4224.3996698623350312
 20
93.1100300388218187
 30
0.0
 11
4224.3996698623350312
 21
92.5982190151218134
 31
0.0
  0
LINE
  5
7EEA
  8
0
 10
4222.4311659253353355
 20
93.1100300388218187
 30
0.0
 11
4222.4311659253353355
 21
92.5982190151218134
 31
0.0
  0
ARC
  5
7EEB
  8
0
 10
4222.5492761615350901
 20
93.1100300388218187
 30
0.0
 40
0.1181102362000061
 50
138.1896851476012955
 51
180.0
  0
ARC
  5
7EEC
  8
0
 10
4224.2815596260343227
 20
93.1100300388218187
 30
0.0
 40
0.1181102362000061
 50
0.0
 51
41.81031485239928
  0
LINE
  5
7EED
  8
0
 10
4213.8878588387342461
 20
93.0706599600218283
 30
0.0
 11
4213.8878588387342461
 21
93.1887701962218244
 31
0.0
  0
LINE
  5
7EEE
  8
0
 10
4215.4626619883338208
 20
93.0706599600218283
 30
0.0
 11
4215.4626619883338208
 21
93.1887701962218244
 31
0.0
  0
LINE
  5
7EEF
  8
0
 10
4213.8878588387342461
 20
93.0706599600218283
 30
0.0
 11
4215.4626619883338208
 21
93.0706599600218283
 31
0.0
  0
CIRCLE
  5
7EF0
  8
0
 10
4270.7776226183350445
 20
93.5155418498218154
 30
0.0
 40
0.1574803150000008
  0
LINE
  5
7EF1
  8
0
 10
4269.990221043533893
 20
93.0706599600218283
 30
0.0
 11
4269.990221043533893
 21
93.1887701962218244
 31
0.0
  0
LINE
  5
7EF2
  8
0
 10
4271.5650241931343771
 20
93.0706599600218283
 30
0.0
 11
4271.5650241931343771
 21
93.1887701962218244
 31
0.0
  0
LINE
  5
7EF3
  8
0
 10
4269.990221043533893
 20
93.0706599600218283
 30
0.0
 11
4271.5650241931343771
 21
93.0706599600218283
 31
0.0
  0
LINE
  5
7EF4
  8
0
 10
4275.2658115946351245
 20
94.0155418498218296
 30
0.0
 11
4275.2658115946351245
 21
93.1887701962218244
 31
0.0
  0
LINE
  5
7EF5
  8
0
 10
4275.4232919096348269
 20
94.1730221647218286
 30
0.0
 11
4275.6201423033344327
 21
94.1730221647218286
 31
0.0
  0
ARC
  5
7EF6
  8
0
 10
4275.4232919096348269
 20
94.0155418498218296
 30
0.0
 40
0.1574803149999994
 50
90.0
 51
180.0
  0
ARC
  5
7EF7
  8
0
 10
4275.6201423033344327
 20
94.409242637221837
 30
0.0
 40
0.2362204723999997
 50
270.0
 51
0.0
  0
ARC
  5
7EF8
  8
0
 10
4275.6988824608351933
 20
112.7163292514217972
 30
0.0
 40
0.1574803150000007
 50
0.0
 51
90.0
  0
LINE
  5
7EF9
  8
0
 10
4275.648390842421577
 20
114.4011254360980985
 30
0.0
 11
4275.6989784520346802
 21
112.9525497238218037
 31
0.0
  0
LINE
  5
7EFA
  8
0
 10
4275.3957241802709177
 20
114.631102259964905
 30
0.0
 11
4209.0600351046687138
 21
114.631102259964905
 31
0.0
  0
ARC
  5
7EFB
  8
0
 10
4275.4114612799476163
 20
114.3938980487857009
 30
0.0
 40
0.2370397702950406
 50
1.7472299164013301
 51
66.9904450874660853
  0
ARC
  5
7EFC
  8
0
 10
4275.4081062628501968
 20
114.3833406658656031
 30
0.0
 40
0.2480708033602302
 50
67.2303329171429453
 51
92.8610218253839435
  0
LINE
  5
7EFD
  8
0
 10
4275.6989784520346802
 20
112.9525497238218037
 30
0.0
 11
4208.7698445323339911
 21
112.9525497238218037
 31
0.0
  0
ARC
  5
7EFE
  8
0
 10
4275.3839218308348791
 20
113.031289881321797
 30
0.0
 40
0.1575
 50
209.9958656444854057
 51
270.9058777321149023
  0
LINE
  5
7EFF
  8
0
 10
4209.0076598490841207
 20
112.873804893188904
 30
0.0
 11
4209.3201304213571348
 21
112.873804893188904
 31
0.0
  0
ARC
  5
7F00
  8
0
 10
4209.0088710198378976
 20
112.7134005534271068
 30
0.0
 40
0.160408912411581
 50
90.4326170587852403
 51
178.9555221046985025
  0
ARC
  5
7F01
  8
0
 10
4209.3226204790844349
 20
113.0312852081889048
 30
0.0
 40
0.1575
 50
269.0941222678850977
 51
330.0041343555146227
  0
LINE
  5
7F02
  8
0
 10
4209.439039941134979
 20
94.0155418498218296
 30
0.0
 11
4209.439039941134979
 21
93.1887701962218244
 31
0.0
  0
LINE
  5
7F03
  8
0
 10
4209.2815596261343671
 20
94.1730221647218286
 30
0.0
 11
4209.0847092324338519
 21
94.1730221647218286
 31
0.0
  0
ARC
  5
7F04
  8
0
 10
4209.2815596261343671
 20
94.0155418498218296
 30
0.0
 40
0.1574803149999994
 50
0.0
 51
90.0
  0
ARC
  5
7F05
  8
0
 10
4209.0847092324338519
 20
94.409242637221837
 30
0.0
 40
0.2362204723999997
 50
180.0
 51
270.0
  0
LINE
  5
7F06
  8
0
 10
4208.8484887600343427
 20
112.7163245782889049
 30
0.0
 11
4208.8484887600343427
 21
94.409242637221837
 31
0.0
  0
LINE
  5
7F07
  8
0
 10
4208.8204579083349017
 20
114.4019271763218057
 30
0.0
 11
4208.7698445323339911
 21
112.9525497238218037
 31
0.0
  0
ARC
  5
7F08
  8
0
 10
4209.0576330476869771
 20
114.393800075793493
 30
0.0
 40
0.2373143410971323
 50
89.4200515793166062
 51
178.0374568831406066
  0
LINE
  5
7F09
  8
0
 10
4208.7698445323339911
 20
112.9525497238218037
 30
0.0
 11
4275.6989784520346802
 21
112.9525497238218037
 31
0.0
  0
ENDSEC
  0
EOF
