  0
SECTION
  2
HEADER
  9
$ACADVER
  1
AC1009
  9
$INSBASE
 10
4346.0476314286543129
 20
131.118817677110286
 30
0.0
  9
$EXTMIN
 10
4329.907699921326639
 20
131.118817677110286
 30
0.0
  9
$EXTMAX
 10
4359.6318676328855872
 20
153.1517446493213015
 30
0.0
  9
$LIMMIN
 10
0.0
 20
0.0
  9
$LIMMAX
 10
11.6929133858000007
 20
8.2677165353999982
  9
$ORTHOMODE
 70
     0
  9
$REGENMODE
 70
     1
  9
$FILLMODE
 70
     1
  9
$QTEXTMODE
 70
     0
  9
$MIRRTEXT
 70
     0
  9
$DRAGMODE
 70
     2
  9
$LTSCALE
 40
0.6431102362
  9
$OSMODE
 70
  4095
  9
$ATTMODE
 70
     1
  9
$TEXTSIZE
 40
0.2
  9
$TRACEWID
 40
0.05
  9
$TEXTSTYLE
  7
STANDARD
  9
$CLAYER
  8
0
  9
$CELTYPE
  6
BYLAYER
  9
$CECOLOR
 62
   256
  9
$DIMSCALE
 40
1.0
  9
$DIMASZ
 40
0.1875
  9
$DIMEXO
 40
0.0625
  9
$DIMDLI
 40
0.4443307087
  9
$DIMRND
 40
0.0
  9
$DIMDLE
 40
0.0
  9
$DIMEXE
 40
0.125
  9
$DIMTP
 40
0.01
  9
$DIMTM
 40
0.01
  9
$DIMTXT
 40
2.0
  9
$DIMCEN
 40
0.1052362205
  9
$DIMTSZ
 40
0.0
  9
$DIMTOL
 70
     1
  9
$DIMLIM
 70
     0
  9
$DIMTIH
 70
     1
  9
$DIMTOH
 70
     1
  9
$DIMSE1
 70
     0
  9
$DIMSE2
 70
     0
  9
$DIMTAD
 70
     0
  9
$DIMZIN
 70
     0
  9
$DIMBLK
  1

  9
$DIMASO
 70
     1
  9
$DIMSHO
 70
     1
  9
$DIMPOST
  1
\X
  9
$DIMAPOST
  1

  9
$DIMALT
 70
     1
  9
$DIMALTD
 70
     2
  9
$DIMALTF
 40
25.3999999999999986
  9
$DIMLFAC
 40
1.0
  9
$DIMTOFL
 70
     0
  9
$DIMTVP
 40
0.0
  9
$DIMTIX
 70
     0
  9
$DIMSOXD
 70
     0
  9
$DIMSAH
 70
     0
  9
$DIMBLK1
  1

  9
$DIMBLK2
  1

  9
$DIMSTYLE
  2
STANDARD
  9
$DIMCLRD
 70
     0
  9
$DIMCLRE
 70
     0
  9
$DIMCLRT
 70
     0
  9
$DIMTFAC
 40
1.0
  9
$DIMGAP
 40
0.09
  9
$LUNITS
 70
     2
  9
$LUPREC
 70
     4
  9
$SKETCHINC
 40
0.1
  9
$FILLETRAD
 40
0.0
  9
$AUNITS
 70
     0
  9
$AUPREC
 70
     0
  9
$MENU
  1
.
  9
$ELEVATION
 40
0.0
  9
$PELEVATION
 40
0.0
  9
$THICKNESS
 40
0.0
  9
$LIMCHECK
 70
     0
  9
$BLIPMODE
 70
     0
  9
$CHAMFERA
 40
0.0
  9
$CHAMFERB
 40
0.0
  9
$SKPOLY
 70
     0
  9
$TDCREATE
 40
2458060.468368056230247
  9
$TDUPDATE
 40
2459446.530439815018326
  9
$TDINDWG
 40
0.377946875
  9
$TDUSRTIMER
 40
0.377946875
  9
$USRTIMER
 70
     1
  9
$ANGBASE
 50
0.0
  9
$ANGDIR
 70
     0
  9
$PDMODE
 70
     0
  9
$PDSIZE
 40
0.3125
  9
$PLINEWID
 40
0.0
  9
$COORDS
 70
     1
  9
$SPLFRAME
 70
     0
  9
$SPLINETYPE
 70
     6
  9
$SPLINESEGS
 70
     8
  9
$ATTDIA
 70
     1
  9
$ATTREQ
 70
     1
  9
$HANDLING
 70
     1
  9
$HANDSEED
  5
8131
  9
$SURFTAB1
 70
     6
  9
$SURFTAB2
 70
     6
  9
$SURFTYPE
 70
     6
  9
$SURFU
 70
     6
  9
$SURFV
 70
     6
  9
$UCSNAME
  2

  9
$UCSORG
 10
0.0
 20
0.0
 30
0.0
  9
$UCSXDIR
 10
1.0
 20
0.0
 30
0.0
  9
$UCSYDIR
 10
0.0
 20
1.0
 30
0.0
  9
$PUCSNAME
  2

  9
$PUCSORG
 10
0.0
 20
0.0
 30
0.0
  9
$PUCSXDIR
 10
1.0
 20
0.0
 30
0.0
  9
$PUCSYDIR
 10
0.0
 20
1.0
 30
0.0
  9
$USERI1
 70
     0
  9
$USERI2
 70
     0
  9
$USERI3
 70
     0
  9
$USERI4
 70
     0
  9
$USERI5
 70
     0
  9
$USERR1
 40
0.0
  9
$USERR2
 40
0.0
  9
$USERR3
 40
0.0
  9
$USERR4
 40
0.0
  9
$USERR5
 40
0.0
  9
$WORLDVIEW
 70
     1
  9
$SHADEDGE
 70
     3
  9
$SHADEDIF
 70
    70
  9
$TILEMODE
 70
     1
  9
$MAXACTVP
 70
    64
  9
$PLIMCHECK
 70
     0
  9
$PEXTMIN
 10
1.0000000000000000E+20
 20
1.0000000000000000E+20
 30
1.0000000000000000E+20
  9
$PEXTMAX
 10
-1.0000000000000000E+20
 20
-1.0000000000000000E+20
 30
-1.0000000000000000E+20
  9
$PLIMMIN
 10
0.0
 20
0.0
  9
$PLIMMAX
 10
12.0
 20
9.0
  9
$UNITMODE
 70
     0
  9
$VISRETAIN
 70
     1
  9
$PLINEGEN
 70
     0
  9
$PSLTSCALE
 70
     1
  0
ENDSEC
  0
SECTION
  2
TABLES
  0
TABLE
  2
VPORT
 70
     1
  0
VPORT
  2
*ACTIVE
 70
     0
 10
0.0
 20
0.0
 11
1.0
 21
1.0
 12
316.5628129992746267
 22
16.235083320741051
 13
0.0
 23
0.0
 14
1.0
 24
1.0
 15
0.0
 25
0.0
 16
0.0
 26
0.0
 36
47.0568789906323275
 17
4028.786865234375
 27
135.8743591308592897
 37
0.0
 40
57.1073643461499998
 41
2.0410052910052912
 42
50.0
 43
0.0
 44
0.0
 50
0.0
 51
0.0
 71
     0
 72
   100
 73
     1
 74
     1
 75
     0
 76
     0
 77
     0
 78
     0
  0
ENDTAB
  0
TABLE
  2
LTYPE
 70
     2
  0
LTYPE
  2
CONTINUOUS
 70
     0
  3
Solid line
 72
    65
 73
     0
 40
0.0
  0
LTYPE
  2
PHANTOM2
 70
     0
  3
___ _ _ ___ _ _ ___ _ _ ___ _ _
 72
    65
 73
     6
 40
1.25
 49
0.625
 49
-0.125
 49
0.125
 49
-0.125
 49
0.125
 49
-0.125
  0
ENDTAB
  0
TABLE
  2
LAYER
 70
     2
  0
LAYER
  2
0
 70
     0
 62
   255
  6
CONTINUOUS
  0
LAYER
  2
DEFPOINTS
 70
     0
 62
     7
  6
CONTINUOUS
  0
ENDTAB
  0
TABLE
  2
STYLE
 70
     1
  0
STYLE
  2
STANDARD
 70
     0
 40
0.0
 41
0.8
 50
0.0
 71
     0
 42
0.2
  3
txt
  4

  0
ENDTAB
  0
TABLE
  2
VIEW
 70
     0
  0
ENDTAB
  0
TABLE
  2
UCS
 70
     0
  0
ENDTAB
  0
TABLE
  2
APPID
 70
     9
  0
APPID
  2
ACAD
 70
     0
  0
APPID
  2
ACAD_MLEADERVER
 70
     0
  0
APPID
  2
ACAD_EXEMPT_FROM_CAD_STANDARDS
 70
     0
  0
APPID
  2
ACAD_NAV_VCDISPLAY
 70
     0
  0
APPID
  2
ACAECLAYERSTANDARD
 70
     0
  0
APPID
  2
ACCMTRANSPARENCY
 70
     0
  0
APPID
  2
ACAD_DSTYLE_DIMJAG
 70
     0
  0
APPID
  2
ACAD_DSTYLE_DIMTALN
 70
     0
  0
APPID
  2
ACDBATTR
 70
     0
  0
ENDTAB
  0
TABLE
  2
DIMSTYLE
 70
     1
  0
DIMSTYLE
  2
STANDARD
 70
     0
  3

  4

  5

  6

  7

 40
1.0
 41
0.1875
 42
0.0625
 43
0.38
 44
0.125
 45
0.0
 46
0.0
 47
0.01
 48
0.01
140
0.15625
141
0.09
142
0.0
143
25.3999999999999986
144
1.0
145
0.0
146
1.0
147
0.09
 71
     1
 72
     0
 73
     1
 74
     1
 75
     0
 76
     0
 77
     0
 78
     4
170
     0
171
     2
172
     0
173
     0
174
     0
175
     0
176
     0
177
     0
178
     0
  0
ENDTAB
  0
ENDSEC
  0
SECTION
  2
BLOCKS
  0
BLOCK
  8
0
  2
$MODEL_SPACE
 70
     0
 10
0.0
 20
0.0
 30
0.0
  3
$MODEL_SPACE
  1

  0
ENDBLK
  5
21
  8
0
  0
BLOCK
 67
     1
  8
0
  2
$PAPER_SPACE
 70
     0
 10
0.0
 20
0.0
 30
0.0
  3
$PAPER_SPACE
  1

  0
ENDBLK
  5
1D
 67
     1
  8
0
  0
ENDSEC
  0
SECTION
  2
ENTITIES
  0
ATTDEF
  5
7608
  8
DEFPOINTS
 10
4346.0430257097168578
 20
131.1249112597650992
 30
0.0
 40
0.001
  1
K-1788T-1P
  3

  2
MODELNUMBER
 70
     0
1001
ACDBATTR
1070
     0
1070
     1
  0
ATTDEF
  5
7609
  8
DEFPOINTS
 10
4346.0430257097168578
 20
131.1232445930984909
 30
0.0
 40
0.001
  1
OVE
  3

  2
TRADENAME
 70
     0
1001
ACDBATTR
1070
     0
1070
     1
  0
ATTDEF
  5
760A
  8
DEFPOINTS
 10
4346.0430257097168578
 20
131.1215779264317973
 30
0.0
 40
0.001
  1
BATH
  3

  2
PRODUCT
 70
     0
1001
ACDBATTR
1070
     0
1070
     1
  0
LINE
  5
7FAD
  8
0
 10
4339.8878711607267178
 20
131.118817677110286
 30
0.0
 11
4337.9193672237279316
 21
131.118817677110286
 31
0.0
  0
LINE
  5
7FAE
  8
0
 10
4350.1240916332271809
 20
131.118817677110286
 30
0.0
 11
4352.0925955702277861
 21
131.118817677110286
 31
0.0
  0
LINE
  5
7FAF
  8
0
 10
4330.3921972080697742
 20
153.1517418340561107
 30
0.0
 11
4359.3451363873273294
 21
153.151744649311695
 31
0.0
  0
ARC
  5
7FB0
  8
0
 10
4595.3705444558108866
 20
143.2359535939451973
 30
0.0
 40
265.3924567166804991
 50
177.9080262001866117
 51
178.2213800972056958
  0
ARC
  5
7FB1
  8
0
 10
4330.3910443062586637
 20
152.9155241536491872
 30
0.0
 40
0.2362208449370157
 50
175.9142171547480871
 51
178.0007121624537945
  0
ARC
  5
7FB2
  8
0
 10
4330.3910439344272163
 20
152.915524176810294
 30
0.0
 40
0.2362204724000595
 50
161.4830681253077103
 51
175.9142154785396031
  0
ARC
  5
7FB3
  8
0
 10
4330.3910439344272163
 20
152.915524176810294
 30
0.0
 40
0.2362204723998952
 50
135.8328122642435005
 51
161.4830681253062039
  0
ARC
  5
7FB4
  8
0
 10
4330.3910439344290353
 20
152.9155241768098961
 30
0.0
 40
0.236220472400515
 50
120.0085057061837972
 51
135.8328122642429037
  0
ARC
  5
7FB5
  8
0
 10
4330.3910439350565866
 20
152.9155241752928873
 30
0.0
 40
0.2362204740283992
 50
89.720270060987346
 51
120.008505654134197
  0
ARC
  5
7FB6
  8
0
 10
4330.3910439378760202
 20
152.9155241201796969
 30
0.0
 40
0.2362205291271972
 50
89.7202708102368405
 51
94.4653432349845588
  0
ARC
  5
7FB7
  8
0
 10
4330.3910439398314338
 20
152.9155252837213084
 30
0.0
 40
0.2362193655898927
 50
88.8975390924370572
 51
90.5430007209803307
  0
LINE
  5
7FB8
  8
0
 10
4330.1059506931378564
 20
151.4731483858103047
 30
0.0
 11
4359.6318676328855872
 21
151.4731483858103047
 31
0.0
  0
ARC
  5
7FB9
  8
0
 10
-247173.7285681483044755
 20
-8631.1779300436683116
 30
0.0
 40
251686.6432135048089549
 50
1.999752602406228
 51
2.000082566557805
  0
ARC
  5
7FBA
  8
0
 10
4359.3451363873282389
 20
152.9155241768301892
 30
0.0
 40
0.2362204723801256
 50
88.644003982535267
 51
90.0000000000521254
  0
ARC
  5
7FBB
  8
0
 10
4359.3451363873264199
 20
152.915524176789603
 30
0.0
 40
0.2362204724206773
 50
87.5055173980250771
 51
88.644003982535267
  0
ARC
  5
7FBC
  8
0
 10
4359.3451363873291484
 20
152.9155241768511075
 30
0.0
 40
0.2362204723591504
 50
86.8953791214618008
 51
87.5055173980250771
  0
ARC
  5
7FBD
  8
0
 10
4359.3451363873273294
 20
152.9155241768077929
 30
0.0
 40
0.2362204724024753
 50
77.4593795343791101
 51
90.0
  0
ARC
  5
7FBE
  8
0
 10
4359.3451363873282389
 20
152.9155241768121982
 30
0.0
 40
0.2362204723980205
 50
67.2498956468680404
 51
77.4593795343791101
  0
ARC
  5
7FBF
  8
0
 10
4359.3451319383520968
 20
152.9155178635440961
 30
0.0
 40
0.2362280149767482
 50
42.4055923785576496
 51
67.2494926771167485
  0
ARC
  5
7FC0
  8
0
 10
4359.3453813367541443
 20
152.9156788395135891
 30
0.0
 40
0.2359353088831154
 50
22.1196051337741189
 51
42.4175707092266023
  0
ARC
  5
7FC1
  8
0
 10
4522.659557277872409
 20
201.5545820551849943
 30
0.0
 40
170.1684025732004955
 50
196.5771396862469942
 51
196.5925162927213137
  0
ARC
  5
7FC2
  8
0
 10
4359.3451363873309674
 20
152.9155241768112035
 30
0.0
 40
0.2362204723951335
 50
7.8683534686422103
 51
11.0376695447859898
  0
ARC
  5
7FC3
  8
0
 10
4359.345136387320963
 20
152.9155241768096118
 30
0.0
 40
0.2362204724067106
 50
2.8813633358532349
 51
7.8683534686422103
  0
ARC
  5
7FC4
  8
0
 10
4359.3415731260720349
 20
152.915344831763008
 30
0.0
 40
0.2397882441720683
 50
1.892493284975858
 51
2.881363335854048
  0
ARC
  5
7FC5
  8
0
 10
4359.9928656969395888
 20
152.9368650076852134
 30
0.0
 40
0.4118597672868059
 50
181.8924932849749894
 51
182.1075064102892895
  0
ARC
  5
7FC6
  8
0
 10
4330.3406270662271709
 20
151.551888543310298
 30
0.0
 40
0.1574803149999991
 50
270.0
 51
329.9999999999897113
  0
LINE
  5
7FC7
  8
0
 10
4330.0651802363272509
 20
151.3944082283103114
 30
0.0
 11
4359.3894883816501533
 21
151.3944082283103114
 31
0.0
  0
ARC
  5
7FC8
  8
0
 10
4330.0651802363272509
 20
151.2369279134103124
 30
0.0
 40
0.1574803149999998
 50
90.0
 51
180.1041592848141022
  0
ARC
  5
7FC9
  8
0
 10
4416.3434333344393963
 20
151.3944087678370067
 30
0.0
 40
86.4358771352709283
 50
180.1045792170965001
 51
192.3690062827737961
  0
LINE
  5
7FCA
  8
0
 10
4359.5499113815822056
 20
151.2369279134103124
 30
0.0
 11
4359.5499113815822056
 21
131.709368858210297
 31
0.0
  0
ARC
  5
7FCB
  8
0
 10
4359.3924040774281821
 20
151.2369279134103124
 30
0.0
 40
0.1575073041544928
 50
88.9393088947151398
 51
91.060691105284846
  0
ARC
  5
7FCC
  8
0
 10
4359.3924040774281821
 20
151.2369279134103124
 30
0.0
 40
0.1575073041544928
 50
0.0
 51
91.0606911586548762
  0
ARC
  5
7FCD
  8
0
 10
4332.1446176841091074
 20
132.9298412995088938
 30
0.0
 40
0.2362204729347865
 50
192.3690062827737961
 51
270.0116832654398991
  0
LINE
  5
7FCE
  8
0
 10
4332.5453514757273297
 20
131.709368858210297
 30
0.0
 11
4332.5453514757273297
 21
132.536140511810288
 31
0.0
  0
LINE
  5
7FCF
  8
0
 10
4332.5453514757273297
 20
131.709368858210297
 30
0.0
 11
4359.5499113815822056
 21
131.709368858210297
 31
0.0
  0
ARC
  5
7FD0
  8
0
 10
4332.3878711607276273
 20
132.536140511810288
 30
0.0
 40
0.157480315000015
 50
0.000000000007328
 51
89.9999988987028559
  0
LINE
  5
7FD1
  8
0
 10
4332.1446658521681456
 20
132.6936208314851058
 30
0.0
 11
4332.3878711637553351
 21
132.693620826810303
 31
0.0
  0
CIRCLE
  5
7FD2
  8
0
 10
4337.0335404521283635
 20
132.036140511810288
 30
0.0
 40
0.1574803150000008
  0
CIRCLE
  5
7FD3
  8
0
 10
4352.9784223418273541
 20
132.036140511810288
 30
0.0
 40
0.1574803150000008
  0
LINE
  5
7FD4
  8
0
 10
4352.0925955702277861
 20
131.6306287008102913
 30
0.0
 11
4352.0925955702277861
 21
131.118817677110286
 31
0.0
  0
LINE
  5
7FD5
  8
0
 10
4350.1240916332271809
 20
131.6306287008102913
 30
0.0
 11
4350.1240916332271809
 21
131.118817677110286
 31
0.0
  0
ARC
  5
7FD6
  8
0
 10
4350.2422018694278449
 20
131.6306287008102913
 30
0.0
 40
0.1181102362000061
 50
138.1896851476006987
 51
180.0
  0
ARC
  5
7FD7
  8
0
 10
4351.9744853339270776
 20
131.6306287008102913
 30
0.0
 40
0.1181102362000061
 50
0.0
 51
41.81031485239928
  0
LINE
  5
7FD8
  8
0
 10
4339.8878711607267178
 20
131.6306287008102913
 30
0.0
 11
4339.8878711607267178
 21
131.118817677110286
 31
0.0
  0
LINE
  5
7FD9
  8
0
 10
4337.9193672237279316
 20
131.6306287008102913
 30
0.0
 11
4337.9193672237279316
 21
131.118817677110286
 31
0.0
  0
ARC
  5
7FDA
  8
0
 10
4338.0374774599267766
 20
131.6306287008102913
 30
0.0
 40
0.1181102362000061
 50
138.1896851476006987
 51
180.0
  0
ARC
  5
7FDB
  8
0
 10
4339.7697609244278283
 20
131.6306287008102913
 30
0.0
 40
0.1181102362000061
 50
0.0
 51
41.81031485239928
  0
LINE
  5
7FDC
  8
0
 10
4336.246138877327212
 20
131.5912586220102867
 30
0.0
 11
4336.246138877327212
 21
131.709368858210297
 31
0.0
  0
LINE
  5
7FDD
  8
0
 10
4337.8209420269276961
 20
131.5912586220102867
 30
0.0
 11
4337.8209420269276961
 21
131.709368858210297
 31
0.0
  0
LINE
  5
7FDE
  8
0
 10
4336.246138877327212
 20
131.5912586220102867
 30
0.0
 11
4337.8209420269276961
 21
131.5912586220102867
 31
0.0
  0
LINE
  5
7FDF
  8
0
 10
4332.7028317906278971
 20
131.5912586220102867
 30
0.0
 11
4332.7028317906278971
 21
131.709368858210297
 31
0.0
  0
LINE
  5
7FE0
  8
0
 10
4333.0965325780271087
 20
131.5912586220102867
 30
0.0
 11
4333.0965325780271087
 21
131.709368858210297
 31
0.0
  0
LINE
  5
7FE1
  8
0
 10
4332.7028317906278971
 20
131.5912586220102867
 30
0.0
 11
4333.0965325780271087
 21
131.5912586220102867
 31
0.0
  0
LINE
  5
7FE2
  8
0
 10
4352.191020767027112
 20
131.5912586220102867
 30
0.0
 11
4352.191020767027112
 21
131.709368858210297
 31
0.0
  0
LINE
  5
7FE3
  8
0
 10
4353.7658239166266867
 20
131.5912586220102867
 30
0.0
 11
4353.7658239166266867
 21
131.709368858210297
 31
0.0
  0
LINE
  5
7FE4
  8
0
 10
4352.191020767027112
 20
131.5912586220102867
 30
0.0
 11
4353.7658239166266867
 21
131.5912586220102867
 31
0.0
  0
ARC
  5
7FE6
  8
0
 10
4358.10682875511975
 20
151.551853074823299
 30
0.0
 40
0.157444848653759
 50
209.9925477720962874
 51
270.0094483367502107
  0
ENDSEC
  0
EOF
