  0
SECTION
  2
HEADER
  9
$ACADVER
  1
AC1009
  9
$INSBASE
 10
4341.3951661201426759
 20
151.0179433873024948
 30
0.0
  9
$EXTMIN
 10
4325.6471346240432467
 20
131.3329040172025088
 30
0.0
  9
$EXTMAX
 10
4357.1431976162439241
 20
152.9790163647024883
 30
0.0
  9
$LIMMIN
 10
0.0
 20
0.0
  9
$LIMMAX
 10
11.6929133858000007
 20
8.2677165353999982
  9
$ORTHOMODE
 70
     0
  9
$REGENMODE
 70
     1
  9
$FILLMODE
 70
     1
  9
$QTEXTMODE
 70
     0
  9
$MIRRTEXT
 70
     0
  9
$DRAGMODE
 70
     2
  9
$LTSCALE
 40
0.6431102362
  9
$OSMODE
 70
  4095
  9
$ATTMODE
 70
     1
  9
$TEXTSIZE
 40
0.2
  9
$TRACEWID
 40
0.05
  9
$TEXTSTYLE
  7
STANDARD
  9
$CLAYER
  8
0
  9
$CELTYPE
  6
BYLAYER
  9
$CECOLOR
 62
   256
  9
$DIMSCALE
 40
1.0
  9
$DIMASZ
 40
0.1875
  9
$DIMEXO
 40
0.0625
  9
$DIMDLI
 40
0.4443307087
  9
$DIMRND
 40
0.0
  9
$DIMDLE
 40
0.0
  9
$DIMEXE
 40
0.125
  9
$DIMTP
 40
0.01
  9
$DIMTM
 40
0.01
  9
$DIMTXT
 40
2.0
  9
$DIMCEN
 40
0.1052362205
  9
$DIMTSZ
 40
0.0
  9
$DIMTOL
 70
     1
  9
$DIMLIM
 70
     0
  9
$DIMTIH
 70
     1
  9
$DIMTOH
 70
     1
  9
$DIMSE1
 70
     0
  9
$DIMSE2
 70
     0
  9
$DIMTAD
 70
     0
  9
$DIMZIN
 70
     0
  9
$DIMBLK
  1

  9
$DIMASO
 70
     1
  9
$DIMSHO
 70
     1
  9
$DIMPOST
  1
\X
  9
$DIMAPOST
  1

  9
$DIMALT
 70
     1
  9
$DIMALTD
 70
     2
  9
$DIMALTF
 40
25.3999999999999986
  9
$DIMLFAC
 40
1.0
  9
$DIMTOFL
 70
     0
  9
$DIMTVP
 40
0.0
  9
$DIMTIX
 70
     0
  9
$DIMSOXD
 70
     0
  9
$DIMSAH
 70
     0
  9
$DIMBLK1
  1

  9
$DIMBLK2
  1

  9
$DIMSTYLE
  2
STANDARD
  9
$DIMCLRD
 70
     0
  9
$DIMCLRE
 70
     0
  9
$DIMCLRT
 70
     0
  9
$DIMTFAC
 40
1.0
  9
$DIMGAP
 40
0.09
  9
$LUNITS
 70
     2
  9
$LUPREC
 70
     4
  9
$SKETCHINC
 40
0.1
  9
$FILLETRAD
 40
0.0
  9
$AUNITS
 70
     0
  9
$AUPREC
 70
     0
  9
$MENU
  1
.
  9
$ELEVATION
 40
0.0
  9
$PELEVATION
 40
0.0
  9
$THICKNESS
 40
0.0
  9
$LIMCHECK
 70
     0
  9
$BLIPMODE
 70
     0
  9
$CHAMFERA
 40
0.0
  9
$CHAMFERB
 40
0.0
  9
$SKPOLY
 70
     0
  9
$TDCREATE
 40
2458060.468368056230247
  9
$TDUPDATE
 40
2459446.5356365740299225
  9
$TDINDWG
 40
0.3739306713
  9
$TDUSRTIMER
 40
0.3739306713
  9
$USRTIMER
 70
     1
  9
$ANGBASE
 50
0.0
  9
$ANGDIR
 70
     0
  9
$PDMODE
 70
     0
  9
$PDSIZE
 40
0.3125
  9
$PLINEWID
 40
0.0
  9
$COORDS
 70
     1
  9
$SPLFRAME
 70
     0
  9
$SPLINETYPE
 70
     6
  9
$SPLINESEGS
 70
     8
  9
$ATTDIA
 70
     1
  9
$ATTREQ
 70
     1
  9
$HANDLING
 70
     1
  9
$HANDSEED
  5
80EA
  9
$SURFTAB1
 70
     6
  9
$SURFTAB2
 70
     6
  9
$SURFTYPE
 70
     6
  9
$SURFU
 70
     6
  9
$SURFV
 70
     6
  9
$UCSNAME
  2

  9
$UCSORG
 10
0.0
 20
0.0
 30
0.0
  9
$UCSXDIR
 10
1.0
 20
0.0
 30
0.0
  9
$UCSYDIR
 10
0.0
 20
1.0
 30
0.0
  9
$PUCSNAME
  2

  9
$PUCSORG
 10
0.0
 20
0.0
 30
0.0
  9
$PUCSXDIR
 10
1.0
 20
0.0
 30
0.0
  9
$PUCSYDIR
 10
0.0
 20
1.0
 30
0.0
  9
$USERI1
 70
     0
  9
$USERI2
 70
     0
  9
$USERI3
 70
     0
  9
$USERI4
 70
     0
  9
$USERI5
 70
     0
  9
$USERR1
 40
0.0
  9
$USERR2
 40
0.0
  9
$USERR3
 40
0.0
  9
$USERR4
 40
0.0
  9
$USERR5
 40
0.0
  9
$WORLDVIEW
 70
     1
  9
$SHADEDGE
 70
     3
  9
$SHADEDIF
 70
    70
  9
$TILEMODE
 70
     1
  9
$MAXACTVP
 70
    64
  9
$PLIMCHECK
 70
     0
  9
$PEXTMIN
 10
1.0000000000000000E+20
 20
1.0000000000000000E+20
 30
1.0000000000000000E+20
  9
$PEXTMAX
 10
-1.0000000000000000E+20
 20
-1.0000000000000000E+20
 30
-1.0000000000000000E+20
  9
$PLIMMIN
 10
0.0
 20
0.0
  9
$PLIMMAX
 10
12.0
 20
9.0
  9
$UNITMODE
 70
     0
  9
$VISRETAIN
 70
     1
  9
$PLINEGEN
 70
     0
  9
$PSLTSCALE
 70
     1
  0
ENDSEC
  0
SECTION
  2
TABLES
  0
TABLE
  2
VPORT
 70
     1
  0
VPORT
  2
*ACTIVE
 70
     0
 10
0.0
 20
0.0
 11
1.0
 21
1.0
 12
312.633435919688111
 22
8.4549434124734564
 13
0.0
 23
0.0
 14
1.0
 24
1.0
 15
0.0
 25
0.0
 16
0.0
 26
0.0
 36
47.0568789906323275
 17
4028.786865234375
 27
135.8743591308592897
 37
0.0
 40
26.1780969372040317
 41
2.0410052910052912
 42
50.0
 43
0.0
 44
0.0
 50
0.0
 51
0.0
 71
     0
 72
   100
 73
     1
 74
     1
 75
     0
 76
     0
 77
     0
 78
     0
  0
ENDTAB
  0
TABLE
  2
LTYPE
 70
     2
  0
LTYPE
  2
CONTINUOUS
 70
     0
  3
Solid line
 72
    65
 73
     0
 40
0.0
  0
LTYPE
  2
PHANTOM2
 70
     0
  3
___ _ _ ___ _ _ ___ _ _ ___ _ _
 72
    65
 73
     6
 40
1.25
 49
0.625
 49
-0.125
 49
0.125
 49
-0.125
 49
0.125
 49
-0.125
  0
ENDTAB
  0
TABLE
  2
LAYER
 70
     2
  0
LAYER
  2
0
 70
     0
 62
   255
  6
CONTINUOUS
  0
LAYER
  2
DEFPOINTS
 70
     0
 62
     7
  6
CONTINUOUS
  0
ENDTAB
  0
TABLE
  2
STYLE
 70
     1
  0
STYLE
  2
STANDARD
 70
     0
 40
0.0
 41
0.8
 50
0.0
 71
     0
 42
0.2
  3
txt
  4

  0
ENDTAB
  0
TABLE
  2
VIEW
 70
     0
  0
ENDTAB
  0
TABLE
  2
UCS
 70
     0
  0
ENDTAB
  0
TABLE
  2
APPID
 70
     9
  0
APPID
  2
ACAD
 70
     0
  0
APPID
  2
ACAD_MLEADERVER
 70
     0
  0
APPID
  2
ACAD_EXEMPT_FROM_CAD_STANDARDS
 70
     0
  0
APPID
  2
ACAD_NAV_VCDISPLAY
 70
     0
  0
APPID
  2
ACAECLAYERSTANDARD
 70
     0
  0
APPID
  2
ACCMTRANSPARENCY
 70
     0
  0
APPID
  2
ACAD_DSTYLE_DIMJAG
 70
     0
  0
APPID
  2
ACAD_DSTYLE_DIMTALN
 70
     0
  0
APPID
  2
ACDBATTR
 70
     0
  0
ENDTAB
  0
TABLE
  2
DIMSTYLE
 70
     1
  0
DIMSTYLE
  2
STANDARD
 70
     0
  3

  4

  5

  6

  7

 40
1.0
 41
0.1875
 42
0.0625
 43
0.38
 44
0.125
 45
0.0
 46
0.0
 47
0.01
 48
0.01
140
0.15625
141
0.09
142
0.0
143
25.3999999999999986
144
1.0
145
0.0
146
1.0
147
0.09
 71
     1
 72
     0
 73
     1
 74
     1
 75
     0
 76
     0
 77
     0
 78
     4
170
     0
171
     2
172
     0
173
     0
174
     0
175
     0
176
     0
177
     0
178
     0
  0
ENDTAB
  0
ENDSEC
  0
SECTION
  2
BLOCKS
  0
BLOCK
  8
0
  2
$MODEL_SPACE
 70
     0
 10
0.0
 20
0.0
 30
0.0
  3
$MODEL_SPACE
  1

  0
ENDBLK
  5
21
  8
0
  0
BLOCK
 67
     1
  8
0
  2
$PAPER_SPACE
 70
     0
 10
0.0
 20
0.0
 30
0.0
  3
$PAPER_SPACE
  1

  0
ENDBLK
  5
1D
 67
     1
  8
0
  0
ENDSEC
  0
SECTION
  2
ENTITIES
  0
ATTDEF
  5
7608
  8
DEFPOINTS
 10
4341.3909920620708363
 20
151.0234517855938918
 30
0.0
 40
0.001
  1
K-1704T-58
  3

  2
MODELNUMBER
 70
     0
1001
ACDBATTR
1070
     0
1070
     1
  0
ATTDEF
  5
7609
  8
DEFPOINTS
 10
4341.3909920620708363
 20
151.0217851189273119
 30
0.0
 40
0.001
  1
EVOK
  3

  2
TRADENAME
 70
     0
1001
ACDBATTR
1070
     0
1070
     1
  0
ATTDEF
  5
760A
  8
DEFPOINTS
 10
4341.3909920620708363
 20
151.0201184522605899
 30
0.0
 40
0.001
  1
BATH
  3

  2
PRODUCT
 70
     0
1001
ACDBATTR
1070
     0
1070
     1
  0
LINE
  5
7FF5
  8
0
 10
4325.6471346240432467
 20
152.7090163647025065
 30
0.0
 11
4325.6471346240432467
 21
151.0179433873026085
 31
0.0
  0
LINE
  5
7FF6
  8
0
 10
4357.1431976162439241
 20
151.0179433873026085
 30
0.0
 11
4357.1431976162439241
 21
152.7090163647025065
 31
0.0
  0
ARC
  5
7FF7
  8
0
 10
4356.8731976162425781
 20
152.7090163647025065
 30
0.0
 40
0.27
 50
0.0
 51
90.0
  0
ARC
  5
7FF8
  8
0
 10
4285.3137455331898309
 20
135.7821602494562967
 30
0.0
 40
44.5797220419961207
 50
3.7844613451935691
 51
19.9844363294208414
  0
LINE
  5
7FF9
  8
0
 10
4330.0911359944566357
 20
135.3185938226147016
 30
0.0
 11
4329.7962572617780097
 21
138.7245687285121107
 31
0.0
  0
ARC
  5
7FFA
  8
0
 10
4332.3206751110083133
 20
135.3548021809554029
 30
0.0
 40
2.2298331142566541
 50
180.9304181931078119
 51
265.4348698060238121
  0
LINE
  5
7FFB
  8
0
 10
4348.28492989964343
 20
131.3329040172025088
 30
0.0
 11
4345.9227251752436132
 21
131.3329040172025088
 31
0.0
  0
LINE
  5
7FFC
  8
0
 10
4334.5054023406437409
 20
131.3329040172025088
 30
0.0
 11
4332.1431976162430146
 21
131.3329040172025088
 31
0.0
  0
LINE
  5
7FFD
  8
0
 10
4325.9171346240427738
 20
152.9790163647024883
 30
0.0
 11
4356.8731976162425781
 21
152.9790163647024883
 31
0.0
  0
ARC
  5
7FFE
  8
0
 10
4325.9171346240427738
 20
152.7090163647025065
 30
0.0
 40
0.27
 50
90.0
 51
180.0
  0
LINE
  5
7FFF
  8
0
 10
4325.6471346240432467
 20
151.0179433873026085
 30
0.0
 11
4357.1431976162439241
 21
151.0179433873026085
 31
0.0
  0
ARC
  5
8000
  8
0
 10
4395.1143819572498614
 20
135.7821602494566946
 30
0.0
 40
44.5797220419947777
 50
165.0703716167780897
 51
176.2155386548064087
  0
LINE
  5
8001
  8
0
 10
4350.3369914959830567
 20
135.3185938226147016
 30
0.0
 11
4350.6318702286625921
 21
138.7245687285121107
 31
0.0
  0
ARC
  5
8002
  8
0
 10
4348.1074523794341076
 20
135.3548021809554029
 30
0.0
 40
2.2298331142566541
 50
274.5651308499358265
 51
359.0695818068923018
  0
LINE
  5
8003
  8
0
 10
4332.1431976162430146
 20
131.3329040172025088
 30
0.0
 11
4332.1431976162430146
 21
133.5701152738025996
 31
0.0
  0
LINE
  5
8004
  8
0
 10
4334.5054023406437409
 20
131.3329040172025088
 30
0.0
 11
4334.5054023406437409
 21
133.5697140362026119
 31
0.0
  0
LINE
  5
8005
  8
0
 10
4345.9227251752436132
 20
131.3329040172025088
 30
0.0
 11
4345.9227251752436132
 21
133.5697140415549029
 31
0.0
  0
LINE
  5
8006
  8
0
 10
4348.28492989964343
 20
131.3329040172025088
 30
0.0
 11
4348.28492989964343
 21
133.5701152684592898
 31
0.0
  0
ARC
  5
8007
  8
0
 10
4354.2579296742533188
 20
144.3051551960244865
 30
0.0
 40
3.7007873919310499
 50
121.1860664717844003
 51
126.829633809125994
  0
ARC
  5
8008
  8
0
 10
4351.8115407901987055
 20
148.3468412273427077
 30
0.0
 40
1.023622047119634
 50
301.1860664835394914
 51
349.5000000069500175
  0
LINE
  5
8009
  8
0
 10
4352.8180221915190486
 20
148.1603009256704127
 30
0.0
 11
4353.3476549161432558
 21
151.0179433873026085
 31
0.0
  0
ARC
  5
800A
  8
0
 10
4333.3233453915108839
 20
127.9499783364467049
 30
0.0
 40
5.7427073724944071
 50
78.121547389155694
 51
101.8589884038689064
  0
ARC
  5
800B
  8
0
 10
4347.1047820989297179
 20
127.9499783364467049
 30
0.0
 40
5.7427073724944071
 50
78.1410113367134187
 51
101.8784523514079012
  0
ARC
  5
800C
  8
0
 10
4340.2441979794793951
 20
751.8487780709506296
 30
0.0
 40
618.7742120772135195
 50
269.4686050628286011
 51
269.8513896570291877
  0
ARC
  5
800D
  8
0
 10
4341.6921537643438569
 20
92.5733984986657958
 30
0.0
 40
40.6181403824292886
 50
94.1326922795079213
 51
94.3104634580416388
  0
ARC
  5
800E
  8
0
 10
4340.0590158844515827
 20
103.7193827183635051
 30
0.0
 40
29.3950404711751787
 50
89.6977893150722281
 51
92.5231746902622092
  0
ARC
  5
800F
  8
0
 10
4340.362803574953432
 20
103.3761427334883933
 30
0.0
 40
29.7382435409152315
 50
87.4930925503681038
 51
90.2865782551308911
  0
ARC
  5
8010
  8
0
 10
4335.5071384762941307
 20
49.0811450612649125
 30
0.0
 40
84.2300689983912463
 50
85.7230119063272298
 51
85.808489965674525
  0
ARC
  5
8011
  8
0
 10
4339.7450152870169404
 20
856.7299282771361959
 30
0.0
 40
723.6561671600250065
 50
270.1618230215123049
 51
270.3228735388191808
  0
ARC
  5
8012
  8
0
 10
4339.7076771913170887
 20
814.0411070769554271
 30
0.0
 40
680.9682908717563805
 50
270.346255390549004
 51
270.5229332519531908
  0
LINE
  5
8013
  8
0
 10
4338.6392604855591344
 20
133.0766473900212077
 30
0.0
 11
4338.6392606083436476
 21
133.039243662102507
 31
0.0
  0
LINE
  5
8014
  8
0
 10
4338.6392606083436476
 20
133.039243662102507
 30
0.0
 11
4339.1656204006558255
 21
132.9273922062025122
 31
0.0
  0
LINE
  5
8015
  8
0
 10
4339.1656204006558255
 20
132.9273922062025122
 30
0.0
 11
4341.2625071152306191
 21
132.9273922062025122
 31
0.0
  0
LINE
  5
8016
  8
0
 10
4341.2625071152306191
 20
132.9273922062025122
 30
0.0
 11
4341.7888669075437065
 21
133.039243662102507
 31
0.0
  0
LINE
  5
8017
  8
0
 10
4341.7888669075437065
 20
133.039243662102507
 30
0.0
 11
4341.788866907540978
 21
133.076647389602698
 31
0.0
  0
ENDSEC
  0
EOF
