  0
SECTION
  2
HEADER
  9
$ACADVER
  1
AC1009
  9
$INSBASE
 10
4408.5249980428770868
 20
138.4278717964878069
 30
0.0
  9
$EXTMIN
 10
4373.0919271767270402
 20
122.6798403003876956
 30
0.0
  9
$EXTMAX
 10
4443.9580689090289525
 20
154.1759032925880888
 30
0.0
  9
$LIMMIN
 10
0.0
 20
0.0
  9
$LIMMAX
 10
11.6929133858000007
 20
8.2677165353999982
  9
$ORTHOMODE
 70
     0
  9
$REGENMODE
 70
     1
  9
$FILLMODE
 70
     1
  9
$QTEXTMODE
 70
     0
  9
$MIRRTEXT
 70
     0
  9
$DRAGMODE
 70
     2
  9
$LTSCALE
 40
0.6431102362
  9
$OSMODE
 70
  4095
  9
$ATTMODE
 70
     1
  9
$TEXTSIZE
 40
0.2
  9
$TRACEWID
 40
0.05
  9
$TEXTSTYLE
  7
STANDARD
  9
$CLAYER
  8
0
  9
$CELTYPE
  6
BYLAYER
  9
$CECOLOR
 62
   256
  9
$DIMSCALE
 40
1.0
  9
$DIMASZ
 40
0.1875
  9
$DIMEXO
 40
0.0625
  9
$DIMDLI
 40
0.4443307087
  9
$DIMRND
 40
0.0
  9
$DIMDLE
 40
0.0
  9
$DIMEXE
 40
0.125
  9
$DIMTP
 40
0.01
  9
$DIMTM
 40
0.01
  9
$DIMTXT
 40
2.0
  9
$DIMCEN
 40
0.1052362205
  9
$DIMTSZ
 40
0.0
  9
$DIMTOL
 70
     1
  9
$DIMLIM
 70
     0
  9
$DIMTIH
 70
     1
  9
$DIMTOH
 70
     1
  9
$DIMSE1
 70
     0
  9
$DIMSE2
 70
     0
  9
$DIMTAD
 70
     0
  9
$DIMZIN
 70
     0
  9
$DIMBLK
  1

  9
$DIMASO
 70
     1
  9
$DIMSHO
 70
     1
  9
$DIMPOST
  1
\X
  9
$DIMAPOST
  1

  9
$DIMALT
 70
     1
  9
$DIMALTD
 70
     2
  9
$DIMALTF
 40
25.3999999999999986
  9
$DIMLFAC
 40
1.0
  9
$DIMTOFL
 70
     0
  9
$DIMTVP
 40
0.0
  9
$DIMTIX
 70
     0
  9
$DIMSOXD
 70
     0
  9
$DIMSAH
 70
     0
  9
$DIMBLK1
  1

  9
$DIMBLK2
  1

  9
$DIMSTYLE
  2
STANDARD
  9
$DIMCLRD
 70
     0
  9
$DIMCLRE
 70
     0
  9
$DIMCLRT
 70
     0
  9
$DIMTFAC
 40
1.0
  9
$DIMGAP
 40
0.09
  9
$LUNITS
 70
     2
  9
$LUPREC
 70
     4
  9
$SKETCHINC
 40
0.1
  9
$FILLETRAD
 40
0.0
  9
$AUNITS
 70
     0
  9
$AUPREC
 70
     0
  9
$MENU
  1
.
  9
$ELEVATION
 40
0.0
  9
$PELEVATION
 40
0.0
  9
$THICKNESS
 40
0.0
  9
$LIMCHECK
 70
     0
  9
$BLIPMODE
 70
     0
  9
$CHAMFERA
 40
0.0
  9
$CHAMFERB
 40
0.0
  9
$SKPOLY
 70
     0
  9
$TDCREATE
 40
2458060.468368056230247
  9
$TDUPDATE
 40
2459446.5355208339169621
  9
$TDINDWG
 40
0.376696875
  9
$TDUSRTIMER
 40
0.376696875
  9
$USRTIMER
 70
     1
  9
$ANGBASE
 50
0.0
  9
$ANGDIR
 70
     0
  9
$PDMODE
 70
     0
  9
$PDSIZE
 40
0.3125
  9
$PLINEWID
 40
0.0
  9
$COORDS
 70
     1
  9
$SPLFRAME
 70
     0
  9
$SPLINETYPE
 70
     6
  9
$SPLINESEGS
 70
     8
  9
$ATTDIA
 70
     1
  9
$ATTREQ
 70
     1
  9
$HANDLING
 70
     1
  9
$HANDSEED
  5
8129
  9
$SURFTAB1
 70
     6
  9
$SURFTAB2
 70
     6
  9
$SURFTYPE
 70
     6
  9
$SURFU
 70
     6
  9
$SURFV
 70
     6
  9
$UCSNAME
  2

  9
$UCSORG
 10
0.0
 20
0.0
 30
0.0
  9
$UCSXDIR
 10
1.0
 20
0.0
 30
0.0
  9
$UCSYDIR
 10
0.0
 20
1.0
 30
0.0
  9
$PUCSNAME
  2

  9
$PUCSORG
 10
0.0
 20
0.0
 30
0.0
  9
$PUCSXDIR
 10
1.0
 20
0.0
 30
0.0
  9
$PUCSYDIR
 10
0.0
 20
1.0
 30
0.0
  9
$USERI1
 70
     0
  9
$USERI2
 70
     0
  9
$USERI3
 70
     0
  9
$USERI4
 70
     0
  9
$USERI5
 70
     0
  9
$USERR1
 40
0.0
  9
$USERR2
 40
0.0
  9
$USERR3
 40
0.0
  9
$USERR4
 40
0.0
  9
$USERR5
 40
0.0
  9
$WORLDVIEW
 70
     1
  9
$SHADEDGE
 70
     3
  9
$SHADEDIF
 70
    70
  9
$TILEMODE
 70
     1
  9
$MAXACTVP
 70
    64
  9
$PLIMCHECK
 70
     0
  9
$PEXTMIN
 10
1.0000000000000000E+20
 20
1.0000000000000000E+20
 30
1.0000000000000000E+20
  9
$PEXTMAX
 10
-1.0000000000000000E+20
 20
-1.0000000000000000E+20
 30
-1.0000000000000000E+20
  9
$PLIMMIN
 10
0.0
 20
0.0
  9
$PLIMMAX
 10
12.0
 20
9.0
  9
$UNITMODE
 70
     0
  9
$VISRETAIN
 70
     1
  9
$PLINEGEN
 70
     0
  9
$PSLTSCALE
 70
     1
  0
ENDSEC
  0
SECTION
  2
TABLES
  0
TABLE
  2
VPORT
 70
     1
  0
VPORT
  2
*ACTIVE
 70
     0
 10
0.0
 20
0.0
 11
1.0
 21
1.0
 12
379.6933239734261747
 22
5.7126715042147707
 13
0.0
 23
0.0
 14
1.0
 24
1.0
 15
0.0
 25
0.0
 16
0.0
 26
0.0
 36
47.0568789906323275
 17
4028.786865234375
 27
135.8743591308592897
 37
0.0
 40
38.0893639111634172
 41
2.0410052910052912
 42
50.0
 43
0.0
 44
0.0
 50
0.0
 51
0.0
 71
     0
 72
   100
 73
     1
 74
     1
 75
     0
 76
     0
 77
     0
 78
     0
  0
ENDTAB
  0
TABLE
  2
LTYPE
 70
     2
  0
LTYPE
  2
CONTINUOUS
 70
     0
  3
Solid line
 72
    65
 73
     0
 40
0.0
  0
LTYPE
  2
PHANTOM2
 70
     0
  3
___ _ _ ___ _ _ ___ _ _ ___ _ _
 72
    65
 73
     6
 40
1.25
 49
0.625
 49
-0.125
 49
0.125
 49
-0.125
 49
0.125
 49
-0.125
  0
ENDTAB
  0
TABLE
  2
LAYER
 70
     2
  0
LAYER
  2
0
 70
     0
 62
   255
  6
CONTINUOUS
  0
LAYER
  2
DEFPOINTS
 70
     0
 62
     7
  6
CONTINUOUS
  0
ENDTAB
  0
TABLE
  2
STYLE
 70
     1
  0
STYLE
  2
STANDARD
 70
     0
 40
0.0
 41
0.8
 50
0.0
 71
     0
 42
0.2
  3
txt
  4

  0
ENDTAB
  0
TABLE
  2
VIEW
 70
     0
  0
ENDTAB
  0
TABLE
  2
UCS
 70
     0
  0
ENDTAB
  0
TABLE
  2
APPID
 70
     9
  0
APPID
  2
ACAD
 70
     0
  0
APPID
  2
ACAD_MLEADERVER
 70
     0
  0
APPID
  2
ACAD_EXEMPT_FROM_CAD_STANDARDS
 70
     0
  0
APPID
  2
ACAD_NAV_VCDISPLAY
 70
     0
  0
APPID
  2
ACAECLAYERSTANDARD
 70
     0
  0
APPID
  2
ACCMTRANSPARENCY
 70
     0
  0
APPID
  2
ACAD_DSTYLE_DIMJAG
 70
     0
  0
APPID
  2
ACAD_DSTYLE_DIMTALN
 70
     0
  0
APPID
  2
ACDBATTR
 70
     0
  0
ENDTAB
  0
TABLE
  2
DIMSTYLE
 70
     1
  0
DIMSTYLE
  2
STANDARD
 70
     0
  3

  4

  5

  6

  7

 40
1.0
 41
0.1875
 42
0.0625
 43
0.38
 44
0.125
 45
0.0
 46
0.0
 47
0.01
 48
0.01
140
0.15625
141
0.09
142
0.0
143
25.3999999999999986
144
1.0
145
0.0
146
1.0
147
0.09
 71
     1
 72
     0
 73
     1
 74
     1
 75
     0
 76
     0
 77
     0
 78
     4
170
     0
171
     2
172
     0
173
     0
174
     0
175
     0
176
     0
177
     0
178
     0
  0
ENDTAB
  0
ENDSEC
  0
SECTION
  2
BLOCKS
  0
BLOCK
  8
0
  2
$MODEL_SPACE
 70
     0
 10
0.0
 20
0.0
 30
0.0
  3
$MODEL_SPACE
  1

  0
ENDBLK
  5
21
  8
0
  0
BLOCK
 67
     1
  8
0
  2
$PAPER_SPACE
 70
     0
 10
0.0
 20
0.0
 30
0.0
  3
$PAPER_SPACE
  1

  0
ENDBLK
  5
1D
 67
     1
  8
0
  0
ENDSEC
  0
SECTION
  2
ENTITIES
  0
ATTDEF
  5
7608
  8
DEFPOINTS
 10
4408.5187068338018435
 20
138.4245891526466039
 30
0.0
 40
0.001
  1
K-1704T-58
  3

  2
MODELNUMBER
 70
     0
1001
ACDBATTR
1070
     0
1070
     1
  0
ATTDEF
  5
7609
  8
DEFPOINTS
 10
4408.5187068338018435
 20
138.4229224859799956
 30
0.0
 40
0.001
  1
EVOK
  3

  2
TRADENAME
 70
     0
1001
ACDBATTR
1070
     0
1070
     1
  0
ATTDEF
  5
760A
  8
DEFPOINTS
 10
4408.5187068338018435
 20
138.421255819313302
 30
0.0
 40
0.001
  1
BATH
  3

  2
PRODUCT
 70
     0
1001
ACDBATTR
1070
     0
1070
     1
  0
LINE
  5
7FE5
  8
0
 10
4443.9580689090289525
 20
122.9498403003877058
 30
0.0
 11
4443.9580689090289525
 21
153.905903292587908
 31
0.0
  0
LINE
  5
7FE6
  8
0
 10
4373.0919271767270402
 20
153.9059032925875101
 30
0.0
 11
4373.0919271767270402
 21
122.9498403003877058
 31
0.0
  0
LINE
  5
7FE7
  8
0
 10
4373.3619271767265673
 20
122.6798403003876956
 30
0.0
 11
4443.6880689090276064
 21
122.6798403003876956
 31
0.0
  0
LINE
  5
7FE8
  8
0
 10
4373.3619271767265673
 20
154.1759032925874067
 30
0.0
 11
4443.6880689090276064
 21
154.1759032925880888
 31
0.0
  0
ARC
  5
7FE9
  8
0
 10
4373.3619271767265673
 20
153.9059032925875101
 30
0.0
 40
0.27
 50
90.0
 51
180.0000000000015916
  0
ARC
  5
7FEA
  8
0
 10
4373.3619271767265673
 20
122.9498403003877058
 30
0.0
 40
0.27
 50
180.0
 51
270.0
  0
ARC
  5
7FEB
  8
0
 10
4443.6880689090276064
 20
122.9498403003877058
 30
0.0
 40
0.27
 50
270.0
 51
359.9999999999984084
  0
ARC
  5
7FEC
  8
0
 10
4443.6880689090276064
 20
153.905903292587908
 30
0.0
 40
0.27
 50
0.0000000000016284
 51
90.0
  0
LINE
  5
7FED
  8
0
 10
4375.9055334533613859
 20
124.2003996170235069
 30
0.0
 11
4375.9055343559266475
 21
150.3098247824802058
 31
0.0
  0
LINE
  5
7FEE
  8
0
 10
4441.1444626325383069
 20
124.2003996261447014
 30
0.0
 11
4441.1444617298284356
 21
150.2869946183220122
 31
0.0
  0
LINE
  5
7FEF
  8
0
 10
4440.2705095675401026
 20
123.4842501124877003
 30
0.0
 11
4376.8222530670127526
 21
123.4842501124877003
 31
0.0
  0
ARC
  5
7FF0
  8
0
 10
4376.8008697833920451
 20
124.4373359123063949
 30
0.0
 40
0.9533256456397659
 50
201.4925556334428052
 51
271.2852635045807119
  0
ARC
  5
7FF1
  8
0
 10
4376.6699869249359836
 20
124.2003996170235069
 30
0.0
 40
0.7644534715739191
 50
179.9999999978332994
 51
188.4507489447728119
  0
ARC
  5
7FF2
  8
0
 10
4440.2491263030888149
 20
124.4373359114764952
 30
0.0
 40
0.9533256443800437
 50
271.2852623539062051
 51
338.507444390346393
  0
ARC
  5
7FF3
  8
0
 10
4440.3800090781105609
 20
124.2003996261448009
 30
0.0
 40
0.7644535544279031
 50
351.5492512867044184
 51
359.9999999999877787
  0
LINE
  5
7FF4
  8
0
 10
4440.2378374071549842
 20
151.0218335330876869
 30
0.0
 11
4376.7895809066267248
 21
151.0218335330876869
 31
0.0
  0
ARC
  5
7FF5
  8
0
 10
4376.7928376822246719
 20
150.1129591364532985
 30
0.0
 40
0.9088802316284104
 50
90.20530746456879
 51
167.4904459926067943
  0
ARC
  5
7FF6
  8
0
 10
4440.2164541427036966
 20
150.0687477340989915
 30
0.0
 40
0.9533256443800437
 50
13.2342107930637098
 51
88.7147376460937949
  0
CIRCLE
  5
7FF7
  8
0
 10
4408.5249980428270646
 20
137.2467694342876996
 30
0.0
 40
1.3779527558999971
  0
CIRCLE
  5
7FF8
  8
0
 10
4408.5249980428270646
 20
137.2467694342876996
 30
0.0
 40
1.0004142704000001
  0
ARC
  5
7FF9
  8
0
 10
4393.3157884982001633
 20
207.8162982010605901
 30
0.0
 40
62.4626797989548734
 50
262.3574805305603945
 51
269.422394104580178
  0
ARC
  5
7FFA
  8
0
 10
4315.5108720267617173
 20
-7308.8019544836333807
 30
0.0
 40
7454.5582458086728366
 50
89.285074075000864
 51
89.4068200979373131
  0
ARC
  5
7FFB
  8
0
 10
4413.4170608571866978
 20
522.7350428903282591
 30
0.0
 40
377.5907573332664242
 50
269.2576603370619068
 51
271.6613704432443797
  0
ARC
  5
7FFC
  8
0
 10
4422.1428215505820845
 20
222.4436137453820095
 30
0.0
 40
77.1725819954561274
 50
271.6495307118555047
 51
277.3692517637015271
  0
ARC
  5
7FFD
  8
0
 10
4424.3067729357480857
 20
173.6412241519612962
 30
0.0
 40
28.7911062836459486
 50
285.5834020359480974
 51
305.7904564444465905
  0
ARC
  5
7FFE
  8
0
 10
4392.3812205614949562
 20
172.765564850444207
 30
0.0
 40
27.8506184550853995
 50
233.7318160521068933
 51
254.6500057189365975
  0
ARC
  5
7FFF
  8
0
 10
4392.5322703676401943
 20
101.3230040897797011
 30
0.0
 40
28.2811528500267109
 50
105.427907674536101
 51
126.0087460080814026
  0
ARC
  5
8000
  8
0
 10
4393.3158466631339252
 20
66.6768072113277128
 30
0.0
 40
62.4631172056732709
 50
90.5776273921292017
 51
97.6425176747680297
  0
ARC
  5
8001
  8
0
 10
4407.992947269835895
 20
-517.8985598665169618
 30
0.0
 40
647.216340126796922
 50
89.9528994184099844
 51
91.3551844106705744
  0
ARC
  5
8002
  8
0
 10
4409.0005376397257351
 20
-522.8382587482799408
 30
0.0
 40
652.1559936968634474
 50
88.6501132136587557
 51
90.0417789849838073
  0
ARC
  5
8003
  8
0
 10
4423.8306099060246197
 20
69.0321786784535902
 30
0.0
 40
60.1069335699516216
 50
82.1494588912934205
 51
89.4916531690366384
  0
ARC
  5
8004
  8
0
 10
4424.5563533687718518
 20
101.3443280126377033
 30
0.0
 40
28.2412000196244115
 50
54.0292137659097733
 51
74.6323896030886971
  0
ARC
  5
8006
  8
0
 10
4408.5160391380522924
 20
142.4479925380651935
 30
0.0
 40
7.7074872883436241
 50
89.9334014408255058
 51
93.5626798819781413
  0
ARC
  5
8007
  8
0
 10
4407.4001127177825765
 20
153.7734980890816985
 30
0.0
 40
3.6883335997667239
 50
272.4273704832215799
 51
279.9449127731182898
  0
ARC
  5
8008
  8
0
 10
4407.5681008763740465
 20
149.7880499218298951
 30
0.0
 40
0.3006547900613182
 50
92.2448037114709791
 51
98.7365114754160658
  0
ARC
  5
8009
  8
0
 10
4407.6822160563815487
 20
148.7433004110035029
 30
0.0
 40
1.3513950202518941
 50
96.790235704051085
 51
113.5989283695201948
  0
ARC
  5
800A
  8
0
 10
4408.5339569476036559
 20
142.4479925380651935
 30
0.0
 40
7.7074872883436241
 50
86.4373201180218445
 51
86.6444693310952943
  0
ARC
  5
800B
  8
0
 10
4409.4818952092819018
 20
149.7880499218298951
 30
0.0
 40
0.3006547900613182
 50
81.26348852458392
 51
87.7551962885290067
  0
ARC
  5
800C
  8
0
 10
4406.9294390173909051
 20
149.7019972107713954
 30
0.0
 40
0.5660804738837065
 50
90.0081787271212193
 51
98.3935265473917156
  0
ARC
  5
800D
  8
0
 10
4406.9410840550190187
 20
149.6230754700399075
 30
0.0
 40
0.6458567113322599
 50
98.3935265473917156
 51
135.5263249631084932
  0
ARC
  5
800E
  8
0
 10
4407.5272790463932324
 20
149.0475524408718968
 30
0.0
 40
1.4673500618933379
 50
135.5263249631090048
 51
159.0356000953854902
  0
ARC
  5
800F
  8
0
 10
4406.4593362142559272
 20
149.4746765897818932
 30
0.0
 40
0.3177240955452995
 50
162.0580739453928913
 51
245.393782868729204
  0
ARC
  5
8010
  8
0
 10
4408.254612115092641
 20
153.7309065232064995
 30
0.0
 40
4.9369499964033663
 50
247.018284525839988
 51
273.1395350795243075
  0
ARC
  5
8011
  8
0
 10
4408.5703977308239701
 20
153.4636479313880102
 30
0.0
 40
3.7638663130900549
 50
247.6841062809068035
 51
269.308882575318421
  0
ARC
  5
8012
  8
0
 10
4408.5339569476036559
 20
142.4479925380651935
 30
0.0
 40
7.7074872883436241
 50
86.4373201180218445
 51
90.0665985591744942
  0
ARC
  5
8013
  8
0
 10
4409.6498833678733718
 20
153.7734980890816985
 30
0.0
 40
3.6883335997667239
 50
260.0550872268817102
 51
267.5726295167784201
  0
ARC
  5
8014
  8
0
 10
4409.4818952092819018
 20
149.7880499218298951
 30
0.0
 40
0.3006547900613182
 50
81.26348852458392
 51
87.7551962885290067
  0
ARC
  5
8015
  8
0
 10
4409.3677800292716711
 20
148.7433004110035029
 30
0.0
 40
1.3513950202518941
 50
66.4010716304798194
 51
83.209764295948915
  0
ARC
  5
8016
  8
0
 10
4410.1205570682650432
 20
149.7019972107713954
 30
0.0
 40
0.5660804738837065
 50
81.6064734526083271
 51
89.991821272878795
  0
ARC
  5
8017
  8
0
 10
4410.1089120306360201
 20
149.6230754700399075
 30
0.0
 40
0.6458567113322599
 50
44.4736750368909171
 51
81.6064734526083271
  0
ARC
  5
8018
  8
0
 10
4409.5227170392608969
 20
149.0475524408718968
 30
0.0
 40
1.4673500618933379
 50
20.9643999046145098
 51
44.4736750368909171
  0
ARC
  5
8019
  8
0
 10
4410.5906598714000211
 20
149.4746765897818932
 30
0.0
 40
0.3177240955452995
 50
294.606217131270796
 51
17.9419260546071087
  0
ARC
  5
801A
  8
0
 10
4408.7953839705633072
 20
153.7309065232064995
 30
0.0
 40
4.9369499964033663
 50
266.8604649204756925
 51
292.981715474160012
  0
ARC
  5
801B
  8
0
 10
4408.4795983548319782
 20
153.4636479313880102
 30
0.0
 40
3.7638663130900549
 50
270.691117424681579
 51
292.3158937190933102
  0
LINE
  5
801C
  8
0
 10
4406.9293582118280028
 20
150.2680776787877051
 30
0.0
 11
4410.1206378738279454
 21
150.2680776788876926
 31
0.0
  0
ENDSEC
  0
EOF
