  0
SECTION
  2
HEADER
  9
$ACADVER
  1
AC1009
  9
$INSBASE
 10
4150.1073059984883002
 20
152.2720643413167068
 30
0.0
  9
$EXTMIN
 10
4114.6742351323364346
 20
132.5870249712166924
 30
0.0
  9
$EXTMAX
 10
4185.5403768646374374
 20
154.2331373187167003
 30
0.0
  9
$LIMMIN
 10
0.0
 20
0.0
  9
$LIMMAX
 10
11.6929133858000007
 20
8.2677165353999982
  9
$ORTHOMODE
 70
     0
  9
$REGENMODE
 70
     1
  9
$FILLMODE
 70
     1
  9
$QTEXTMODE
 70
     0
  9
$MIRRTEXT
 70
     0
  9
$DRAGMODE
 70
     2
  9
$LTSCALE
 40
0.6431102362
  9
$OSMODE
 70
  4095
  9
$ATTMODE
 70
     1
  9
$TEXTSIZE
 40
0.2
  9
$TRACEWID
 40
0.05
  9
$TEXTSTYLE
  7
STANDARD
  9
$CLAYER
  8
0
  9
$CELTYPE
  6
BYLAYER
  9
$CECOLOR
 62
   256
  9
$DIMSCALE
 40
1.0
  9
$DIMASZ
 40
0.1875
  9
$DIMEXO
 40
0.0625
  9
$DIMDLI
 40
0.4443307087
  9
$DIMRND
 40
0.0
  9
$DIMDLE
 40
0.0
  9
$DIMEXE
 40
0.125
  9
$DIMTP
 40
0.01
  9
$DIMTM
 40
0.01
  9
$DIMTXT
 40
2.0
  9
$DIMCEN
 40
0.1052362205
  9
$DIMTSZ
 40
0.0
  9
$DIMTOL
 70
     1
  9
$DIMLIM
 70
     0
  9
$DIMTIH
 70
     1
  9
$DIMTOH
 70
     1
  9
$DIMSE1
 70
     0
  9
$DIMSE2
 70
     0
  9
$DIMTAD
 70
     0
  9
$DIMZIN
 70
     0
  9
$DIMBLK
  1

  9
$DIMASO
 70
     1
  9
$DIMSHO
 70
     1
  9
$DIMPOST
  1
\X
  9
$DIMAPOST
  1

  9
$DIMALT
 70
     1
  9
$DIMALTD
 70
     2
  9
$DIMALTF
 40
25.3999999999999986
  9
$DIMLFAC
 40
1.0
  9
$DIMTOFL
 70
     0
  9
$DIMTVP
 40
0.0
  9
$DIMTIX
 70
     0
  9
$DIMSOXD
 70
     0
  9
$DIMSAH
 70
     0
  9
$DIMBLK1
  1

  9
$DIMBLK2
  1

  9
$DIMSTYLE
  2
STANDARD
  9
$DIMCLRD
 70
     0
  9
$DIMCLRE
 70
     0
  9
$DIMCLRT
 70
     0
  9
$DIMTFAC
 40
1.0
  9
$DIMGAP
 40
0.09
  9
$LUNITS
 70
     2
  9
$LUPREC
 70
     4
  9
$SKETCHINC
 40
0.1
  9
$FILLETRAD
 40
0.0
  9
$AUNITS
 70
     0
  9
$AUPREC
 70
     0
  9
$MENU
  1
.
  9
$ELEVATION
 40
0.0
  9
$PELEVATION
 40
0.0
  9
$THICKNESS
 40
0.0
  9
$LIMCHECK
 70
     0
  9
$BLIPMODE
 70
     0
  9
$CHAMFERA
 40
0.0
  9
$CHAMFERB
 40
0.0
  9
$SKPOLY
 70
     0
  9
$TDCREATE
 40
2458060.468368056230247
  9
$TDUPDATE
 40
2459446.5354166668839753
  9
$TDINDWG
 40
0.370921412
  9
$TDUSRTIMER
 40
0.370921412
  9
$USRTIMER
 70
     1
  9
$ANGBASE
 50
0.0
  9
$ANGDIR
 70
     0
  9
$PDMODE
 70
     0
  9
$PDSIZE
 40
0.3125
  9
$PLINEWID
 40
0.0
  9
$COORDS
 70
     1
  9
$SPLFRAME
 70
     0
  9
$SPLINETYPE
 70
     6
  9
$SPLINESEGS
 70
     8
  9
$ATTDIA
 70
     1
  9
$ATTREQ
 70
     1
  9
$HANDLING
 70
     1
  9
$HANDSEED
  5
7FFF
  9
$SURFTAB1
 70
     6
  9
$SURFTAB2
 70
     6
  9
$SURFTYPE
 70
     6
  9
$SURFU
 70
     6
  9
$SURFV
 70
     6
  9
$UCSNAME
  2

  9
$UCSORG
 10
0.0
 20
0.0
 30
0.0
  9
$UCSXDIR
 10
1.0
 20
0.0
 30
0.0
  9
$UCSYDIR
 10
0.0
 20
1.0
 30
0.0
  9
$PUCSNAME
  2

  9
$PUCSORG
 10
0.0
 20
0.0
 30
0.0
  9
$PUCSXDIR
 10
1.0
 20
0.0
 30
0.0
  9
$PUCSYDIR
 10
0.0
 20
1.0
 30
0.0
  9
$USERI1
 70
     0
  9
$USERI2
 70
     0
  9
$USERI3
 70
     0
  9
$USERI4
 70
     0
  9
$USERI5
 70
     0
  9
$USERR1
 40
0.0
  9
$USERR2
 40
0.0
  9
$USERR3
 40
0.0
  9
$USERR4
 40
0.0
  9
$USERR5
 40
0.0
  9
$WORLDVIEW
 70
     1
  9
$SHADEDGE
 70
     3
  9
$SHADEDIF
 70
    70
  9
$TILEMODE
 70
     1
  9
$MAXACTVP
 70
    64
  9
$PLIMCHECK
 70
     0
  9
$PEXTMIN
 10
1.0000000000000000E+20
 20
1.0000000000000000E+20
 30
1.0000000000000000E+20
  9
$PEXTMAX
 10
-1.0000000000000000E+20
 20
-1.0000000000000000E+20
 30
-1.0000000000000000E+20
  9
$PLIMMIN
 10
0.0
 20
0.0
  9
$PLIMMAX
 10
12.0
 20
9.0
  9
$UNITMODE
 70
     0
  9
$VISRETAIN
 70
     1
  9
$PLINEGEN
 70
     0
  9
$PSLTSCALE
 70
     1
  0
ENDSEC
  0
SECTION
  2
TABLES
  0
TABLE
  2
VPORT
 70
     1
  0
VPORT
  2
*ACTIVE
 70
     0
 10
0.0
 20
0.0
 11
1.0
 21
1.0
 12
125.0587284302044964
 22
-1.0316468274041171
 13
0.0
 23
0.0
 14
1.0
 24
1.0
 15
0.0
 25
0.0
 16
0.0
 26
0.0
 36
47.0568789906323275
 17
4028.786865234375
 27
135.8743591308592897
 37
0.0
 40
115.6534095778808933
 41
2.0410052910052912
 42
50.0
 43
0.0
 44
0.0
 50
0.0
 51
0.0
 71
     0
 72
   100
 73
     1
 74
     1
 75
     0
 76
     0
 77
     0
 78
     0
  0
ENDTAB
  0
TABLE
  2
LTYPE
 70
     2
  0
LTYPE
  2
CONTINUOUS
 70
     0
  3
Solid line
 72
    65
 73
     0
 40
0.0
  0
LTYPE
  2
PHANTOM2
 70
     0
  3
___ _ _ ___ _ _ ___ _ _ ___ _ _
 72
    65
 73
     6
 40
1.25
 49
0.625
 49
-0.125
 49
0.125
 49
-0.125
 49
0.125
 49
-0.125
  0
ENDTAB
  0
TABLE
  2
LAYER
 70
     2
  0
LAYER
  2
0
 70
     0
 62
   255
  6
CONTINUOUS
  0
LAYER
  2
DEFPOINTS
 70
     0
 62
     7
  6
CONTINUOUS
  0
ENDTAB
  0
TABLE
  2
STYLE
 70
     1
  0
STYLE
  2
STANDARD
 70
     0
 40
0.0
 41
0.8
 50
0.0
 71
     0
 42
0.2
  3
txt
  4

  0
ENDTAB
  0
TABLE
  2
VIEW
 70
     0
  0
ENDTAB
  0
TABLE
  2
UCS
 70
     0
  0
ENDTAB
  0
TABLE
  2
APPID
 70
     9
  0
APPID
  2
ACAD
 70
     0
  0
APPID
  2
ACAD_MLEADERVER
 70
     0
  0
APPID
  2
ACAD_EXEMPT_FROM_CAD_STANDARDS
 70
     0
  0
APPID
  2
ACAD_NAV_VCDISPLAY
 70
     0
  0
APPID
  2
ACAECLAYERSTANDARD
 70
     0
  0
APPID
  2
ACCMTRANSPARENCY
 70
     0
  0
APPID
  2
ACAD_DSTYLE_DIMJAG
 70
     0
  0
APPID
  2
ACAD_DSTYLE_DIMTALN
 70
     0
  0
APPID
  2
ACDBATTR
 70
     0
  0
ENDTAB
  0
TABLE
  2
DIMSTYLE
 70
     1
  0
DIMSTYLE
  2
STANDARD
 70
     0
  3

  4

  5

  6

  7

 40
1.0
 41
0.1875
 42
0.0625
 43
0.38
 44
0.125
 45
0.0
 46
0.0
 47
0.01
 48
0.01
140
0.15625
141
0.09
142
0.0
143
25.3999999999999986
144
1.0
145
0.0
146
1.0
147
0.09
 71
     1
 72
     0
 73
     1
 74
     1
 75
     0
 76
     0
 77
     0
 78
     4
170
     0
171
     2
172
     0
173
     0
174
     0
175
     0
176
     0
177
     0
178
     0
  0
ENDTAB
  0
ENDSEC
  0
SECTION
  2
BLOCKS
  0
BLOCK
  8
0
  2
$MODEL_SPACE
 70
     0
 10
0.0
 20
0.0
 30
0.0
  3
$MODEL_SPACE
  1

  0
ENDBLK
  5
21
  8
0
  0
BLOCK
 67
     1
  8
0
  2
$PAPER_SPACE
 70
     0
 10
0.0
 20
0.0
 30
0.0
  3
$PAPER_SPACE
  1

  0
ENDBLK
  5
1D
 67
     1
  8
0
  0
ENDSEC
  0
SECTION
  2
ENTITIES
  0
ATTDEF
  5
7608
  8
DEFPOINTS
 10
4150.1028328682368738
 20
152.2772983258724935
 30
0.0
 40
0.001
  1
K-1704T-58
  3

  2
MODELNUMBER
 70
     0
1001
ACDBATTR
1070
     0
1070
     1
  0
ATTDEF
  5
7609
  8
DEFPOINTS
 10
4150.1028328682368738
 20
152.2756316592057999
 30
0.0
 40
0.001
  1
EVOK
  3

  2
TRADENAME
 70
     0
1001
ACDBATTR
1070
     0
1070
     1
  0
ATTDEF
  5
760A
  8
DEFPOINTS
 10
4150.1028328682368738
 20
152.2739649925391063
 30
0.0
 40
0.001
  1
BATH
  3

  2
PRODUCT
 70
     0
1001
ACDBATTR
1070
     0
1070
     1
  0
LINE
  5
7ED3
  8
0
 10
4185.5403768646374374
 20
152.2720643413167068
 30
0.0
 11
4114.6742351323373441
 21
152.2720643413167068
 31
0.0
  0
LINE
  5
7ED4
  8
0
 10
4114.9442351323368712
 20
154.2331373187167003
 30
0.0
 11
4185.2703768646370008
 21
154.2331373187167003
 31
0.0
  0
LINE
  5
7ED5
  8
0
 10
4114.6742351323373441
 20
153.9631373187166901
 30
0.0
 11
4114.6742351323373441
 21
152.2720643413167068
 31
0.0
  0
LINE
  5
7ED6
  8
0
 10
4185.5403768646374374
 20
153.9631373187166901
 30
0.0
 11
4185.5403768646374374
 21
152.2720643413167068
 31
0.0
  0
LINE
  5
7ED7
  8
0
 10
4135.1466760772373163
 20
132.5870249712166924
 30
0.0
 11
4132.7844713528365901
 21
132.5870249712166924
 31
0.0
  0
ARC
  5
7ED8
  8
0
 10
4114.9442351323368712
 20
153.9631373187166901
 30
0.0
 40
0.27
 50
90.0
 51
180.0
  0
ARC
  5
7ED9
  8
0
 10
4185.2703768646370008
 20
153.9631373187166901
 30
0.0
 40
0.27
 50
0.0
 51
90.0
  0
LINE
  5
7EDA
  8
0
 10
4132.7844713528365901
 20
132.5870249712166924
 30
0.0
 11
4132.7844713528365901
 21
134.9468065836167057
 31
0.0
  0
LINE
  5
7EDB
  8
0
 10
4135.1466760772373163
 20
132.5870249712166924
 30
0.0
 11
4135.1466760772373163
 21
134.7839730270752057
 31
0.0
  0
ARC
  5
7EDC
  8
0
 10
4090.3504754090708957
 20
131.0872297437294094
 30
0.0
 40
35.505651856585267
 50
30.1678862949225
 51
36.6311254945038911
  0
ARC
  5
7EDD
  8
0
 10
4061.3538137755590469
 20
114.2325202323166025
 30
0.0
 40
69.0449961942811257
 50
23.6400165269835512
 51
30.1678862949225
  0
ARC
  5
7EDE
  8
0
 10
4136.8291295095314126
 20
147.2696690775912884
 30
0.0
 40
13.3441808192547402
 50
203.6400165269836009
 51
218.5992787058524129
  0
ARC
  5
7EDF
  8
0
 10
4134.2381438604952564
 20
144.3646237417904956
 30
0.0
 40
9.5293464510591672
 50
214.6643461134059123
 51
261.2254463898420909
  0
ARC
  5
7EE0
  8
0
 10
4135.1361915025127018
 20
151.847722698682702
 30
0.0
 40
17.0637496814412906
 50
262.0783011540456187
 51
270.0349028601639816
  0
ARC
  5
7EE1
  8
0
 10
4288.5616522160471504
 20
4952.6736952102855867
 30
0.0
 40
4820.3316822786491684
 50
268.1761586111932729
 51
268.3540674029471234
  0
LINE
  5
7EE2
  8
0
 10
4185.5403768646374374
 20
153.9631373187166901
 30
0.0
 11
4185.5403768646374374
 21
152.2720643413167068
 31
0.0
  0
LINE
  5
7EE3
  8
0
 10
4165.0679359197365557
 20
132.5870249712166924
 30
0.0
 11
4167.4301406441372819
 21
132.5870249712166924
 31
0.0
  0
ARC
  5
7EE4
  8
0
 10
4185.2703768646370008
 20
153.9631373187166901
 30
0.0
 40
0.27
 50
0.0
 51
90.0
  0
LINE
  5
7EE5
  8
0
 10
4167.4301406441372819
 20
132.5870249712166924
 30
0.0
 11
4167.4301406441372819
 21
134.9468065836167057
 31
0.0
  0
LINE
  5
7EE6
  8
0
 10
4165.0679359197365557
 20
132.5870249712166924
 30
0.0
 11
4165.0679359197365557
 21
134.7839730270752057
 31
0.0
  0
ARC
  5
7EE7
  8
0
 10
4209.8641365879029763
 20
131.0872297437294094
 30
0.0
 40
35.505651856585267
 50
143.3688745054961089
 51
149.8321137050774894
  0
ARC
  5
7EE8
  8
0
 10
4280.9210527255254419
 20
92.8904878357952555
 30
0.0
 40
116.1646378395693944
 50
151.156736243680399
 51
155.0353609343995913
  0
ARC
  5
7EE9
  8
0
 10
4155.481907065037376
 20
152.0411078664176898
 30
0.0
 40
22.5298809038012209
 50
324.4584394328546182
 51
333.3022653343033994
  0
ARC
  5
7EEA
  8
0
 10
4165.9764681364804346
 20
144.3646237417904956
 30
0.0
 40
9.5293464510591672
 50
278.7745536101577954
 51
325.3356538865940024
  0
ARC
  5
7EEB
  8
0
 10
4165.0784204944620797
 20
151.847722698682702
 30
0.0
 40
17.0637496814412906
 50
269.9650971398359047
 51
277.9216988459543813
  0
ARC
  5
7EEC
  8
0
 10
4011.6550921697062222
 20
4952.6050577003670696
 30
0.0
 40
4820.2630116734380863
 50
271.6459306262133282
 51
271.8238420210674917
  0
LINE
  5
7EED
  8
0
 10
4149.058862641372798
 20
134.1815131602166957
 30
0.0
 11
4151.1557493556010741
 21
134.1815131602166957
 31
0.0
  0
LINE
  5
7EEE
  8
0
 10
4149.058862641372798
 20
134.1815131602166957
 30
0.0
 11
4148.5325028488359749
 21
134.2933646161166905
 31
0.0
  0
LINE
  5
7EEF
  8
0
 10
4148.5325028488359749
 20
134.2933646161166905
 30
0.0
 11
4148.5325028488359749
 21
134.3763440179783117
 31
0.0
  0
LINE
  5
7EF0
  8
0
 10
4151.1557493556010741
 20
134.1815131602166957
 30
0.0
 11
4151.6821091481360781
 21
134.2933646161166905
 31
0.0
  0
LINE
  5
7EF1
  8
0
 10
4151.6821091481360781
 20
134.2933646161166905
 30
0.0
 11
4151.6821091481360781
 21
134.3763440179783117
 31
0.0
  0
ENDSEC
  0
EOF
