  0
SECTION
  2
HEADER
  9
$ACADVER
  1
AC1009
  9
$INSBASE
 10
4512.9950978719953127
 20
484.5466999118469857
 30
0.0
  9
$EXTMIN
 10
4506.1529661060740182
 20
471.3432293822442034
 30
-0.0000000000112498
  9
$EXTMAX
 10
4519.8885100887164299
 20
484.557493613187205
 30
0.0000000000002956
  9
$LIMMIN
 10
0.0
 20
0.0
  9
$LIMMAX
 10
11.6929133858000007
 20
8.2677165353999982
  9
$ORTHOMODE
 70
     0
  9
$REGENMODE
 70
     1
  9
$FILLMODE
 70
     1
  9
$QTEXTMODE
 70
     0
  9
$MIRRTEXT
 70
     0
  9
$DRAGMODE
 70
     2
  9
$LTSCALE
 40
0.6431102362
  9
$OSMODE
 70
     7
  9
$ATTMODE
 70
     1
  9
$TEXTSIZE
 40
0.2
  9
$TRACEWID
 40
0.05
  9
$TEXTSTYLE
  7
STANDARD
  9
$CLAYER
  8
0
  9
$CELTYPE
  6
BYLAYER
  9
$CECOLOR
 62
   256
  9
$DIMSCALE
 40
1.0
  9
$DIMASZ
 40
0.1875
  9
$DIMEXO
 40
0.0625
  9
$DIMDLI
 40
0.4443307087
  9
$DIMRND
 40
0.0
  9
$DIMDLE
 40
0.0
  9
$DIMEXE
 40
0.125
  9
$DIMTP
 40
0.01
  9
$DIMTM
 40
0.01
  9
$DIMTXT
 40
2.0
  9
$DIMCEN
 40
0.1052362205
  9
$DIMTSZ
 40
0.0
  9
$DIMTOL
 70
     1
  9
$DIMLIM
 70
     0
  9
$DIMTIH
 70
     1
  9
$DIMTOH
 70
     1
  9
$DIMSE1
 70
     0
  9
$DIMSE2
 70
     0
  9
$DIMTAD
 70
     0
  9
$DIMZIN
 70
     0
  9
$DIMBLK
  1

  9
$DIMASO
 70
     1
  9
$DIMSHO
 70
     1
  9
$DIMPOST
  1
\X
  9
$DIMAPOST
  1

  9
$DIMALT
 70
     1
  9
$DIMALTD
 70
     2
  9
$DIMALTF
 40
25.3999999999999986
  9
$DIMLFAC
 40
1.0
  9
$DIMTOFL
 70
     0
  9
$DIMTVP
 40
0.0
  9
$DIMTIX
 70
     0
  9
$DIMSOXD
 70
     0
  9
$DIMSAH
 70
     0
  9
$DIMBLK1
  1

  9
$DIMBLK2
  1

  9
$DIMSTYLE
  2
STANDARD
  9
$DIMCLRD
 70
     0
  9
$DIMCLRE
 70
     0
  9
$DIMCLRT
 70
     0
  9
$DIMTFAC
 40
1.0
  9
$DIMGAP
 40
0.09
  9
$LUNITS
 70
     2
  9
$LUPREC
 70
     4
  9
$SKETCHINC
 40
0.1
  9
$FILLETRAD
 40
0.0
  9
$AUNITS
 70
     0
  9
$AUPREC
 70
     0
  9
$MENU
  1
.
  9
$ELEVATION
 40
0.0
  9
$PELEVATION
 40
0.0
  9
$THICKNESS
 40
0.0
  9
$LIMCHECK
 70
     0
  9
$BLIPMODE
 70
     0
  9
$CHAMFERA
 40
0.0
  9
$CHAMFERB
 40
0.0
  9
$SKPOLY
 70
     0
  9
$TDCREATE
 40
2458060.468368056230247
  9
$TDUPDATE
 40
2459559.7146875001490116
  9
$TDINDWG
 40
1.4569103009
  9
$TDUSRTIMER
 40
1.4569103009
  9
$USRTIMER
 70
     1
  9
$ANGBASE
 50
0.0
  9
$ANGDIR
 70
     0
  9
$PDMODE
 70
     0
  9
$PDSIZE
 40
0.3125
  9
$PLINEWID
 40
0.0
  9
$COORDS
 70
     1
  9
$SPLFRAME
 70
     0
  9
$SPLINETYPE
 70
     6
  9
$SPLINESEGS
 70
     8
  9
$ATTDIA
 70
     1
  9
$ATTREQ
 70
     1
  9
$HANDLING
 70
     1
  9
$HANDSEED
  5
19E05
  9
$SURFTAB1
 70
     6
  9
$SURFTAB2
 70
     6
  9
$SURFTYPE
 70
     6
  9
$SURFU
 70
     6
  9
$SURFV
 70
     6
  9
$UCSNAME
  2

  9
$UCSORG
 10
0.0
 20
0.0
 30
0.0
  9
$UCSXDIR
 10
1.0
 20
0.0
 30
0.0
  9
$UCSYDIR
 10
0.0
 20
1.0
 30
0.0
  9
$PUCSNAME
  2

  9
$PUCSORG
 10
0.0
 20
0.0
 30
0.0
  9
$PUCSXDIR
 10
1.0
 20
0.0
 30
0.0
  9
$PUCSYDIR
 10
0.0
 20
1.0
 30
0.0
  9
$USERI1
 70
     0
  9
$USERI2
 70
     0
  9
$USERI3
 70
     0
  9
$USERI4
 70
     0
  9
$USERI5
 70
     0
  9
$USERR1
 40
0.0
  9
$USERR2
 40
0.0
  9
$USERR3
 40
0.0
  9
$USERR4
 40
0.0
  9
$USERR5
 40
0.0
  9
$WORLDVIEW
 70
     1
  9
$SHADEDGE
 70
     3
  9
$SHADEDIF
 70
    70
  9
$TILEMODE
 70
     1
  9
$MAXACTVP
 70
    64
  9
$PLIMCHECK
 70
     0
  9
$PEXTMIN
 10
1.0000000000000000E+20
 20
1.0000000000000000E+20
 30
1.0000000000000000E+20
  9
$PEXTMAX
 10
-1.0000000000000000E+20
 20
-1.0000000000000000E+20
 30
-1.0000000000000000E+20
  9
$PLIMMIN
 10
0.0
 20
0.0
  9
$PLIMMAX
 10
12.0
 20
9.0
  9
$UNITMODE
 70
     0
  9
$VISRETAIN
 70
     1
  9
$PLINEGEN
 70
     0
  9
$PSLTSCALE
 70
     1
  0
ENDSEC
  0
SECTION
  2
TABLES
  0
TABLE
  2
VPORT
 70
     1
  0
VPORT
  2
*ACTIVE
 70
     0
 10
0.0
 20
0.0
 11
1.0
 21
1.0
 12
601.6553816520826103
 22
345.370756395176727
 13
0.0
 23
0.0
 14
1.0
 24
1.0
 15
0.0
 25
0.0
 16
0.0
 26
0.0
 36
60.4960186965801583
 17
3911.3653564453120453
 27
132.5796051025390057
 37
0.0
 40
13.3088771013315199
 41
2.2831541218637992
 42
50.0
 43
0.0
 44
0.0
 50
0.0
 51
0.0
 71
     0
 72
   100
 73
     1
 74
     1
 75
     0
 76
     0
 77
     0
 78
     0
  0
ENDTAB
  0
TABLE
  2
LTYPE
 70
     2
  0
LTYPE
  2
CONTINUOUS
 70
     0
  3
Solid line
 72
    65
 73
     0
 40
0.0
  0
LTYPE
  2
PHANTOM2
 70
     0
  3
___ _ _ ___ _ _ ___ _ _ ___ _ _
 72
    65
 73
     6
 40
1.25
 49
0.625
 49
-0.125
 49
0.125
 49
-0.125
 49
0.125
 49
-0.125
  0
ENDTAB
  0
TABLE
  2
LAYER
 70
     2
  0
LAYER
  2
0
 70
     0
 62
   255
  6
CONTINUOUS
  0
LAYER
  2
DEFPOINTS
 70
     0
 62
     7
  6
CONTINUOUS
  0
ENDTAB
  0
TABLE
  2
STYLE
 70
     1
  0
STYLE
  2
STANDARD
 70
     0
 40
0.0
 41
0.8
 50
0.0
 71
     0
 42
0.2
  3
txt
  4

  0
ENDTAB
  0
TABLE
  2
VIEW
 70
     0
  0
ENDTAB
  0
TABLE
  2
UCS
 70
     0
  0
ENDTAB
  0
TABLE
  2
APPID
 70
    11
  0
APPID
  2
ACAD
 70
     0
  0
APPID
  2
ACAD_MLEADERVER
 70
     0
  0
APPID
  2
ACAD_EXEMPT_FROM_CAD_STANDARDS
 70
     0
  0
APPID
  2
ACAD_NAV_VCDISPLAY
 70
     0
  0
APPID
  2
ACAECLAYERSTANDARD
 70
     0
  0
APPID
  2
ACCMTRANSPARENCY
 70
     0
  0
APPID
  2
ACAD_DSTYLE_DIMJAG
 70
     0
  0
APPID
  2
ACAD_DSTYLE_DIMTALN
 70
     0
  0
APPID
  2
ACDBATTR
 70
     0
  0
APPID
  2
ACADANNOTATIVE
 70
     0
  0
APPID
  2
DCO15
 70
     0
  0
ENDTAB
  0
TABLE
  2
DIMSTYLE
 70
     1
  0
DIMSTYLE
  2
STANDARD
 70
     0
  3

  4

  5

  6

  7

 40
1.0
 41
0.1875
 42
0.0625
 43
0.38
 44
0.125
 45
0.0
 46
0.0
 47
0.01
 48
0.01
140
0.15625
141
0.09
142
0.0
143
25.3999999999999986
144
1.0
145
0.0
146
1.0
147
0.09
 71
     1
 72
     0
 73
     1
 74
     1
 75
     0
 76
     0
 77
     0
 78
     4
170
     0
171
     2
172
     0
173
     0
174
     0
175
     0
176
     0
177
     0
178
     0
  0
ENDTAB
  0
ENDSEC
  0
SECTION
  2
BLOCKS
  0
BLOCK
  8
0
  2
$MODEL_SPACE
 70
     0
 10
0.0
 20
0.0
 30
0.0
  3
$MODEL_SPACE
  1

  0
ENDBLK
  5
21
  8
0
  0
BLOCK
 67
     1
  8
0
  2
$PAPER_SPACE
 70
     0
 10
0.0
 20
0.0
 30
0.0
  3
$PAPER_SPACE
  1

  0
ENDBLK
  5
1D
 67
     1
  8
0
  0
ENDSEC
  0
SECTION
  2
ENTITIES
  0
ATTDEF
  5
159BF
  8
DEFPOINTS
 10
4512.9951014251691959
 20
484.5500401700857083
 30
0.0
 40
0.001
  1
K-16320T-MC05
  3

  2
MODELNUMBER
 70
     0
1001
ACDBATTR
1070
     0
1070
     1
  0
ATTDEF
  5
159C0
  8
DEFPOINTS
 10
4512.9951014251691959
 20
484.5483733297065214
 30
0.0
 40
0.001
  1
PATIO
  3

  2
TRADENAME
 70
     0
1001
ACDBATTR
1070
     0
1070
     1
  0
ATTDEF
  5
159C1
  8
DEFPOINTS
 10
4512.9951014251691959
 20
484.546706836752378
 30
0.0
 40
0.001
  1
URINAL
  3

  2
PRODUCT
 70
     0
1001
ACDBATTR
1070
     0
1070
     1
  0
LINE
  5
19D12
  8
0
 10
4518.786248344194064
 20
484.5466999118469857
 30
0.0
 11
4507.203947399793833
 21
484.5466999118469857
 31
0.0
  0
LINE
  5
19D13
  8
0
 10
4518.786248344194064
 20
484.5466999118469857
 30
0.0
 11
4518.786248344194064
 21
482.7050493354901164
 31
0.0
  0
ARC
  5
19D14
  8
0
 10
4515.1630602703953627
 20
476.3982164020433743
 30
0.0
 40
4.2003109424999918
 50
329.6097723286343921
 51
30.3902276713656008
  0
ARC
  5
19D15
  8
0
 10
4507.5826961350603597
 20
478.2683454650106114
 30
0.0
 40
11.9997456376270701
 50
347.6952279408429831
 51
12.3047720591569902
  0
ARC
  5
19D16
  8
0
 10
4493.4702618686151254
 20
475.8249168337878245
 30
0.0
 40
26.3160199423149201
 50
10.9542739458317602
 51
15.8460045707002504
  0
ARC
  5
19D17
  8
0
 10
4512.9950978719953127
 20
473.5630016996755103
 30
0.0
 40
7.8306278955063862
 50
61.8721369442200384
 51
118.1278630557798976
  0
ARC
  5
19D18
  8
0
 10
4514.0580380188230265
 20
475.5267987415710991
 30
0.0
 40
5.5976584262584179
 50
32.3627117883942432
 51
61.9907727266165693
  0
ARC
  5
19D19
  8
0
 10
4512.9950978719953127
 20
479.6542479995151211
 30
0.0
 40
8.2926911466816833
 50
241.9492666306634874
 51
298.0507333693365126
  0
ARC
  5
19D1A
  8
0
 10
4514.3088511016539996
 20
476.7520265291639134
 30
0.0
 40
5.1177140265602432
 50
300.3503660662302082
 51
331.0310448702047097
  0
ARC
  5
19D1B
  8
0
 10
4512.9950978719953127
 20
473.0481687186951945
 30
0.0
 40
7.0952898915343354
 50
66.656802540344728
 51
113.343197459655201
  0
ARC
  5
19D1C
  8
0
 10
4513.5863899039422904
 20
480.285587254447023
 30
0.0
 40
0.0327400554939415
 50
291.3222011096966071
 51
55.0480697885273926
  0
ARC
  5
19D1D
  8
0
 10
4512.9950978719953127
 20
478.4942472451795084
 30
0.0
 40
1.94993837428841
 50
80.2232829383557942
 51
99.7767170616442201
  0
ARC
  5
19D1E
  8
0
 10
4513.2531954041060089
 20
479.7911920942278243
 30
0.0
 40
0.6289277777829176
 50
55.9715380495961696
 51
83.3328202434692145
  0
ARC
  5
19D1F
  8
0
 10
4512.9950978719953127
 20
487.1914008257991213
 30
0.0
 40
6.9924431068632611
 50
267.3487614376981014
 51
272.6512385623020123
  0
ARC
  5
19D20
  8
0
 10
4513.2662371469386926
 20
481.3359604863410937
 30
0.0
 40
1.1307285048597651
 50
272.6513468745641831
 51
287.0776111080585906
  0
CIRCLE
  5
19D21
  8
0
 10
4512.995110883194684
 20
478.6411881008469891
 30
0.0
 40
0.6299212597999997
  0
ARC
  5
19D22
  8
0
 10
4512.995098297156801
 20
482.3306708934396738
 30
0.0
 40
4.0380929608121834
 50
262.2060687772943766
 51
277.7943221321505121
  0
ARC
  5
19D23
  8
0
 10
4512.9950978719953127
 20
476.8535417863982957
 30
0.0
 40
3.796863226031804
 50
243.2184423103300901
 51
296.7815576896699099
  0
ARC
  5
19D24
  8
0
 10
4514.4228720739647542
 20
477.1507898697652195
 30
0.0
 40
3.0981867544898121
 50
331.708256294934074
 51
28.2917437050659295
  0
ARC
  5
19D25
  8
0
 10
4512.9144173127424438
 20
477.8951140739765719
 30
0.0
 40
4.7796017709457619
 50
292.0134420233055721
 51
332.4219875932129753
  0
ARC
  5
19D26
  8
0
 10
4514.2693549568857634
 20
475.9426145670047958
 30
0.0
 40
3.9329192755874649
 50
42.8875873097249567
 51
66.9928576747527131
  0
ARC
  5
19D27
  8
0
 10
4518.3844310397080335
 20
482.7612701412078877
 30
0.0
 40
0.4057313460650052
 50
344.1669865329262734
 51
352.0350910029479792
  0
ARC
  5
19D28
  8
0
 10
4517.7801600355551273
 20
482.9326377179461929
 30
0.0
 40
1.0338318896226959
 50
309.6036836299733181
 51
344.1669865329262734
  0
ARC
  5
19D29
  8
0
 10
4517.707064563921449
 20
483.0413933002569138
 30
0.0
 40
1.164294175715485
 50
274.0798789676456977
 51
308.9634006041241037
  0
ARC
  5
19D2A
  8
0
 10
4517.3210791519077247
 20
488.4520347940277247
 30
0.0
 40
6.5886859491639891
 50
264.8350103802918056
 51
274.0803614351976876
  0
ARC
  5
19D2B
  8
0
 10
4515.2408106489019701
 20
465.4379381440717793
 30
0.0
 40
16.5192382686906996
 50
84.8350103802918767
 51
93.1530712116916959
  0
ARC
  5
19D2C
  8
0
 10
4514.1904357923240241
 20
483.8390180137280936
 30
0.0
 40
1.9121110530363561
 50
257.725175191828896
 51
274.2515606864835718
  0
ARC
  5
19D2D
  8
0
 10
4512.9950978719953127
 20
473.8965980973168826
 30
0.0
 40
8.1124633414544132
 50
84.4199879329389802
 51
95.580012067061034
  0
LINE
  5
19D2E
  8
0
 10
4513.7839194213938754
 20
484.5466999118469857
 30
0.0
 11
4513.7839189523947425
 21
481.9706195717470223
 31
0.0
  0
LINE
  5
19D2F
  8
0
 10
4507.203947399793833
 20
484.5466999118469857
 30
0.0
 11
4507.203947399793833
 21
482.7050493354901164
 31
0.0
  0
ARC
  5
19D30
  8
0
 10
4510.8271354735943532
 20
476.3982164020433743
 30
0.0
 40
4.2003109424999918
 50
149.6097723286343921
 51
210.3902276713656079
  0
ARC
  5
19D31
  8
0
 10
4518.4074996089293563
 20
478.2683454650106114
 30
0.0
 40
11.9997456376270701
 50
167.6952279408430115
 51
192.3047720591569885
  0
ARC
  5
19D32
  8
0
 10
4532.5199338753727716
 20
475.8249168337878245
 30
0.0
 40
26.3160199423149201
 50
164.1539954292996981
 51
169.045726054168199
  0
ARC
  5
19D33
  8
0
 10
4511.93215772516578
 20
475.5267987415710991
 30
0.0
 40
5.5976584262584179
 50
118.0092272733834022
 51
147.6372882116056928
  0
ARC
  5
19D34
  8
0
 10
4511.6813446423338974
 20
476.7520265291639134
 30
0.0
 40
5.1177140265602432
 50
208.968955129795205
 51
239.6496339337697918
  0
ARC
  5
19D35
  8
0
 10
4512.4038058400474256
 20
480.285587254447023
 30
0.0
 40
0.0327400554939415
 50
124.9519302114726003
 51
248.6777988903035066
  0
ARC
  5
19D36
  8
0
 10
4512.7370003398827976
 20
479.7911920942278243
 30
0.0
 40
0.6289277777829176
 50
96.6671797565307855
 51
124.0284619504037948
  0
ARC
  5
19D37
  8
0
 10
4512.7239585970492044
 20
481.3359604863410937
 30
0.0
 40
1.1307285048597651
 50
252.9223888919414094
 51
267.3486531254358169
  0
ARC
  5
19D38
  8
0
 10
4511.5673236700222333
 20
477.1507898697652195
 30
0.0
 40
3.0981867544898192
 50
151.7082562949339888
 51
208.2917437050658975
  0
ARC
  5
19D39
  8
0
 10
4513.0757784312472722
 20
477.8951140739765719
 30
0.0
 40
4.7796017709457619
 50
207.5780124067869963
 51
247.9865579766942858
  0
ARC
  5
19D3A
  8
0
 10
4511.7208407871030431
 20
475.9426145670047958
 30
0.0
 40
3.9329192755874649
 50
113.0071423252473011
 51
137.1124126902749936
  0
ARC
  5
19D3B
  8
0
 10
4507.6057647042798635
 20
482.7612701412078877
 30
0.0
 40
0.4057313460650052
 50
187.9649089970519924
 51
195.8330134670736982
  0
ARC
  5
19D3C
  8
0
 10
4508.2100357084318603
 20
482.9326377179461929
 30
0.0
 40
1.0338318896226959
 50
195.8330134670736982
 51
230.3963163700267103
  0
ARC
  5
19D3D
  8
0
 10
4508.283131180068267
 20
483.0413933002569138
 30
0.0
 40
1.164294175715485
 50
231.0365993958758111
 51
265.9201210323543023
  0
ARC
  5
19D3E
  8
0
 10
4508.6691165920801723
 20
488.4520347940277247
 30
0.0
 40
6.5886859491639891
 50
265.9196385648021987
 51
275.1649896197080807
  0
ARC
  5
19D3F
  8
0
 10
4510.7493850950868364
 20
465.4379381440717793
 30
0.0
 40
16.5192382686906996
 50
86.8469287883083041
 51
95.1649896197081233
  0
ARC
  5
19D40
  8
0
 10
4511.7997599516647824
 20
483.8390180137280936
 30
0.0
 40
1.9121110530363561
 50
265.7484393135164282
 51
282.2748248081709903
  0
LINE
  5
19D41
  8
0
 10
4512.2062763225940216
 20
484.5466999118469857
 30
0.0
 11
4512.206276791594064
 21
481.9706195717470223
 31
0.0
  0
ENDSEC
  0
EOF
