  0
SECTION
  2
HEADER
  9
$ACADVER
  1
AC1009
  9
$INSBASE
 10
4254.7464677285070138
 20
215.0978370574250107
 30
0.0
  9
$EXTMIN
 10
4252.5220582790570916
 20
212.7900886058378944
 30
0.0
  9
$EXTMAX
 10
4256.9708771779578456
 20
215.1021703907584026
 30
0.0
  9
$LIMMIN
 10
0.0
 20
0.0
  9
$LIMMAX
 10
11.6929133858000007
 20
8.2677165353999982
  9
$ORTHOMODE
 70
     0
  9
$REGENMODE
 70
     1
  9
$FILLMODE
 70
     1
  9
$QTEXTMODE
 70
     0
  9
$MIRRTEXT
 70
     0
  9
$DRAGMODE
 70
     2
  9
$LTSCALE
 40
0.6431102362
  9
$OSMODE
 70
  3839
  9
$ATTMODE
 70
     1
  9
$TEXTSIZE
 40
0.2
  9
$TRACEWID
 40
0.05
  9
$TEXTSTYLE
  7
STANDARD
  9
$CLAYER
  8
0
  9
$CELTYPE
  6
BYLAYER
  9
$CECOLOR
 62
   256
  9
$DIMSCALE
 40
1.0
  9
$DIMASZ
 40
0.1875
  9
$DIMEXO
 40
0.0625
  9
$DIMDLI
 40
0.4443307087
  9
$DIMRND
 40
0.0
  9
$DIMDLE
 40
0.0
  9
$DIMEXE
 40
0.125
  9
$DIMTP
 40
0.01
  9
$DIMTM
 40
0.01
  9
$DIMTXT
 40
2.0
  9
$DIMCEN
 40
0.1052362205
  9
$DIMTSZ
 40
0.0
  9
$DIMTOL
 70
     1
  9
$DIMLIM
 70
     0
  9
$DIMTIH
 70
     1
  9
$DIMTOH
 70
     1
  9
$DIMSE1
 70
     0
  9
$DIMSE2
 70
     0
  9
$DIMTAD
 70
     0
  9
$DIMZIN
 70
     0
  9
$DIMBLK
  1

  9
$DIMASO
 70
     1
  9
$DIMSHO
 70
     1
  9
$DIMPOST
  1
\X
  9
$DIMAPOST
  1

  9
$DIMALT
 70
     1
  9
$DIMALTD
 70
     2
  9
$DIMALTF
 40
25.3999999999999986
  9
$DIMLFAC
 40
1.0
  9
$DIMTOFL
 70
     0
  9
$DIMTVP
 40
0.0
  9
$DIMTIX
 70
     0
  9
$DIMSOXD
 70
     0
  9
$DIMSAH
 70
     0
  9
$DIMBLK1
  1

  9
$DIMBLK2
  1

  9
$DIMSTYLE
  2
STANDARD
  9
$DIMCLRD
 70
     0
  9
$DIMCLRE
 70
     0
  9
$DIMCLRT
 70
     0
  9
$DIMTFAC
 40
1.0
  9
$DIMGAP
 40
0.09
  9
$LUNITS
 70
     2
  9
$LUPREC
 70
     4
  9
$SKETCHINC
 40
0.1
  9
$FILLETRAD
 40
0.0
  9
$AUNITS
 70
     0
  9
$AUPREC
 70
     0
  9
$MENU
  1
.
  9
$ELEVATION
 40
0.0
  9
$PELEVATION
 40
0.0
  9
$THICKNESS
 40
0.0
  9
$LIMCHECK
 70
     0
  9
$BLIPMODE
 70
     0
  9
$CHAMFERA
 40
0.0
  9
$CHAMFERB
 40
0.0
  9
$SKPOLY
 70
     0
  9
$TDCREATE
 40
2458060.468368056230247
  9
$TDUPDATE
 40
2459053.8761689821258187
  9
$TDINDWG
 40
0.548733912
  9
$TDUSRTIMER
 40
0.548733912
  9
$USRTIMER
 70
     1
  9
$ANGBASE
 50
0.0
  9
$ANGDIR
 70
     0
  9
$PDMODE
 70
     0
  9
$PDSIZE
 40
0.3125
  9
$PLINEWID
 40
0.0
  9
$COORDS
 70
     1
  9
$SPLFRAME
 70
     0
  9
$SPLINETYPE
 70
     6
  9
$SPLINESEGS
 70
     8
  9
$ATTDIA
 70
     1
  9
$ATTREQ
 70
     1
  9
$HANDLING
 70
     1
  9
$HANDSEED
  5
9858
  9
$SURFTAB1
 70
     6
  9
$SURFTAB2
 70
     6
  9
$SURFTYPE
 70
     6
  9
$SURFU
 70
     6
  9
$SURFV
 70
     6
  9
$UCSNAME
  2

  9
$UCSORG
 10
0.0
 20
0.0
 30
0.0
  9
$UCSXDIR
 10
1.0
 20
0.0
 30
0.0
  9
$UCSYDIR
 10
0.0
 20
1.0
 30
0.0
  9
$PUCSNAME
  2

  9
$PUCSORG
 10
0.0
 20
0.0
 30
0.0
  9
$PUCSXDIR
 10
1.0
 20
0.0
 30
0.0
  9
$PUCSYDIR
 10
0.0
 20
1.0
 30
0.0
  9
$USERI1
 70
     0
  9
$USERI2
 70
     0
  9
$USERI3
 70
     0
  9
$USERI4
 70
     0
  9
$USERI5
 70
     0
  9
$USERR1
 40
0.0
  9
$USERR2
 40
0.0
  9
$USERR3
 40
0.0
  9
$USERR4
 40
0.0
  9
$USERR5
 40
0.0
  9
$WORLDVIEW
 70
     1
  9
$SHADEDGE
 70
     3
  9
$SHADEDIF
 70
    70
  9
$TILEMODE
 70
     1
  9
$MAXACTVP
 70
    64
  9
$PLIMCHECK
 70
     0
  9
$PEXTMIN
 10
1.0000000000000000E+20
 20
1.0000000000000000E+20
 30
1.0000000000000000E+20
  9
$PEXTMAX
 10
-1.0000000000000000E+20
 20
-1.0000000000000000E+20
 30
-1.0000000000000000E+20
  9
$PLIMMIN
 10
0.0
 20
0.0
  9
$PLIMMAX
 10
12.0
 20
9.0
  9
$UNITMODE
 70
     0
  9
$VISRETAIN
 70
     1
  9
$PLINEGEN
 70
     0
  9
$PSLTSCALE
 70
     1
  0
ENDSEC
  0
SECTION
  2
TABLES
  0
TABLE
  2
VPORT
 70
     1
  0
VPORT
  2
*ACTIVE
 70
     0
 10
0.0
 20
0.0
 11
1.0
 21
1.0
 12
0.0
 22
0.0
 13
0.0
 23
0.0
 14
1.0
 24
1.0
 15
0.0
 25
0.0
 16
0.0
 26
0.0
 36
20.8145132377056292
 17
4254.746337890625
 27
213.9461276148128093
 37
0.0
 40
5.0136755362556551
 41
3.314341846758349
 42
50.0
 43
0.0
 44
0.0
 50
0.0
 51
0.0
 71
     0
 72
   100
 73
     1
 74
     1
 75
     0
 76
     0
 77
     0
 78
     0
  0
ENDTAB
  0
TABLE
  2
LTYPE
 70
     2
  0
LTYPE
  2
CONTINUOUS
 70
     0
  3
Solid line
 72
    65
 73
     0
 40
0.0
  0
LTYPE
  2
PHANTOM2
 70
     0
  3
___ _ _ ___ _ _ ___ _ _ ___ _ _
 72
    65
 73
     6
 40
1.25
 49
0.625
 49
-0.125
 49
0.125
 49
-0.125
 49
0.125
 49
-0.125
  0
ENDTAB
  0
TABLE
  2
LAYER
 70
     2
  0
LAYER
  2
0
 70
     0
 62
   255
  6
CONTINUOUS
  0
LAYER
  2
DEFPOINTS
 70
     0
 62
     7
  6
CONTINUOUS
  0
ENDTAB
  0
TABLE
  2
STYLE
 70
     1
  0
STYLE
  2
STANDARD
 70
     0
 40
0.0
 41
0.8
 50
0.0
 71
     0
 42
0.2
  3
txt
  4

  0
ENDTAB
  0
TABLE
  2
VIEW
 70
     0
  0
ENDTAB
  0
TABLE
  2
UCS
 70
     0
  0
ENDTAB
  0
TABLE
  2
APPID
 70
     9
  0
APPID
  2
ACAD
 70
     0
  0
APPID
  2
ACAD_MLEADERVER
 70
     0
  0
APPID
  2
ACAD_EXEMPT_FROM_CAD_STANDARDS
 70
     0
  0
APPID
  2
ACAD_NAV_VCDISPLAY
 70
     0
  0
APPID
  2
ACAECLAYERSTANDARD
 70
     0
  0
APPID
  2
ACCMTRANSPARENCY
 70
     0
  0
APPID
  2
ACAD_DSTYLE_DIMJAG
 70
     0
  0
APPID
  2
ACAD_DSTYLE_DIMTALN
 70
     0
  0
APPID
  2
ACDBATTR
 70
     0
  0
ENDTAB
  0
TABLE
  2
DIMSTYLE
 70
     1
  0
DIMSTYLE
  2
STANDARD
 70
     0
  3

  4

  5

  6

  7

 40
1.0
 41
0.1875
 42
0.0625
 43
0.38
 44
0.125
 45
0.0
 46
0.0
 47
0.01
 48
0.01
140
0.15625
141
0.09
142
0.0
143
25.3999999999999986
144
1.0
145
0.0
146
1.0
147
0.09
 71
     1
 72
     0
 73
     1
 74
     1
 75
     0
 76
     0
 77
     0
 78
     4
170
     0
171
     2
172
     0
173
     0
174
     0
175
     0
176
     0
177
     0
178
     0
  0
ENDTAB
  0
ENDSEC
  0
SECTION
  2
BLOCKS
  0
BLOCK
  8
0
  2
$MODEL_SPACE
 70
     0
 10
0.0
 20
0.0
 30
0.0
  3
$MODEL_SPACE
  1

  0
ENDBLK
  5
21
  8
0
  0
BLOCK
 67
     1
  8
0
  2
$PAPER_SPACE
 70
     0
 10
0.0
 20
0.0
 30
0.0
  3
$PAPER_SPACE
  1

  0
ENDBLK
  5
1D
 67
     1
  8
0
  0
BLOCK
  8
0
  2
_FILLED
 70
     0
 10
0.0
 20
0.0
 30
0.0
  3
_FILLED
  1

  0
SOLID
  5
6F59
  8
0
  6
BYBLOCK
 62
     0
 10
0.0
 20
0.0
 30
0.0
 11
-1.0
 21
0.1666666667
 31
0.0
 12
-1.0
 22
-0.1666666667
 32
0.0
 13
-1.0
 23
-0.1666666667
 33
0.0
  0
ENDBLK
  5
6F5A
  8
0
  6
BYBLOCK
 62
     0
  0
ENDSEC
  0
SECTION
  2
ENTITIES
  0
ATTDEF
  5
3930
  8
DEFPOINTS
 10
4254.7469666162396607
 20
215.1011703907583126
 30
0.0
 40
0.001
  1
K-16316X-4
  3

  2
MODELNUMBER
 70
     0
1001
ACDBATTR
1070
     0
1070
     1
  0
ATTDEF
  5
3931
  8
DEFPOINTS
 10
4254.7469666162396607
 20
215.0995037240917043
 30
0.0
 40
0.001
  1
JULY
  3

  2
TRADENAME
 70
     0
1001
ACDBATTR
1070
     0
1070
     1
  0
ATTDEF
  5
3932
  8
DEFPOINTS
 10
4254.7469666162396607
 20
215.0978370574250107
 30
0.0
 40
0.001
  1
VALVE TRIM
  3

  2
PRODUCT
 70
     0
1001
ACDBATTR
1070
     0
1070
     1
  0
LINE
  5
93B5
  8
0
 10
4252.5220582790570916
 20
215.0978370574250107
 30
0.0
 11
4256.9708771779578456
 21
215.0978370574250107
 31
0.0
  0
LINE
  5
93B6
  8
0
 10
4253.8100233296663646
 20
214.1778466287179867
 30
0.0
 11
4253.8100233296663646
 21
212.8839603777250034
 31
0.0
  0
ARC
  5
93B7
  8
0
 10
4254.7483135769953151
 20
220.268926913459012
 30
0.0
 40
7.4788385354075526
 50
263.060399964155522
 51
269.9858588564903243
  0
ARC
  5
93B8
  8
0
 10
4253.8495090146088842
 20
212.8840694837331
 30
0.0
 40
0.039485835682072
 50
180.1583180811938973
 51
263.0019019951312771
  0
ARC
  5
93B9
  8
0
 10
4254.7807185211304386
 20
215.9098667027722911
 30
0.0
 40
2.0648452694595818
 50
258.0384046294468021
 51
269.0495579037532821
  0
ARC
  5
93BA
  8
0
 10
4254.4844620379426487
 20
214.6544179960523877
 30
0.0
 40
0.7758213178640166
 50
220.6232788975291044
 51
260.2267590003891087
  0
ARC
  5
93BB
  8
0
 10
4253.9802524837523379
 20
214.2182347424308944
 30
0.0
 40
0.1091669732296236
 50
177.0716307348808982
 51
219.1619615915934958
  0
ARC
  5
93BC
  8
0
 10
4253.8559961948812997
 20
214.1778420985015998
 30
0.0
 40
0.0459728654397081
 50
90.9457581208105239
 51
179.9943540226884977
  0
LINE
  5
93BD
  8
0
 10
4253.8552373739566974
 20
214.2238087010250069
 30
0.0
 11
4253.9912841896139071
 21
214.2238350946402932
 31
0.0
  0
LINE
  5
93BE
  8
0
 10
4254.3527669410577801
 20
213.8898559523250071
 30
0.0
 11
4254.3527669410577801
 21
214.0230321984305988
 31
0.0
  0
LINE
  5
93BF
  8
0
 10
4254.0845172533354344
 20
214.0230321984305988
 30
0.0
 11
4255.4084182036804123
 21
214.0230321984305988
 31
0.0
  0
ARC
  5
93C0
  8
0
 10
4254.8170521029078373
 20
214.4851947155486016
 30
0.0
 40
0.8661417309361471
 50
183.4272846412756053
 51
212.2481788565299041
  0
ARC
  5
93C1
  8
0
 10
4253.8738594810802169
 20
214.4287081588790898
 30
0.0
 40
0.0787408294682014
 50
3.4271661201683279
 51
87.3917947910710637
  0
ARC
  5
93C2
  8
0
 10
4253.8810258485646045
 20
214.5860266664749929
 30
0.0
 40
0.0787408191615539
 50
181.0004520141600892
 51
267.3917947910711064
  0
LINE
  5
93C3
  8
0
 10
4253.8022970328565862
 20
214.5846518285935076
 30
0.0
 11
4253.801912121791247
 21
214.6066934036034013
 31
0.0
  0
ARC
  5
93C4
  8
0
 10
4254.7890758540652314
 20
232.7608909610302987
 30
0.0
 40
18.1985639174223692
 50
263.0046390171294206
 51
266.8914874378760942
  0
ARC
  5
93C5
  8
0
 10
4252.5770527828217382
 20
214.7192530158253021
 30
0.0
 40
0.0218949473551597
 50
179.3725076233284881
 51
258.5098206146105895
  0
LINE
  5
93C6
  8
0
 10
4252.5551591485163954
 20
214.7194928002915901
 30
0.0
 11
4252.5220582790570916
 21
215.0978370574250107
 31
0.0
  0
ARC
  5
93C7
  8
0
 10
4253.8206834938036991
 20
214.9639657041290093
 30
0.0
 40
0.3705011023046556
 50
256.099327665910323
 51
267.130390330774901
  0
ARC
  5
93C8
  8
0
 10
4254.6133381944127905
 20
189.6035088035586114
 30
0.0
 40
25.0163477033568711
 50
89.6950875272799948
 51
92.0197221277812076
  0
LINE
  5
93CC
  8
0
 10
4255.682912127347663
 20
214.1778466287179867
 30
0.0
 11
4255.682912127347663
 21
212.8839603777250034
 31
0.0
  0
ARC
  5
93CD
  8
0
 10
4254.744621880019622
 20
220.268926913459012
 30
0.0
 40
7.4788385354075526
 50
270.0141411435096757
 51
276.939600035844478
  0
ARC
  5
93CE
  8
0
 10
4255.643426442406053
 20
212.8840694837331
 30
0.0
 40
0.039485835682072
 50
276.9980980048687229
 51
359.841681918805989
  0
ARC
  5
93CF
  8
0
 10
4254.712216935883589
 20
215.9098667027722911
 30
0.0
 40
2.0648452694595818
 50
270.9504420962467179
 51
281.9615953705531979
  0
ARC
  5
93D0
  8
0
 10
4255.0084734190713789
 20
214.6544179960523877
 30
0.0
 40
0.7758213178640166
 50
279.7732409996107776
 51
319.3767211024709241
  0
ARC
  5
93D1
  8
0
 10
4255.5126829732625993
 20
214.2182347424308944
 30
0.0
 40
0.1091669732296236
 50
320.8380384084064758
 51
2.9283692651190432
  0
ARC
  5
93D2
  8
0
 10
4255.6369392621318184
 20
214.1778420985015998
 30
0.0
 40
0.0459728654397081
 50
0.0056459773114604
 51
89.0542418791894619
  0
LINE
  5
93D3
  8
0
 10
4255.6376980830573302
 20
214.2238087010250069
 30
0.0
 11
4255.5016512674001206
 21
214.2238350946402932
 31
0.0
  0
LINE
  5
93D4
  8
0
 10
4255.1401685159571571
 20
213.8898559523250071
 30
0.0
 11
4255.1401685159571571
 21
214.0230321984305988
 31
0.0
  0
ARC
  5
93D5
  8
0
 10
4254.6758833541061904
 20
214.4851947155486016
 30
0.0
 40
0.8661417309361471
 50
327.7518211434701243
 51
356.572715358724281
  0
ARC
  5
93D6
  8
0
 10
4255.6190759759347202
 20
214.4287081588790898
 30
0.0
 40
0.0787408294682014
 50
92.6082052089289505
 51
176.5728338798315917
  0
ARC
  5
93D7
  8
0
 10
4255.6119096084494231
 20
214.5860266664749929
 30
0.0
 40
0.0787408191615539
 50
272.6082052089290073
 51
358.9995479858399108
  0
LINE
  5
93D8
  8
0
 10
4255.690638424158351
 20
214.5846518285935076
 30
0.0
 11
4255.6910233352236901
 21
214.6066934036034013
 31
0.0
  0
ARC
  5
93D9
  8
0
 10
4254.7038596029487962
 20
232.7608909610302987
 30
0.0
 40
18.1985639174223692
 50
273.1085125621239058
 51
276.9953609828705794
  0
ARC
  5
93DA
  8
0
 10
4256.9158826741931989
 20
214.7192530158253021
 30
0.0
 40
0.0218949473551597
 50
281.4901793853892968
 51
0.6274923766714287
  0
LINE
  5
93DB
  8
0
 10
4256.9377763084994513
 20
214.7194928002915901
 30
0.0
 11
4256.9708771779578456
 21
215.0978370574250107
 31
0.0
  0
ARC
  5
93DC
  8
0
 10
4255.6722519632103285
 20
214.9639657041290093
 30
0.0
 40
0.3705011023046556
 50
272.8696096690844115
 51
283.900672334089677
  0
ARC
  5
93DD
  8
0
 10
4254.8795972626012372
 20
189.6035088035586114
 30
0.0
 40
25.0163477033568711
 50
87.9802778722188066
 51
90.3049124727200052
  0
LINE
  5
93E1
  8
0
 10
4252.5726913099560988
 20
214.6977968681250104
 30
0.0
 11
4256.9202441470579288
 21
214.6977968681250104
 31
0.0
  0
LINE
  5
93E2
  8
0
 10
4253.8774426650561509
 20
214.5073674178250087
 30
0.0
 11
4255.6154927919578768
 21
214.5073674178250087
 31
0.0
  0
ENDSEC
  0
EOF
