  0
SECTION
  2
HEADER
  9
$ACADVER
  1
AC1009
  9
$INSBASE
 10
3917.3171084789978522
 20
70.5085517470646579
 30
0.0
  9
$EXTMIN
 10
3911.1283360336788064
 20
62.5377996061277415
 30
0.0
  9
$EXTMAX
 10
3922.3539971618060918
 20
74.0633488276050542
 30
0.0
  9
$LIMMIN
 10
0.0
 20
0.0
  9
$LIMMAX
 10
11.6929133858000007
 20
8.2677165353999982
  9
$ORTHOMODE
 70
     0
  9
$REGENMODE
 70
     1
  9
$FILLMODE
 70
     1
  9
$QTEXTMODE
 70
     0
  9
$MIRRTEXT
 70
     0
  9
$DRAGMODE
 70
     2
  9
$LTSCALE
 40
0.6431102362
  9
$OSMODE
 70
  4095
  9
$ATTMODE
 70
     1
  9
$TEXTSIZE
 40
0.2
  9
$TRACEWID
 40
0.05
  9
$TEXTSTYLE
  7
STANDARD
  9
$CLAYER
  8
0
  9
$CELTYPE
  6
BYLAYER
  9
$CECOLOR
 62
   256
  9
$DIMSCALE
 40
1.0
  9
$DIMASZ
 40
0.1875
  9
$DIMEXO
 40
0.0625
  9
$DIMDLI
 40
0.4443307087
  9
$DIMRND
 40
0.0
  9
$DIMDLE
 40
0.0
  9
$DIMEXE
 40
0.125
  9
$DIMTP
 40
0.01
  9
$DIMTM
 40
0.01
  9
$DIMTXT
 40
2.0
  9
$DIMCEN
 40
0.1052362205
  9
$DIMTSZ
 40
0.0
  9
$DIMTOL
 70
     1
  9
$DIMLIM
 70
     0
  9
$DIMTIH
 70
     1
  9
$DIMTOH
 70
     1
  9
$DIMSE1
 70
     0
  9
$DIMSE2
 70
     0
  9
$DIMTAD
 70
     0
  9
$DIMZIN
 70
     0
  9
$DIMBLK
  1

  9
$DIMASO
 70
     1
  9
$DIMSHO
 70
     1
  9
$DIMPOST
  1
\X
  9
$DIMAPOST
  1

  9
$DIMALT
 70
     1
  9
$DIMALTD
 70
     2
  9
$DIMALTF
 40
25.3999999999999986
  9
$DIMLFAC
 40
1.0
  9
$DIMTOFL
 70
     0
  9
$DIMTVP
 40
0.0
  9
$DIMTIX
 70
     0
  9
$DIMSOXD
 70
     0
  9
$DIMSAH
 70
     0
  9
$DIMBLK1
  1

  9
$DIMBLK2
  1

  9
$DIMSTYLE
  2
STANDARD
  9
$DIMCLRD
 70
     0
  9
$DIMCLRE
 70
     0
  9
$DIMCLRT
 70
     0
  9
$DIMTFAC
 40
1.0
  9
$DIMGAP
 40
0.09
  9
$LUNITS
 70
     2
  9
$LUPREC
 70
     4
  9
$SKETCHINC
 40
0.1
  9
$FILLETRAD
 40
0.0
  9
$AUNITS
 70
     0
  9
$AUPREC
 70
     0
  9
$MENU
  1
.
  9
$ELEVATION
 40
0.0
  9
$PELEVATION
 40
0.0
  9
$THICKNESS
 40
0.0
  9
$LIMCHECK
 70
     0
  9
$BLIPMODE
 70
     0
  9
$CHAMFERA
 40
0.0
  9
$CHAMFERB
 40
0.0
  9
$SKPOLY
 70
     0
  9
$TDCREATE
 40
2458060.468368056230247
  9
$TDUPDATE
 40
2459086.0208449079655111
  9
$TDINDWG
 40
0.4092778935
  9
$TDUSRTIMER
 40
0.4092778935
  9
$USRTIMER
 70
     1
  9
$ANGBASE
 50
0.0
  9
$ANGDIR
 70
     0
  9
$PDMODE
 70
     0
  9
$PDSIZE
 40
0.3125
  9
$PLINEWID
 40
0.0
  9
$COORDS
 70
     1
  9
$SPLFRAME
 70
     0
  9
$SPLINETYPE
 70
     6
  9
$SPLINESEGS
 70
     8
  9
$ATTDIA
 70
     1
  9
$ATTREQ
 70
     1
  9
$HANDLING
 70
     1
  9
$HANDSEED
  5
730F
  9
$SURFTAB1
 70
     6
  9
$SURFTAB2
 70
     6
  9
$SURFTYPE
 70
     6
  9
$SURFU
 70
     6
  9
$SURFV
 70
     6
  9
$UCSNAME
  2

  9
$UCSORG
 10
0.0
 20
0.0
 30
0.0
  9
$UCSXDIR
 10
1.0
 20
0.0
 30
0.0
  9
$UCSYDIR
 10
0.0
 20
1.0
 30
0.0
  9
$PUCSNAME
  2

  9
$PUCSORG
 10
0.0
 20
0.0
 30
0.0
  9
$PUCSXDIR
 10
1.0
 20
0.0
 30
0.0
  9
$PUCSYDIR
 10
0.0
 20
1.0
 30
0.0
  9
$USERI1
 70
     0
  9
$USERI2
 70
     0
  9
$USERI3
 70
     0
  9
$USERI4
 70
     0
  9
$USERI5
 70
     0
  9
$USERR1
 40
0.0
  9
$USERR2
 40
0.0
  9
$USERR3
 40
0.0
  9
$USERR4
 40
0.0
  9
$USERR5
 40
0.0
  9
$WORLDVIEW
 70
     1
  9
$SHADEDGE
 70
     3
  9
$SHADEDIF
 70
    70
  9
$TILEMODE
 70
     1
  9
$MAXACTVP
 70
    64
  9
$PLIMCHECK
 70
     0
  9
$PEXTMIN
 10
1.0000000000000000E+20
 20
1.0000000000000000E+20
 30
1.0000000000000000E+20
  9
$PEXTMAX
 10
-1.0000000000000000E+20
 20
-1.0000000000000000E+20
 30
-1.0000000000000000E+20
  9
$PLIMMIN
 10
0.0
 20
0.0
  9
$PLIMMAX
 10
12.0
 20
9.0
  9
$UNITMODE
 70
     0
  9
$VISRETAIN
 70
     1
  9
$PLINEGEN
 70
     0
  9
$PSLTSCALE
 70
     1
  0
ENDSEC
  0
SECTION
  2
TABLES
  0
TABLE
  2
VPORT
 70
     1
  0
VPORT
  2
*ACTIVE
 70
     0
 10
0.0
 20
0.0
 11
1.0
 21
1.0
 12
131.2212296733760866
 22
-48.587769369792781
 13
0.0
 23
0.0
 14
1.0
 24
1.0
 15
0.0
 25
0.0
 16
0.0
 26
0.0
 36
5.1040778033513332
 17
3792.35791015625
 27
120.1806564331053977
 37
0.0
 40
21.1713452269893594
 41
2.005224660397074
 42
50.0
 43
0.0
 44
0.0
 50
0.0
 51
0.0
 71
     0
 72
   100
 73
     1
 74
     1
 75
     0
 76
     0
 77
     0
 78
     0
  0
ENDTAB
  0
TABLE
  2
LTYPE
 70
     2
  0
LTYPE
  2
CONTINUOUS
 70
     0
  3
Solid line
 72
    65
 73
     0
 40
0.0
  0
LTYPE
  2
PHANTOM2
 70
     0
  3
___ _ _ ___ _ _ ___ _ _ ___ _ _
 72
    65
 73
     6
 40
1.25
 49
0.625
 49
-0.125
 49
0.125
 49
-0.125
 49
0.125
 49
-0.125
  0
ENDTAB
  0
TABLE
  2
LAYER
 70
     2
  0
LAYER
  2
0
 70
     0
 62
   255
  6
CONTINUOUS
  0
LAYER
  2
DEFPOINTS
 70
     0
 62
     7
  6
CONTINUOUS
  0
ENDTAB
  0
TABLE
  2
STYLE
 70
     1
  0
STYLE
  2
STANDARD
 70
     0
 40
0.0
 41
0.8
 50
0.0
 71
     0
 42
0.2
  3
txt
  4

  0
ENDTAB
  0
TABLE
  2
VIEW
 70
     0
  0
ENDTAB
  0
TABLE
  2
UCS
 70
     0
  0
ENDTAB
  0
TABLE
  2
APPID
 70
     9
  0
APPID
  2
ACAD
 70
     0
  0
APPID
  2
ACAD_MLEADERVER
 70
     0
  0
APPID
  2
ACAD_EXEMPT_FROM_CAD_STANDARDS
 70
     0
  0
APPID
  2
ACAD_NAV_VCDISPLAY
 70
     0
  0
APPID
  2
ACAECLAYERSTANDARD
 70
     0
  0
APPID
  2
ACCMTRANSPARENCY
 70
     0
  0
APPID
  2
ACAD_DSTYLE_DIMJAG
 70
     0
  0
APPID
  2
ACAD_DSTYLE_DIMTALN
 70
     0
  0
APPID
  2
ACDBATTR
 70
     0
  0
ENDTAB
  0
TABLE
  2
DIMSTYLE
 70
     1
  0
DIMSTYLE
  2
STANDARD
 70
     0
  3

  4

  5

  6

  7

 40
1.0
 41
0.1875
 42
0.0625
 43
0.38
 44
0.125
 45
0.0
 46
0.0
 47
0.01
 48
0.01
140
0.15625
141
0.09
142
0.0
143
25.3999999999999986
144
1.0
145
0.0
146
1.0
147
0.09
 71
     1
 72
     0
 73
     1
 74
     1
 75
     0
 76
     0
 77
     0
 78
     4
170
     0
171
     2
172
     0
173
     0
174
     0
175
     0
176
     0
177
     0
178
     0
  0
ENDTAB
  0
ENDSEC
  0
SECTION
  2
BLOCKS
  0
BLOCK
  8
0
  2
$MODEL_SPACE
 70
     0
 10
0.0
 20
0.0
 30
0.0
  3
$MODEL_SPACE
  1

  0
ENDBLK
  5
21
  8
0
  0
BLOCK
 67
     1
  8
0
  2
$PAPER_SPACE
 70
     0
 10
0.0
 20
0.0
 30
0.0
  3
$PAPER_SPACE
  1

  0
ENDBLK
  5
1D
 67
     1
  8
0
  0
BLOCK
  8
0
  2
_FILLED
 70
     0
 10
0.0
 20
0.0
 30
0.0
  3
_FILLED
  1

  0
SOLID
  5
69B4
  8
0
  6
BYBLOCK
 62
     0
 10
0.0
 20
0.0
 30
0.0
 11
-1.0
 21
0.1666666667
 31
0.0
 12
-1.0
 22
-0.1666666667
 32
0.0
 13
-1.0
 23
-0.1666666667
 33
0.0
  0
ENDBLK
  5
69B5
  8
0
  6
BYBLOCK
 62
     0
  0
BLOCK
  8
0
  2
A$CDFAF6206
 70
     0
 10
0.0
 20
0.0
 30
0.0
  3
A$CDFAF6206
  1

  0
LINE
  5
6A0E
  8
0
 10
7.4646650085734834
 20
10.9287685970688493
 30
0.0
 11
7.4646650085734896
 21
10.8905784766688498
 31
0.0
  0
ARC
  5
6A0F
  8
0
 10
7.7269027075262349
 20
10.8926811525838598
 30
0.0
 40
0.2622461286616791
 50
180.4593995232625048
 51
217.0214027758331099
  0
LINE
  5
6A10
  8
0
 10
9.767814609867095
 20
10.9287685970688493
 30
0.0
 11
9.767814609867095
 21
10.8905433757650094
 31
0.0
  0
ARC
  5
6A11
  8
0
 10
9.5068669568548287
 20
10.8922438613003703
 30
0.0
 40
0.2609531936261092
 50
322.8847083717149076
 51
359.6266329125650145
  0
LINE
  5
6A12
  8
0
 10
7.517522606271406
 20
10.7347792678688396
 30
0.0
 11
9.7149570120691777
 21
10.7347792678688396
 31
0.0
  0
LINE
  5
6A13
  8
0
 10
7.4646650085734834
 20
10.9287685970688493
 30
0.0
 11
9.7678146123202936
 21
10.9287685970688493
 31
0.0
  0
ARC
  5
6A14
  8
0
 10
4.0826771419203629
 20
8.527951346868889
 30
0.0
 40
4.0826771653999172
 50
13.3117747050523896
 51
32.7200330051415591
  0
ARC
  5
6A15
  8
0
 10
4.0826771460567306
 20
8.5279513475907933
 30
0.0
 40
4.0826771612084691
 50
359.6656501984817851
 51
13.3117747085593798
  0
ARC
  5
6A16
  8
0
 10
13.1498041284835097
 20
8.5279508235212234
 30
0.0
 40
4.0826788382043553
 50
147.2799733478981068
 51
166.6882233021349862
  0
ARC
  5
6A17
  8
0
 10
13.1498064934207992
 20
8.5279506557033251
 30
0.0
 40
4.0826811782395342
 50
166.688228652086309
 51
180.3343397625230011
  0
LINE
  5
6A18
  8
0
 10
8.1652847935202928
 20
8.504127000268852
 30
0.0
 11
9.0671948248202892
 21
8.5041270002687881
 31
0.0
  0
LINE
  5
6A19
  8
0
 10
8.1652847935202786
 20
8.5041270002667204
 30
0.0
 11
8.1652847935202928
 21
8.3607006934688481
 31
0.0
  0
ARC
  5
6A1A
  8
0
 10
5.6196779630382627
 20
8.3631022096452732
 30
0.0
 40
2.545607963272567
 50
342.0511668832173768
 51
359.945947387132378
  0
LINE
  5
6A1B
  8
0
 10
9.0671948248202892
 20
8.5041270002687881
 30
0.0
 11
9.0671948248202892
 21
8.2885990108688503
 31
0.0
  0
ARC
  5
6A1C
  8
0
 10
9.4521885297801163
 20
7.9614488056228501
 30
0.0
 40
0.5052201595850959
 50
139.6436242991769916
 51
174.6757930071850069
  0
ARC
  5
6A1D
  8
0
 10
9.9238413395551746
 20
8.1492417579399508
 30
0.0
 40
0.9848265662939324
 50
188.2263441834095943
 51
209.5593615864376034
  0
ARC
  5
6A1E
  8
0
 10
8.0788764238271256
 20
7.5665710856463297
 30
0.0
 40
0.0393715937169877
 50
162.1669117288323037
 51
227.2023190037006088
  0
ARC
  5
6A1F
  8
0
 10
8.7223682141740682
 20
8.2079667397440517
 30
0.0
 40
0.947895137885075
 50
225.0018610752970858
 51
261.4598823366255829
  0
ARC
  5
6A20
  8
0
 10
8.6645157662702701
 20
8.1695128573935332
 30
0.0
 40
0.9027466462812931
 50
264.7303071214498118
 51
281.8608311947915013
  0
ARC
  5
6A21
  8
0
 10
8.6645157662698935
 20
8.1695128573999671
 30
0.0
 40
0.9027466462876658
 50
299.1741886792128753
 51
299.1743179154552195
  0
ARC
  5
6A22
  8
0
 10
9.0843330931590316
 20
7.4150554710086141
 30
0.0
 40
0.0393703053609601
 50
251.9700352025496954
 51
252.4698971938937859
  0
ARC
  5
6A23
  8
0
 10
9.0843330931590316
 20
7.4150554710086141
 30
0.0
 40
0.0393703053609601
 50
297.2453716727138726
 51
6.8376113572703074
  0
LINE
  5
6A24
  8
0
 10
9.0671948248202892
 20
7.663402160468852
 30
0.0
 11
9.1234233799329516
 21
7.419742732911689
 31
0.0
  0
ARC
  5
6A25
  8
0
 10
8.8843741880892395
 20
9.8961379890094676
 30
0.0
 40
2.5255097382132701
 50
263.792800240752797
 51
274.9514951129821156
  0
ARC
  5
6A26
  8
0
 10
8.8258167405968848
 20
9.2763025889666508
 30
0.0
 40
1.9029970832759311
 50
246.0108363320686067
 51
263.5276935074397215
  0
ARC
  5
6A27
  8
0
 10
8.607491361665744
 20
8.3225444804829642
 30
0.0
 40
1.064510137163637
 50
283.1717405874071005
 51
297.7022170607311864
  0
LINE
  5
6A28
  8
0
 10
9.0671948248202892
 20
8.2885990108688503
 30
0.0
 11
26.2014378595979593
 21
8.2885990108689942
 31
0.0
  0
LINE
  5
6A29
  8
0
 10
26.2014378595979913
 20
7.6634021604689053
 30
0.0
 11
9.0671948248202892
 21
7.6634021604688618
 31
0.0
  0
LINE
  5
6A2A
  8
0
 10
27.8039676758446994
 20
10.9287685970690802
 30
0.0
 11
27.8039676758446888
 21
10.8905784766690807
 31
0.0
  0
ARC
  5
6A2B
  8
0
 10
27.5417299768919399
 20
10.8926811525840801
 30
0.0
 40
0.2622461286616791
 50
322.9785972241680838
 51
359.5406004767386889
  0
LINE
  5
6A2C
  8
0
 10
25.5008180745510913
 20
10.9287685970690305
 30
0.0
 11
25.5008180745510913
 21
10.8905433757651799
 31
0.0
  0
ARC
  5
6A2D
  8
0
 10
25.7617657275633505
 20
10.8922438613005497
 30
0.0
 40
0.2609531936261092
 50
180.3733670874362929
 51
217.1152916282862861
  0
LINE
  5
6A2E
  8
0
 10
27.7511100781467803
 20
10.7347792678690706
 30
0.0
 11
25.5536756723490015
 21
10.7347792678690208
 31
0.0
  0
LINE
  5
6A2F
  8
0
 10
27.8039676758446888
 20
10.9287685970686006
 30
0.0
 11
25.5008180745510806
 21
10.9287685970686006
 31
0.0
  0
ARC
  5
6A30
  8
0
 10
31.1859555424978616
 20
8.5279513468691981
 30
0.0
 40
4.0826771653999172
 50
147.2799669948597057
 51
166.6882252949490066
  0
ARC
  5
6A31
  8
0
 10
31.185955538361501
 20
8.5279513475911024
 30
0.0
 40
4.0826771612084691
 50
166.6882252914419098
 51
180.3343498015194086
  0
ARC
  5
6A32
  8
0
 10
22.1188285559344706
 20
8.5279508235212251
 30
0.0
 40
4.0826788382046102
 50
13.3117766978667795
 51
32.7200266521023977
  0
ARC
  5
6A33
  8
0
 10
22.1188261909974315
 20
8.5279506557034264
 30
0.0
 40
4.0826811782395342
 50
359.665660237478221
 51
13.31177134791497
  0
LINE
  5
6A34
  8
0
 10
27.1033478908979397
 20
8.5041270002690652
 30
0.0
 11
26.2014378595979416
 21
8.5041270002689835
 31
0.0
  0
LINE
  5
6A35
  8
0
 10
27.1033478908979504
 20
8.5041270002669354
 30
0.0
 11
27.1033478908979397
 21
8.3607006934690649
 31
0.0
  0
ARC
  5
6A36
  8
0
 10
29.6489547213799689
 20
8.3631022096455467
 30
0.0
 40
2.545607963272567
 50
180.0540526128687873
 51
197.9488331167837032
  0
LINE
  5
6A37
  8
0
 10
26.2014378595979416
 20
8.5041270002689835
 30
0.0
 11
26.2014378595979487
 21
8.2885990108690457
 31
0.0
  0
ARC
  5
6A38
  8
0
 10
25.8164441546381305
 20
7.9614488056230366
 30
0.0
 40
0.5052201595850959
 50
5.324206992816312
 51
40.3563757008241879
  0
ARC
  5
6A39
  8
0
 10
25.3447913448601803
 20
8.149241757940846
 30
0.0
 40
0.9848265662968968
 50
330.4406384136033807
 51
351.7736558165743759
  0
ARC
  5
6A3A
  8
0
 10
27.1897562605911212
 20
7.5665710856465473
 30
0.0
 40
0.0393715937169877
 50
312.7976809963004143
 51
17.8330882711689185
  0
ARC
  5
6A3B
  8
0
 10
26.5462644702441715
 20
8.2079667397442542
 30
0.0
 40
0.947895137885075
 50
278.5401176633754972
 51
314.9981389247041079
  0
ARC
  5
6A3C
  8
0
 10
26.6041169181479695
 20
8.1695128573937392
 30
0.0
 40
0.9027466462812931
 50
258.139168805210204
 51
275.2696928785518935
  0
ARC
  5
6A3D
  8
0
 10
26.6041169181483497
 20
8.1695128574001732
 30
0.0
 40
0.9027466462876658
 50
240.8256820845460027
 51
240.8258113207880058
  0
ARC
  5
6A3E
  8
0
 10
26.1842995912592293
 20
7.4150554710088086
 30
0.0
 40
0.0393703053609601
 50
287.5301028061073794
 51
288.0299647974517825
  0
ARC
  5
6A3F
  8
0
 10
26.1842995912592293
 20
7.4150554710088086
 30
0.0
 40
0.0393703053609601
 50
173.1623886427310026
 51
242.7546283272870085
  0
LINE
  5
6A40
  8
0
 10
26.2014378595981192
 20
7.6634021604690448
 30
0.0
 11
26.1452093044853093
 21
7.4197427329118826
 31
0.0
  0
ARC
  5
6A41
  8
0
 10
26.384258496328961
 20
9.8961379890096666
 30
0.0
 40
2.5255097382132701
 50
265.0485048870193054
 51
276.2071997592482262
  0
ARC
  5
6A42
  8
0
 10
26.4428159438213299
 20
9.2763025889668516
 30
0.0
 40
1.9029970832759311
 50
276.4723064925619838
 51
293.9891636679327007
  0
ARC
  5
6A43
  8
0
 10
26.6611413227524885
 20
8.3225444804831703
 30
0.0
 40
1.064510137163637
 50
242.2977829392704052
 51
256.8282594125943774
  0
LINE
  5
6A44
  8
0
 62
     4
 10
17.9031473532159602
 20
10.9287685970686006
 30
0.0
 11
24.6329820359843588
 21
20.0952817181593808
 31
0.0
  0
LINE
  5
6A45
  8
0
 62
     4
 10
17.9031473532159602
 20
-0.0000000300842942
 30
0.0
 11
22.3963351323106608
 21
4.993614497796286
 31
0.0
  0
ENDBLK
  5
6A49
  8
0
  0
ENDSEC
  0
SECTION
  2
ENTITIES
  0
ATTDEF
  5
3930
  8
DEFPOINTS
 10
3917.3172026969450599
 20
70.5102779520664456
 30
0.0
 40
0.001
  1
K-16148T
  3

  2
MODELNUMBER
 70
     0
1001
ACDBATTR
1070
     0
1070
     1
  0
ATTDEF
  5
3931
  8
DEFPOINTS
 10
3917.3172026969450599
 20
70.5086112853997804
 30
0.0
 40
0.001
  1
REVIVAL
  3

  2
TRADENAME
 70
     0
1001
ACDBATTR
1070
     0
1070
     1
  0
ATTDEF
  5
3932
  8
DEFPOINTS
 10
3917.3172026969450599
 20
70.5069446187331152
 30
0.0
 40
0.001
  1
TOWEL BAR
  3

  2
PRODUCT
 70
     0
1001
ACDBATTR
1070
     0
1070
     1
  0
ARC
  5
7241
  8
0
 10
3914.4050497208349952
 20
70.7841907151332208
 30
0.0
 40
0.0199999817834317
 50
216.813702009098705
 51
284.1502810214988131
  0
ARC
  5
7242
  8
0
 10
3914.0369113700307935
 20
70.5089588650329233
 30
0.0
 40
0.4396503411914284
 50
36.7815509567995065
 51
90.0172185503321174
  0
ARC
  5
7243
  8
0
 10
3914.0365043893611983
 20
70.5092129898661284
 30
0.0
 40
0.4393962824712315
 50
89.9641596095344056
 51
180.0745665005223941
  0
ARC
  5
7244
  8
0
 10
3914.0365895522331812
 20
70.5080905673602558
 30
0.0
 40
0.439481418116037
 50
179.9282202944403934
 51
270.0247306503874256
  0
ARC
  5
7245
  8
0
 10
3914.4048984923178978
 20
70.2333394103028468
 30
0.0
 40
0.0196248701149646
 50
75.1170768176822037
 51
143.9188496185140025
  0
ARC
  5
7246
  8
0
 10
3914.0366468532361068
 20
70.5089596586860523
 30
0.0
 40
0.4403504884051126
 50
270.0172261770262025
 51
323.1541256564888727
  0
LINE
  5
7247
  8
0
 10
3914.4099390373389724
 20
70.7647975757415395
 30
0.0
 11
3914.4099390373389724
 21
70.6527725512893738
 31
0.0
  0
LINE
  5
7248
  8
0
 10
3914.4099390373389724
 20
70.3644954144028532
 30
0.0
 11
3914.4099390373921779
 21
70.2523059184799195
 31
0.0
  0
ARC
  5
7249
  8
0
 10
3914.0363294974658857
 20
70.5086339828460211
 30
0.0
 40
0.4004497661333956
 50
338.903384509737009
 51
21.0966154902967098
  0
ARC
  5
724A
  8
0
 10
3914.0367792461520366
 20
70.5086091846257546
 30
0.0
 40
0.3400000048514826
 50
359.9999997956322773
 51
180.0096792053084016
  0
ARC
  5
724B
  8
0
 10
3914.036779246138849
 20
70.5086339828460353
 30
0.0
 40
0.3048263065999956
 50
180.0077382765917093
 51
359.9922810700933269
  0
ARC
  5
724C
  8
0
 10
3914.0368215750049785
 20
70.5086515153008406
 30
0.0
 40
0.4000725239619832
 50
180.0025108839163011
 51
269.9939379376904753
  0
ARC
  5
724D
  8
0
 10
3914.0369427568289211
 20
70.5084758985180144
 30
0.0
 40
0.4001635178644066
 50
90.0234116112067113
 51
179.989139935459292
  0
ARC
  5
724E
  8
0
 10
3914.0365207899831148
 20
70.508218283326201
 30
0.0
 40
0.4004211830618481
 50
21.1619629105930294
 51
89.9630178208188624
  0
ARC
  5
724F
  8
0
 10
3914.037184979821177
 20
70.5080036115167559
 30
0.0
 40
0.3994248240097589
 50
269.9417992338508157
 51
338.9435775424598205
  0
ARC
  5
7250
  8
0
 10
3917.2569701746019746
 20
71.5986912704746601
 30
0.0
 40
0.0598617230156327
 50
89.8676098531317962
 51
180.054831971414302
  0
ARC
  5
7251
  8
0
 10
3917.2572467834761483
 20
71.5986912704886009
 30
0.0
 40
0.059861722934365
 50
359.9451680151610731
 51
90.1323622587653546
  0
ARC
  5
7252
  8
0
 10
3916.8494741415511271
 20
71.3438046992391293
 30
0.0
 40
0.0149999999729648
 50
199.7019329511701073
 51
271.7613145414758264
  0
ARC
  5
7253
  8
0
 10
3916.8382555385978776
 20
71.7086322516080372
 30
0.0
 40
0.3799999999999766
 50
271.7613146509850139
 51
286.1530948817330113
  0
ARC
  5
7254
  8
0
 10
3916.8382555385978776
 20
71.708632251608023
 30
0.0
 40
0.3799999999999399
 50
286.1530948817077729
 51
307.8640716802393058
  0
ARC
  5
7255
  8
0
 10
3916.8382555384878287
 20
71.708632251714306
 30
0.0
 40
0.3800000001516206
 50
307.86407168354242
 51
340.7953789212735956
  0
ARC
  5
7256
  8
0
 10
3916.8071084790321947
 20
71.3286339827964468
 30
0.0
 40
0.0300000001116234
 50
90.000000065763075
 51
153.3790100020603973
  0
ARC
  5
7257
  8
0
 10
3916.8071084789980887
 20
71.3286339829080731
 30
0.0
 40
0.0299999999999997
 50
19.7019338420381906
 51
90.0
  0
ARC
  5
7258
  8
0
 10
3916.7668789224021566
 20
71.3487978811139101
 30
0.0
 40
0.0150000001333886
 50
248.8839975515674041
 51
333.3790098388420802
  0
ARC
  5
7259
  8
0
 10
3916.358075781898151
 20
70.2899754255081035
 30
0.0
 40
1.119999999999941
 50
68.8888763739627024
 51
77.9055271046532454
  0
ARC
  5
725A
  8
0
 10
3916.3580757836521116
 20
70.2899754357673174
 30
0.0
 40
1.119999989600811
 50
77.905525374917957
 51
86.9222411979463487
  0
ARC
  5
725B
  8
0
 10
3916.4087075013808317
 20
71.1743671451049948
 30
0.0
 40
0.2341856449107243
 50
87.6745027716428353
 51
90.1709974448859555
  0
ARC
  5
725C
  8
0
 10
3916.4153543020738653
 20
71.1547617502909731
 30
0.0
 40
0.2538962820812504
 50
91.6579110563728676
 51
102.0676399878319955
  0
ARC
  5
725D
  8
0
 10
3916.408008574897849
 20
71.2186339829080453
 30
0.0
 40
0.1900000000000093
 50
103.9286123964248958
 51
128.1454448382069984
  0
ARC
  5
725E
  8
0
 10
3916.408008574897849
 20
71.2186339829079031
 30
0.0
 40
0.1900000000002165
 50
128.1454448382110058
 51
139.6718171874798884
  0
ARC
  5
725F
  8
0
 10
3916.2517268058891204
 20
71.3513027761014342
 30
0.0
 40
0.0150000000936293
 50
236.8334970416252077
 51
319.6718168782372231
  0
ARC
  5
7260
  8
0
 10
3916.2271084787012114
 20
71.3136339822683851
 30
0.0
 40
0.0300000006977342
 50
56.8334971916517304
 51
89.9999994335359759
  0
ARC
  5
7261
  8
0
 10
3916.227108479115941
 20
71.313633982835583
 30
0.0
 40
0.0300000001305341
 50
90.0000002252984785
 51
167.9040698777363048
  0
ARC
  5
7262
  8
0
 10
3916.1831075634531771
 20
71.3230636925449915
 30
0.0
 40
0.014999999918365
 50
298.6699547056688857
 51
347.904070457955811
  0
ARC
  5
7263
  8
0
 10
3914.6310727941149707
 20
74.1614458166307458
 30
0.0
 40
3.2500000009931642
 50
274.0440930403772199
 51
298.669953865184425
  0
ARC
  5
7264
  8
0
 10
3914.8592184101148632
 20
70.9345007311963798
 30
0.0
 40
0.0149999999995965
 50
200.6460827611583113
 51
274.044092947885872
  0
ARC
  5
7265
  8
0
 10
3914.8171660019579576
 20
70.9186788998160154
 30
0.0
 40
0.0299303418319636
 50
20.6044471082149201
 51
90.1101165136479381
  0
ARC
  5
7266
  8
0
 10
3914.8170661908720831
 20
70.9186514992234152
 30
0.0
 40
0.0299577169948229
 50
89.919121608842886
 51
180.0335009172891887
  0
ARC
  5
7267
  8
0
 10
3914.7721414028828804
 20
70.9169129184798237
 30
0.0
 40
0.0149999999131642
 50
297.0746762265861776
 51
356.2031237981724985
  0
ARC
  5
7268
  8
0
 10
3913.9824763612000424
 20
72.4617300767034465
 30
0.0
 40
1.7499440711955929
 50
284.138826695672492
 51
297.0747796413796209
  0
ARC
  5
7269
  8
0
 10
3917.2572509323340455
 20
69.418692961681856
 30
0.0
 40
0.0601424699125969
 50
180.0425388714768928
 51
269.8643031810692037
  0
ARC
  5
726A
  8
0
 10
3917.2569660257868236
 20
69.4186929614865846
 30
0.0
 40
0.060142469786555
 50
270.135724657897299
 51
359.9574613144512227
  0
ARC
  5
726B
  8
0
 10
3916.8502366744341998
 20
69.6803817591448933
 30
0.0
 40
0.0157284190673275
 50
91.0983568498850502
 51
161.1449622874351917
  0
ARC
  5
726C
  8
0
 10
3916.849792465057817
 20
69.4302868213894442
 30
0.0
 40
0.265820505229363
 50
70.3850973313661257
 51
89.9692387759693872
  0
ARC
  5
726D
  8
0
 10
3916.7289962769800695
 20
69.1367117060606233
 30
0.0
 40
0.5831094125291387
 50
54.0295746363384026
 51
68.8880248546339971
  0
ARC
  5
726E
  8
0
 10
3916.8382555392067843
 20
69.3086357147660408
 30
0.0
 40
0.3799999992556018
 50
19.2046210207734482
 51
52.1359283392280801
  0
ARC
  5
726F
  8
0
 10
3916.8040984634299093
 20
69.6905499176457965
 30
0.0
 40
0.0271491221289341
 50
208.71783537829441
 51
274.8904139303656962
  0
ARC
  5
7270
  8
0
 10
3916.8043301175757733
 20
69.6962902651784901
 30
0.0
 40
0.0328567173982606
 50
273.6344639778761803
 51
340.7630701324367237
  0
ARC
  5
7271
  8
0
 10
3916.7684147523627871
 20
69.6706219563981222
 30
0.0
 40
0.0137246768557569
 50
30.09917881883948
 51
120.373579167901795
  0
ARC
  5
7272
  8
0
 10
3916.3580757818849634
 20
70.7272925403178334
 30
0.0
 40
1.120000000000366
 50
282.0944728985709276
 51
291.1111236292501872
  0
ARC
  5
7273
  8
0
 10
3916.3580757836398334
 20
70.7272925300582642
 30
0.0
 40
1.119999989600811
 50
273.0777588052629881
 51
282.0944746283058748
  0
ARC
  5
7274
  8
0
 10
3916.3965374077761226
 20
70.0832098199756643
 30
0.0
 40
0.4747966659910088
 50
271.3844113075411997
 51
272.6162255509241277
  0
ARC
  5
7275
  8
0
 10
3916.4090512642078465
 20
69.8042893190767586
 30
0.0
 40
0.1957403491406377
 50
256.1736268651009141
 51
269.6947919706666994
  0
ARC
  5
7276
  8
0
 10
3916.4080085749378668
 20
69.7986339829203075
 30
0.0
 40
0.1900000000000093
 50
231.8545551650084917
 51
256.0713876067961792
  0
ARC
  5
7277
  8
0
 10
3916.4080085749378668
 20
69.7986339829204496
 30
0.0
 40
0.1900000000002165
 50
220.3281828157396092
 51
231.854555165004399
  0
ARC
  5
7278
  8
0
 10
3916.251726806014176
 20
69.6659651898587953
 30
0.0
 40
0.0149999999432309
 50
40.32818290781222
 51
123.166503905132501
  0
ARC
  5
7279
  8
0
 10
3916.2264280365529885
 20
69.705101555220466
 30
0.0
 40
0.0316015951139439
 50
271.2337825350867888
 51
302.7435419096241276
  0
ARC
  5
727A
  8
0
 10
3916.22736788145221
 20
69.7037933932840588
 30
0.0
 40
0.0302872175958558
 50
192.2879674186148122
 51
269.5092700468931071
  0
ARC
  5
727B
  8
0
 10
3916.1831075634431727
 20
69.6942042732076743
 30
0.0
 40
0.0150000000000067
 50
12.09593207135139
 51
61.3300452294778466
  0
ARC
  5
727C
  8
0
 10
3914.6310727943200618
 20
66.8558221490978042
 30
0.0
 40
3.2500000009931642
 50
61.3300461380483171
 51
85.9559069628355985
  0
ARC
  5
727D
  8
0
 10
3914.8592184101389648
 20
70.0827672345449741
 30
0.0
 40
0.0149999999995965
 50
85.9559070553269606
 51
159.3539172420558998
  0
ARC
  5
727E
  8
0
 10
3914.8170507445861404
 20
70.0986790648687617
 30
0.0
 40
0.0300699301109106
 50
270.1100082891966849
 51
339.3123219539630213
  0
ARC
  5
727F
  8
0
 10
3914.8171508449640896
 20
70.0986515313791188
 30
0.0
 40
0.0300423710683561
 50
180.0334679942451999
 51
269.9192011031743732
  0
ARC
  5
7280
  8
0
 10
3914.7721414029060725
 20
70.1003550472566417
 30
0.0
 40
0.0149999999131642
 50
3.796876205047278
 51
62.9253237766326592
  0
ARC
  5
7281
  8
0
 10
3913.9875103776389551
 20
68.5669280661380753
 30
0.0
 40
1.7375110007553041
 50
62.9020740471004629
 51
75.9290717749682926
  0
LINE
  5
7282
  8
0
 10
3917.3171084789978522
 20
71.5986339829080691
 30
0.0
 11
3917.3171084789978522
 21
69.4186483093080824
 31
0.0
  0
LINE
  5
7283
  8
0
 10
3917.1971084789979614
 20
71.5986339829080691
 30
0.0
 11
3917.1971084789979614
 21
69.4186483093080824
 31
0.0
  0
LINE
  5
7284
  8
0
 10
3914.8451817664090413
 20
70.9292118151001034
 30
0.0
 11
3914.8451817663981274
 21
70.0880561506841673
 31
0.0
  0
LINE
  5
7285
  8
0
 10
3914.7871084790199347
 20
70.0986339828292415
 30
0.0
 11
3914.7871084789981069
 21
70.9186339829064991
 31
0.0
  0
LINE
  5
7286
  8
0
 10
3916.1977745351978228
 20
69.6973475103225155
 30
0.0
 11
3916.1977745352660349
 21
71.3199204560947351
 31
0.0
  0
LINE
  5
7287
  8
0
 10
3916.243520696898031
 20
71.3387465116080648
 30
0.0
 11
3916.243520696898031
 21
69.6785214540907134
 31
0.0
  0
LINE
  5
7288
  8
0
 10
3916.7802887746970555
 20
69.6775048590080672
 30
0.0
 11
3916.7802887746579472
 21
71.3420765816515825
 31
0.0
  0
LINE
  5
7289
  8
0
 10
3916.8353522540501217
 20
71.3387477938015167
 30
0.0
 11
3916.835352254002828
 21
69.6854647892245538
 31
0.0
  0
ARC
  5
728A
  8
0
 10
3914.0367792563988587
 20
70.5084878650882843
 30
0.0
 40
0.3400000162485
 50
179.9892348015285108
 51
0.0204441994120946
  0
ARC
  5
728B
  8
0
 10
3914.0367792457677751
 20
70.5108313619979583
 30
0.0
 40
0.3048345229361737
 50
359.5792647247246805
 51
180.4207546219602136
  0
ENDSEC
  0
EOF
