  0
SECTION
  2
HEADER
  9
$ACADVER
  1
AC1009
  9
$INSBASE
 10
3943.6804159853318197
 20
92.5507400649377985
 30
0.0
  9
$EXTMIN
 10
3904.6610261342989361
 20
85.4138222354785199
 30
0.0
  9
$EXTMAX
 10
3954.100415995529147
 20
105.8138119588325026
 30
0.0
  9
$LIMMIN
 10
0.0
 20
0.0
  9
$LIMMAX
 10
11.6929133858000007
 20
8.2677165353999982
  9
$ORTHOMODE
 70
     0
  9
$REGENMODE
 70
     1
  9
$FILLMODE
 70
     1
  9
$QTEXTMODE
 70
     0
  9
$MIRRTEXT
 70
     0
  9
$DRAGMODE
 70
     2
  9
$LTSCALE
 40
0.6431102362
  9
$OSMODE
 70
  4095
  9
$ATTMODE
 70
     1
  9
$TEXTSIZE
 40
0.2
  9
$TRACEWID
 40
0.05
  9
$TEXTSTYLE
  7
STANDARD
  9
$CLAYER
  8
0
  9
$CELTYPE
  6
BYLAYER
  9
$CECOLOR
 62
   256
  9
$DIMSCALE
 40
1.0
  9
$DIMASZ
 40
0.1875
  9
$DIMEXO
 40
0.0625
  9
$DIMDLI
 40
0.4443307087
  9
$DIMRND
 40
0.0
  9
$DIMDLE
 40
0.0
  9
$DIMEXE
 40
0.125
  9
$DIMTP
 40
0.01
  9
$DIMTM
 40
0.01
  9
$DIMTXT
 40
2.0
  9
$DIMCEN
 40
0.1052362205
  9
$DIMTSZ
 40
0.0
  9
$DIMTOL
 70
     1
  9
$DIMLIM
 70
     0
  9
$DIMTIH
 70
     1
  9
$DIMTOH
 70
     1
  9
$DIMSE1
 70
     0
  9
$DIMSE2
 70
     0
  9
$DIMTAD
 70
     0
  9
$DIMZIN
 70
     0
  9
$DIMBLK
  1

  9
$DIMASO
 70
     1
  9
$DIMSHO
 70
     1
  9
$DIMPOST
  1
\X
  9
$DIMAPOST
  1

  9
$DIMALT
 70
     1
  9
$DIMALTD
 70
     2
  9
$DIMALTF
 40
25.3999999999999986
  9
$DIMLFAC
 40
1.0
  9
$DIMTOFL
 70
     0
  9
$DIMTVP
 40
0.0
  9
$DIMTIX
 70
     0
  9
$DIMSOXD
 70
     0
  9
$DIMSAH
 70
     0
  9
$DIMBLK1
  1

  9
$DIMBLK2
  1

  9
$DIMSTYLE
  2
STANDARD
  9
$DIMCLRD
 70
     0
  9
$DIMCLRE
 70
     0
  9
$DIMCLRT
 70
     0
  9
$DIMTFAC
 40
1.0
  9
$DIMGAP
 40
0.09
  9
$LUNITS
 70
     2
  9
$LUPREC
 70
     4
  9
$SKETCHINC
 40
0.1
  9
$FILLETRAD
 40
0.0
  9
$AUNITS
 70
     0
  9
$AUPREC
 70
     0
  9
$MENU
  1
.
  9
$ELEVATION
 40
0.0
  9
$PELEVATION
 40
0.0
  9
$THICKNESS
 40
0.0
  9
$LIMCHECK
 70
     0
  9
$BLIPMODE
 70
     0
  9
$CHAMFERA
 40
0.0
  9
$CHAMFERB
 40
0.0
  9
$SKPOLY
 70
     0
  9
$TDCREATE
 40
2458060.468368056230247
  9
$TDUPDATE
 40
2459086.0209143520332873
  9
$TDINDWG
 40
0.4089885417
  9
$TDUSRTIMER
 40
0.4089885417
  9
$USRTIMER
 70
     1
  9
$ANGBASE
 50
0.0
  9
$ANGDIR
 70
     0
  9
$PDMODE
 70
     0
  9
$PDSIZE
 40
0.3125
  9
$PLINEWID
 40
0.0
  9
$COORDS
 70
     1
  9
$SPLFRAME
 70
     0
  9
$SPLINETYPE
 70
     6
  9
$SPLINESEGS
 70
     8
  9
$ATTDIA
 70
     1
  9
$ATTREQ
 70
     1
  9
$HANDLING
 70
     1
  9
$HANDSEED
  5
757F
  9
$SURFTAB1
 70
     6
  9
$SURFTAB2
 70
     6
  9
$SURFTYPE
 70
     6
  9
$SURFU
 70
     6
  9
$SURFV
 70
     6
  9
$UCSNAME
  2

  9
$UCSORG
 10
0.0
 20
0.0
 30
0.0
  9
$UCSXDIR
 10
1.0
 20
0.0
 30
0.0
  9
$UCSYDIR
 10
0.0
 20
1.0
 30
0.0
  9
$PUCSNAME
  2

  9
$PUCSORG
 10
0.0
 20
0.0
 30
0.0
  9
$PUCSXDIR
 10
1.0
 20
0.0
 30
0.0
  9
$PUCSYDIR
 10
0.0
 20
1.0
 30
0.0
  9
$USERI1
 70
     0
  9
$USERI2
 70
     0
  9
$USERI3
 70
     0
  9
$USERI4
 70
     0
  9
$USERI5
 70
     0
  9
$USERR1
 40
0.0
  9
$USERR2
 40
0.0
  9
$USERR3
 40
0.0
  9
$USERR4
 40
0.0
  9
$USERR5
 40
0.0
  9
$WORLDVIEW
 70
     1
  9
$SHADEDGE
 70
     3
  9
$SHADEDIF
 70
    70
  9
$TILEMODE
 70
     1
  9
$MAXACTVP
 70
    64
  9
$PLIMCHECK
 70
     0
  9
$PEXTMIN
 10
1.0000000000000000E+20
 20
1.0000000000000000E+20
 30
1.0000000000000000E+20
  9
$PEXTMAX
 10
-1.0000000000000000E+20
 20
-1.0000000000000000E+20
 30
-1.0000000000000000E+20
  9
$PLIMMIN
 10
0.0
 20
0.0
  9
$PLIMMAX
 10
12.0
 20
9.0
  9
$UNITMODE
 70
     0
  9
$VISRETAIN
 70
     1
  9
$PLINEGEN
 70
     0
  9
$PSLTSCALE
 70
     1
  0
ENDSEC
  0
SECTION
  2
TABLES
  0
TABLE
  2
VPORT
 70
     1
  0
VPORT
  2
*ACTIVE
 70
     0
 10
0.0
 20
0.0
 11
1.0
 21
1.0
 12
154.4322724490656924
 22
-28.5592447918113805
 13
0.0
 23
0.0
 14
1.0
 24
1.0
 15
0.0
 25
0.0
 16
0.0
 26
0.0
 36
5.1040778033513332
 17
3792.35791015625
 27
120.1806564331053977
 37
0.0
 40
53.9462281777064732
 41
2.005224660397074
 42
50.0
 43
0.0
 44
0.0
 50
0.0
 51
0.0
 71
     0
 72
   100
 73
     1
 74
     1
 75
     0
 76
     0
 77
     0
 78
     0
  0
ENDTAB
  0
TABLE
  2
LTYPE
 70
     2
  0
LTYPE
  2
CONTINUOUS
 70
     0
  3
Solid line
 72
    65
 73
     0
 40
0.0
  0
LTYPE
  2
PHANTOM2
 70
     0
  3
___ _ _ ___ _ _ ___ _ _ ___ _ _
 72
    65
 73
     6
 40
1.25
 49
0.625
 49
-0.125
 49
0.125
 49
-0.125
 49
0.125
 49
-0.125
  0
ENDTAB
  0
TABLE
  2
LAYER
 70
     2
  0
LAYER
  2
0
 70
     0
 62
   255
  6
CONTINUOUS
  0
LAYER
  2
DEFPOINTS
 70
     0
 62
     7
  6
CONTINUOUS
  0
ENDTAB
  0
TABLE
  2
STYLE
 70
     1
  0
STYLE
  2
STANDARD
 70
     0
 40
0.0
 41
0.8
 50
0.0
 71
     0
 42
0.2
  3
txt
  4

  0
ENDTAB
  0
TABLE
  2
VIEW
 70
     0
  0
ENDTAB
  0
TABLE
  2
UCS
 70
     0
  0
ENDTAB
  0
TABLE
  2
APPID
 70
     9
  0
APPID
  2
ACAD
 70
     0
  0
APPID
  2
ACAD_MLEADERVER
 70
     0
  0
APPID
  2
ACAD_EXEMPT_FROM_CAD_STANDARDS
 70
     0
  0
APPID
  2
ACAD_NAV_VCDISPLAY
 70
     0
  0
APPID
  2
ACAECLAYERSTANDARD
 70
     0
  0
APPID
  2
ACCMTRANSPARENCY
 70
     0
  0
APPID
  2
ACAD_DSTYLE_DIMJAG
 70
     0
  0
APPID
  2
ACAD_DSTYLE_DIMTALN
 70
     0
  0
APPID
  2
ACDBATTR
 70
     0
  0
ENDTAB
  0
TABLE
  2
DIMSTYLE
 70
     1
  0
DIMSTYLE
  2
STANDARD
 70
     0
  3

  4

  5

  6

  7

 40
1.0
 41
0.1875
 42
0.0625
 43
0.38
 44
0.125
 45
0.0
 46
0.0
 47
0.01
 48
0.01
140
0.15625
141
0.09
142
0.0
143
25.3999999999999986
144
1.0
145
0.0
146
1.0
147
0.09
 71
     1
 72
     0
 73
     1
 74
     1
 75
     0
 76
     0
 77
     0
 78
     4
170
     0
171
     2
172
     0
173
     0
174
     0
175
     0
176
     0
177
     0
178
     0
  0
ENDTAB
  0
ENDSEC
  0
SECTION
  2
BLOCKS
  0
BLOCK
  8
0
  2
$MODEL_SPACE
 70
     0
 10
0.0
 20
0.0
 30
0.0
  3
$MODEL_SPACE
  1

  0
ENDBLK
  5
21
  8
0
  0
BLOCK
 67
     1
  8
0
  2
$PAPER_SPACE
 70
     0
 10
0.0
 20
0.0
 30
0.0
  3
$PAPER_SPACE
  1

  0
ENDBLK
  5
1D
 67
     1
  8
0
  0
BLOCK
  8
0
  2
_FILLED
 70
     0
 10
0.0
 20
0.0
 30
0.0
  3
_FILLED
  1

  0
SOLID
  5
69B4
  8
0
  6
BYBLOCK
 62
     0
 10
0.0
 20
0.0
 30
0.0
 11
-1.0
 21
0.1666666667
 31
0.0
 12
-1.0
 22
-0.1666666667
 32
0.0
 13
-1.0
 23
-0.1666666667
 33
0.0
  0
ENDBLK
  5
69B5
  8
0
  6
BYBLOCK
 62
     0
  0
BLOCK
  8
0
  2
A$CDFAF6206
 70
     0
 10
0.0
 20
0.0
 30
0.0
  3
A$CDFAF6206
  1

  0
LINE
  5
6A0E
  8
0
 10
7.4646650085734834
 20
10.9287685970688493
 30
0.0
 11
7.4646650085734896
 21
10.8905784766688498
 31
0.0
  0
ARC
  5
6A0F
  8
0
 10
7.7269027075262349
 20
10.8926811525838598
 30
0.0
 40
0.2622461286616791
 50
180.4593995232625048
 51
217.0214027758331099
  0
LINE
  5
6A10
  8
0
 10
9.767814609867095
 20
10.9287685970688493
 30
0.0
 11
9.767814609867095
 21
10.8905433757650094
 31
0.0
  0
ARC
  5
6A11
  8
0
 10
9.5068669568548287
 20
10.8922438613003703
 30
0.0
 40
0.2609531936261092
 50
322.8847083717149076
 51
359.6266329125650145
  0
LINE
  5
6A12
  8
0
 10
7.517522606271406
 20
10.7347792678688396
 30
0.0
 11
9.7149570120691777
 21
10.7347792678688396
 31
0.0
  0
LINE
  5
6A13
  8
0
 10
7.4646650085734834
 20
10.9287685970688493
 30
0.0
 11
9.7678146123202936
 21
10.9287685970688493
 31
0.0
  0
ARC
  5
6A14
  8
0
 10
4.0826771419203629
 20
8.527951346868889
 30
0.0
 40
4.0826771653999172
 50
13.3117747050523896
 51
32.7200330051415591
  0
ARC
  5
6A15
  8
0
 10
4.0826771460567306
 20
8.5279513475907933
 30
0.0
 40
4.0826771612084691
 50
359.6656501984817851
 51
13.3117747085593798
  0
ARC
  5
6A16
  8
0
 10
13.1498041284835097
 20
8.5279508235212234
 30
0.0
 40
4.0826788382043553
 50
147.2799733478981068
 51
166.6882233021349862
  0
ARC
  5
6A17
  8
0
 10
13.1498064934207992
 20
8.5279506557033251
 30
0.0
 40
4.0826811782395342
 50
166.688228652086309
 51
180.3343397625230011
  0
LINE
  5
6A18
  8
0
 10
8.1652847935202928
 20
8.504127000268852
 30
0.0
 11
9.0671948248202892
 21
8.5041270002687881
 31
0.0
  0
LINE
  5
6A19
  8
0
 10
8.1652847935202786
 20
8.5041270002667204
 30
0.0
 11
8.1652847935202928
 21
8.3607006934688481
 31
0.0
  0
ARC
  5
6A1A
  8
0
 10
5.6196779630382627
 20
8.3631022096452732
 30
0.0
 40
2.545607963272567
 50
342.0511668832173768
 51
359.945947387132378
  0
LINE
  5
6A1B
  8
0
 10
9.0671948248202892
 20
8.5041270002687881
 30
0.0
 11
9.0671948248202892
 21
8.2885990108688503
 31
0.0
  0
ARC
  5
6A1C
  8
0
 10
9.4521885297801163
 20
7.9614488056228501
 30
0.0
 40
0.5052201595850959
 50
139.6436242991769916
 51
174.6757930071850069
  0
ARC
  5
6A1D
  8
0
 10
9.9238413395551746
 20
8.1492417579399508
 30
0.0
 40
0.9848265662939324
 50
188.2263441834095943
 51
209.5593615864376034
  0
ARC
  5
6A1E
  8
0
 10
8.0788764238271256
 20
7.5665710856463297
 30
0.0
 40
0.0393715937169877
 50
162.1669117288323037
 51
227.2023190037006088
  0
ARC
  5
6A1F
  8
0
 10
8.7223682141740682
 20
8.2079667397440517
 30
0.0
 40
0.947895137885075
 50
225.0018610752970858
 51
261.4598823366255829
  0
ARC
  5
6A20
  8
0
 10
8.6645157662702701
 20
8.1695128573935332
 30
0.0
 40
0.9027466462812931
 50
264.7303071214498118
 51
281.8608311947915013
  0
ARC
  5
6A21
  8
0
 10
8.6645157662698935
 20
8.1695128573999671
 30
0.0
 40
0.9027466462876658
 50
299.1741886792128753
 51
299.1743179154552195
  0
ARC
  5
6A22
  8
0
 10
9.0843330931590316
 20
7.4150554710086141
 30
0.0
 40
0.0393703053609601
 50
251.9700352025496954
 51
252.4698971938937859
  0
ARC
  5
6A23
  8
0
 10
9.0843330931590316
 20
7.4150554710086141
 30
0.0
 40
0.0393703053609601
 50
297.2453716727138726
 51
6.8376113572703074
  0
LINE
  5
6A24
  8
0
 10
9.0671948248202892
 20
7.663402160468852
 30
0.0
 11
9.1234233799329516
 21
7.419742732911689
 31
0.0
  0
ARC
  5
6A25
  8
0
 10
8.8843741880892395
 20
9.8961379890094676
 30
0.0
 40
2.5255097382132701
 50
263.792800240752797
 51
274.9514951129821156
  0
ARC
  5
6A26
  8
0
 10
8.8258167405968848
 20
9.2763025889666508
 30
0.0
 40
1.9029970832759311
 50
246.0108363320686067
 51
263.5276935074397215
  0
ARC
  5
6A27
  8
0
 10
8.607491361665744
 20
8.3225444804829642
 30
0.0
 40
1.064510137163637
 50
283.1717405874071005
 51
297.7022170607311864
  0
LINE
  5
6A28
  8
0
 10
9.0671948248202892
 20
8.2885990108688503
 30
0.0
 11
26.2014378595979593
 21
8.2885990108689942
 31
0.0
  0
LINE
  5
6A29
  8
0
 10
26.2014378595979913
 20
7.6634021604689053
 30
0.0
 11
9.0671948248202892
 21
7.6634021604688618
 31
0.0
  0
LINE
  5
6A2A
  8
0
 10
27.8039676758446994
 20
10.9287685970690802
 30
0.0
 11
27.8039676758446888
 21
10.8905784766690807
 31
0.0
  0
ARC
  5
6A2B
  8
0
 10
27.5417299768919399
 20
10.8926811525840801
 30
0.0
 40
0.2622461286616791
 50
322.9785972241680838
 51
359.5406004767386889
  0
LINE
  5
6A2C
  8
0
 10
25.5008180745510913
 20
10.9287685970690305
 30
0.0
 11
25.5008180745510913
 21
10.8905433757651799
 31
0.0
  0
ARC
  5
6A2D
  8
0
 10
25.7617657275633505
 20
10.8922438613005497
 30
0.0
 40
0.2609531936261092
 50
180.3733670874362929
 51
217.1152916282862861
  0
LINE
  5
6A2E
  8
0
 10
27.7511100781467803
 20
10.7347792678690706
 30
0.0
 11
25.5536756723490015
 21
10.7347792678690208
 31
0.0
  0
LINE
  5
6A2F
  8
0
 10
27.8039676758446888
 20
10.9287685970686006
 30
0.0
 11
25.5008180745510806
 21
10.9287685970686006
 31
0.0
  0
ARC
  5
6A30
  8
0
 10
31.1859555424978616
 20
8.5279513468691981
 30
0.0
 40
4.0826771653999172
 50
147.2799669948597057
 51
166.6882252949490066
  0
ARC
  5
6A31
  8
0
 10
31.185955538361501
 20
8.5279513475911024
 30
0.0
 40
4.0826771612084691
 50
166.6882252914419098
 51
180.3343498015194086
  0
ARC
  5
6A32
  8
0
 10
22.1188285559344706
 20
8.5279508235212251
 30
0.0
 40
4.0826788382046102
 50
13.3117766978667795
 51
32.7200266521023977
  0
ARC
  5
6A33
  8
0
 10
22.1188261909974315
 20
8.5279506557034264
 30
0.0
 40
4.0826811782395342
 50
359.665660237478221
 51
13.31177134791497
  0
LINE
  5
6A34
  8
0
 10
27.1033478908979397
 20
8.5041270002690652
 30
0.0
 11
26.2014378595979416
 21
8.5041270002689835
 31
0.0
  0
LINE
  5
6A35
  8
0
 10
27.1033478908979504
 20
8.5041270002669354
 30
0.0
 11
27.1033478908979397
 21
8.3607006934690649
 31
0.0
  0
ARC
  5
6A36
  8
0
 10
29.6489547213799689
 20
8.3631022096455467
 30
0.0
 40
2.545607963272567
 50
180.0540526128687873
 51
197.9488331167837032
  0
LINE
  5
6A37
  8
0
 10
26.2014378595979416
 20
8.5041270002689835
 30
0.0
 11
26.2014378595979487
 21
8.2885990108690457
 31
0.0
  0
ARC
  5
6A38
  8
0
 10
25.8164441546381305
 20
7.9614488056230366
 30
0.0
 40
0.5052201595850959
 50
5.324206992816312
 51
40.3563757008241879
  0
ARC
  5
6A39
  8
0
 10
25.3447913448601803
 20
8.149241757940846
 30
0.0
 40
0.9848265662968968
 50
330.4406384136033807
 51
351.7736558165743759
  0
ARC
  5
6A3A
  8
0
 10
27.1897562605911212
 20
7.5665710856465473
 30
0.0
 40
0.0393715937169877
 50
312.7976809963004143
 51
17.8330882711689185
  0
ARC
  5
6A3B
  8
0
 10
26.5462644702441715
 20
8.2079667397442542
 30
0.0
 40
0.947895137885075
 50
278.5401176633754972
 51
314.9981389247041079
  0
ARC
  5
6A3C
  8
0
 10
26.6041169181479695
 20
8.1695128573937392
 30
0.0
 40
0.9027466462812931
 50
258.139168805210204
 51
275.2696928785518935
  0
ARC
  5
6A3D
  8
0
 10
26.6041169181483497
 20
8.1695128574001732
 30
0.0
 40
0.9027466462876658
 50
240.8256820845460027
 51
240.8258113207880058
  0
ARC
  5
6A3E
  8
0
 10
26.1842995912592293
 20
7.4150554710088086
 30
0.0
 40
0.0393703053609601
 50
287.5301028061073794
 51
288.0299647974517825
  0
ARC
  5
6A3F
  8
0
 10
26.1842995912592293
 20
7.4150554710088086
 30
0.0
 40
0.0393703053609601
 50
173.1623886427310026
 51
242.7546283272870085
  0
LINE
  5
6A40
  8
0
 10
26.2014378595981192
 20
7.6634021604690448
 30
0.0
 11
26.1452093044853093
 21
7.4197427329118826
 31
0.0
  0
ARC
  5
6A41
  8
0
 10
26.384258496328961
 20
9.8961379890096666
 30
0.0
 40
2.5255097382132701
 50
265.0485048870193054
 51
276.2071997592482262
  0
ARC
  5
6A42
  8
0
 10
26.4428159438213299
 20
9.2763025889668516
 30
0.0
 40
1.9029970832759311
 50
276.4723064925619838
 51
293.9891636679327007
  0
ARC
  5
6A43
  8
0
 10
26.6611413227524885
 20
8.3225444804831703
 30
0.0
 40
1.064510137163637
 50
242.2977829392704052
 51
256.8282594125943774
  0
LINE
  5
6A44
  8
0
 62
     4
 10
17.9031473532159602
 20
10.9287685970686006
 30
0.0
 11
24.6329820359843588
 21
20.0952817181593808
 31
0.0
  0
LINE
  5
6A45
  8
0
 62
     4
 10
17.9031473532159602
 20
-0.0000000300842942
 30
0.0
 11
22.3963351323106608
 21
4.993614497796286
 31
0.0
  0
ENDBLK
  5
6A49
  8
0
  0
ENDSEC
  0
SECTION
  2
ENTITIES
  0
ATTDEF
  5
3930
  8
DEFPOINTS
 10
3943.6804159853318197
 20
92.5525988177830641
 30
0.0
 40
0.001
  1
K-16148T
  3

  2
MODELNUMBER
 70
     0
1001
ACDBATTR
1070
     0
1070
     1
  0
ATTDEF
  5
3931
  8
DEFPOINTS
 10
3943.6804159853318197
 20
92.5509321511163989
 30
0.0
 40
0.001
  1
REVIVAL
  3

  2
TRADENAME
 70
     0
1001
ACDBATTR
1070
     0
1070
     1
  0
ATTDEF
  5
3932
  8
DEFPOINTS
 10
3943.6804159853318197
 20
92.5492654844497338
 30
0.0
 40
0.001
  1
TOWEL BAR
  3

  2
PRODUCT
 70
     0
1001
ACDBATTR
1070
     0
1070
     1
  0
ARC
  5
740A
  8
0
 10
3953.6407302217598954
 20
89.2707936208265238
 30
0.0
 40
0.459685773768535
 50
359.9931297632866176
 51
39.8245831764218323
  0
ARC
  5
740B
  8
0
 10
3954.0181585903228552
 20
89.5851307224643136
 30
0.0
 40
0.0314978538270954
 50
197.7920510828660952
 51
219.2674234271362934
  0
ARC
  5
740C
  8
0
 10
3953.9404453012161866
 20
89.5607961385367872
 30
0.0
 40
0.04993761923906
 50
17.1316033900249494
 51
78.3246285736371703
  0
ARC
  5
740D
  8
0
 10
3953.940415985332038
 20
89.5607385006966155
 30
0.0
 40
0.0499999999999924
 50
78.3050960119985291
 51
139.3611027946652996
  0
ARC
  5
740E
  8
0
 10
3953.8872979320021841
 20
89.6063287672614877
 30
0.0
 40
0.0199999999648732
 50
210.2299832568945988
 51
319.3611033101634007
  0
ARC
  5
740F
  8
0
 10
3953.740323228986199
 20
89.5206378956198137
 30
0.0
 40
0.150130799788811
 50
30.2453340401868012
 51
94.4162105225503723
  0
ARC
  5
7410
  8
0
 10
3953.7826446262579339
 20
89.1699310214450236
 30
0.0
 40
0.5032845328205892
 50
96.1458643859451456
 51
103.1086056728967009
  0
ARC
  5
7411
  8
0
 10
3953.8489255895328824
 20
88.8039047222957265
 30
0.0
 40
0.8750000000009318
 50
101.8997337911647065
 51
114.3836391755390025
  0
ARC
  5
7412
  8
0
 10
3953.8485464439399948
 20
88.8047063992814856
 30
0.0
 40
0.8741133033265867
 50
114.3826980092199932
 51
116.2400886042677968
  0
ARC
  5
7413
  8
0
 10
3953.4532168994951462
 20
89.606778992356368
 30
0.0
 40
0.020093574119664
 50
221.3808770659192078
 51
296.1469642289313811
  0
ARC
  5
7414
  8
0
 10
3953.4004159853329838
 20
89.5606798304968947
 30
0.0
 40
0.0499999999999984
 50
41.0199279174203468
 51
104.6350953537691026
  0
ARC
  5
7415
  8
0
 10
3953.4107030961990858
 20
89.5529780922579448
 30
0.0
 40
0.0605825296857918
 50
112.2303033378785955
 51
177.6551019511601055
  0
ARC
  5
7416
  8
0
 10
3953.3309542986548877
 20
89.5564429435296887
 30
0.0
 40
0.0192422825324219
 50
286.5262609165903882
 51
357.0624111689485858
  0
ARC
  5
7417
  8
0
 10
3953.0396413255371044
 20
90.4982965260777377
 30
0.0
 40
1.0051169941022711
 50
270.0441587810474857
 51
287.1740648132719116
  0
LINE
  5
7418
  8
0
 10
3952.3104159853328383
 20
89.4932385006966058
 30
0.0
 11
3952.2627824406317814
 21
89.4932385006966058
 31
0.0
  0
LINE
  5
7419
  8
0
 10
3952.2627824406317814
 20
89.4932385006966058
 30
0.0
 11
3952.2580915185330923
 21
89.4937964006966098
 31
0.0
  0
ARC
  5
741A
  8
0
 10
3952.492409254757149
 20
90.4653805033958633
 30
0.0
 40
0.9994400783312656
 50
236.2115120659989884
 51
256.4408539944988092
  0
ARC
  5
741B
  8
0
 10
3958.0149565708379669
 20
98.4240075215378738
 30
0.0
 40
10.6863263171292893
 50
235.1510726359607872
 51
235.3335278780967883
  0
ARC
  5
741C
  8
0
 10
3952.4926376269481807
 20
90.4659013966189036
 30
0.0
 40
1.0000000000275311
 50
232.9457086440226021
 51
234.2673654949383888
  0
ARC
  5
741D
  8
0
 10
3951.9025492452251456
 20
89.6842567867437168
 30
0.0
 40
0.0206265418741234
 50
208.883267036045396
 51
232.7569554001904066
  0
ARC
  5
741E
  8
0
 10
3951.840521258589888
 20
89.6509178666810556
 30
0.0
 40
0.0497950454224689
 50
27.997903972698861
 51
69.3914469434823076
  0
ARC
  5
741F
  8
0
 10
3951.8404159853330384
 20
89.6507385006966047
 30
0.0
 40
0.0500000000000002
 50
69.3508780677599646
 51
180.0
  0
ARC
  5
7420
  8
0
 10
3953.6401014668799689
 20
89.2707937108162071
 30
0.0
 40
0.4603145286541775
 50
320.2037745728026721
 51
359.9931279464104819
  0
ARC
  5
7421
  8
0
 10
3954.0155984664538664
 20
88.9576206930782263
 30
0.0
 40
0.0286400534396049
 50
139.646394072975994
 51
163.2941299944525895
  0
ARC
  5
7422
  8
0
 10
3953.9402040521858908
 20
88.9809133723250198
 30
0.0
 40
0.0502719078455918
 50
281.8774887098433055
 51
342.5683499303299868
  0
ARC
  5
7423
  8
0
 10
3953.9405462604490822
 20
88.9810617877929531
 30
0.0
 40
0.0503480386850889
 50
220.8721792648846929
 51
281.4616296465508753
  0
ARC
  5
7424
  8
0
 10
3953.8872979319930892
 20
88.9350895640399557
 30
0.0
 40
0.0199999999020376
 50
40.6388967039553535
 51
149.7700169960932044
  0
ARC
  5
7425
  8
0
 10
3953.7404159853290366
 20
89.0206798305021891
 30
0.0
 40
0.1500000000050542
 50
265.5437741515182779
 51
329.7700168947121142
  0
ARC
  5
7426
  8
0
 10
3953.8102163595021921
 20
89.5364902218133807
 30
0.0
 40
0.6703243778754682
 50
257.7937796347566177
 51
263.0204095237999127
  0
ARC
  5
7427
  8
0
 10
3953.8506938119171537
 20
89.7421162821952265
 30
0.0
 40
0.8798687259025227
 50
245.6336476077754867
 51
258.0486107662526933
  0
ARC
  5
7428
  8
0
 10
3953.9581319911872015
 20
89.9734249337663528
 30
0.0
 40
1.134902153139673
 50
244.0813294556571975
 51
245.5105980812676023
  0
ARC
  5
7429
  8
0
 10
3953.453175787130931
 20
88.9350053459220362
 30
0.0
 40
0.0197841356083433
 50
63.2777078779958586
 51
139.4632524969358087
  0
ARC
  5
742A
  8
0
 10
3953.4007428493191583
 20
88.9798005457712264
 30
0.0
 40
0.0491783423530873
 50
254.7030557965084085
 51
319.5030533738789131
  0
ARC
  5
742B
  8
0
 10
3953.4146013663989834
 20
88.9910251684159164
 30
0.0
 40
0.0645063747551229
 50
182.7871058517683878
 51
245.4194760484558913
  0
ARC
  5
742C
  8
0
 10
3953.3305404475149771
 20
88.9843673906063088
 30
0.0
 40
0.0199441406487738
 50
10.1689231956509101
 51
72.8307697528054234
  0
ARC
  5
742D
  8
0
 10
3952.6504159853329838
 20
89.2706365989990331
 30
0.0
 40
0.4398980963836679
 50
210.3690190612041988
 51
210.3840328223596998
  0
LINE
  5
742E
  8
0
 10
3952.3104159853328383
 20
89.0482385007223627
 30
0.0
 11
3952.2627824406317814
 21
89.0482385007223627
 31
0.0
  0
LINE
  5
742F
  8
0
 10
3952.2627824406317814
 20
89.0482385007223627
 30
0.0
 11
3952.2580915185330923
 21
89.0476806007223729
 31
0.0
  0
ARC
  5
7430
  8
0
 10
3952.492409254757149
 20
88.0760964980231336
 30
0.0
 40
0.9994400783312656
 50
103.5591460055011055
 51
123.7884879340009974
  0
ARC
  5
7431
  8
0
 10
3958.0149565708379669
 20
80.1174694798810947
 30
0.0
 40
10.6863263171292893
 50
124.666472121903098
 51
124.8489273640391986
  0
ARC
  5
7432
  8
0
 10
3952.4926376269481807
 20
88.0755756048000791
 30
0.0
 40
1.0000000000275311
 50
125.732634505061597
 51
127.0542913559773979
  0
ARC
  5
7433
  8
0
 10
3951.9017264154172153
 20
88.8580950557128233
 30
0.0
 40
0.0194325337521468
 50
126.8727668614232016
 51
152.5065037813434969
  0
ARC
  5
7434
  8
0
 10
3951.8402943071528171
 20
88.8909376904736064
 30
0.0
 40
0.0502293213358809
 50
290.6988765136907205
 51
331.6241632434459916
  0
ARC
  5
7435
  8
0
 10
3951.8404159853330384
 20
88.8907385007223638
 30
0.0
 40
0.0500000000000002
 50
180.0
 51
290.6491219322401207
  0
LINE
  5
7436
  8
0
 10
3953.9881672223327769
 20
88.9658535239968842
 30
0.0
 11
3953.9881672223327769
 21
89.5755061371859966
 31
0.0
  0
LINE
  5
7437
  8
0
 10
3953.9024745186488872
 20
89.5933029768307136
 30
0.0
 11
3953.902474518587951
 21
88.9481153544335399
 31
0.0
  0
LINE
  5
7438
  8
0
 10
3953.3501712958818644
 20
89.5554568123821042
 30
0.0
 11
3953.3501712958818644
 21
88.9878885464664222
 31
0.0
  0
LINE
  5
7439
  8
0
 10
3953.4381400529409802
 20
89.5934959046549579
 30
0.0
 11
3953.4381400562328963
 21
88.9478637602151139
 31
0.0
  0
LINE
  5
743A
  8
0
 10
3951.8844885290318416
 20
89.6742936165510542
 30
0.0
 11
3951.8844885290318416
 21
88.8670660444968945
 31
0.0
  0
LINE
  5
743B
  8
0
 10
3951.790415985331947
 20
89.6507385002966117
 30
0.0
 11
3951.790415985331947
 21
88.8907385006966138
 31
0.0
  0
LINE
  5
743C
  8
0
 10
3935.5704159853330566
 20
89.5831798304969027
 30
0.0
 11
3951.790415985331947
 21
89.5831798304969027
 31
0.0
  0
LINE
  5
743D
  8
0
 10
3935.5704159853330566
 20
88.9581798304969027
 30
0.0
 11
3951.790415985331947
 21
88.9581798304969027
 31
0.0
  0
ARC
  5
743F
  8
0
 10
3953.0396413255361949
 20
88.0431804753412166
 30
0.0
 40
1.0051169941022711
 50
72.8259351867281168
 51
89.9558412189524859
  0
ARC
  5
7440
  8
0
 10
3951.5604182668421345
 20
92.4907400649377962
 30
0.0
 40
0.0600000000000014
 50
179.9999860492252992
 51
270.0
  0
ARC
  5
7441
  8
0
 10
3951.5604182668421345
 20
92.4907400649377962
 30
0.0
 40
0.0599999999999987
 50
90.0
 51
179.9999860492252992
  0
ARC
  5
7442
  8
0
 10
3951.8152475505107759
 20
92.0831057274909739
 30
0.0
 40
0.0149999999729648
 50
289.7019329511824139
 51
1.7613145414682509
  0
ARC
  5
7443
  8
0
 10
3951.4504199981420243
 20
92.0718871245377954
 30
0.0
 40
0.3799999999999766
 50
1.7613146509903559
 51
16.1530948817216107
  0
ARC
  5
7444
  8
0
 10
3951.4504199981420243
 20
92.0718871245378239
 30
0.0
 40
0.3799999999999399
 50
16.1530948817176991
 51
37.8640716802323425
  0
ARC
  5
7445
  8
0
 10
3951.4504199980351586
 20
92.0718871244274055
 30
0.0
 40
0.3800000001516206
 50
37.8640716835411979
 51
70.7953789212865132
  0
ARC
  5
7446
  8
0
 10
3951.8304182669530746
 20
92.0407400649722263
 30
0.0
 40
0.0300000001116234
 50
180.0000000657720136
 51
243.3790100020599994
  0
ARC
  5
7447
  8
0
 10
3951.8304182668421163
 20
92.0407400649377934
 30
0.0
 40
0.0299999999999997
 50
109.7019338420484047
 51
180.0
  0
ARC
  5
7448
  8
0
 10
3951.810254368635924
 20
92.0005105083416339
 30
0.0
 40
0.0150000001333886
 50
338.8839975515701894
 51
63.3790098388479635
  0
ARC
  5
7449
  8
0
 10
3952.8690768242408922
 20
91.5917073678378131
 30
0.0
 40
1.119999999999941
 50
158.8888763739641092
 51
167.9055271046534017
  0
ARC
  5
744A
  8
0
 10
3952.8690768139817919
 20
91.5917073695925552
 30
0.0
 40
1.119999989600811
 50
167.905525374914788
 51
176.9222411979530989
  0
ARC
  5
744B
  8
0
 10
3951.9404182060197854
 20
91.6416401593060357
 30
0.0
 40
0.1899999392614955
 50
176.9222338969240127
 51
179.9999971683589877
  0
ARC
  5
744C
  8
0
 10
3951.9404182722209953
 20
91.6416401618400158
 30
0.0
 40
0.1900000054621441
 50
179.9999979324981894
 51
193.9286122993163985
  0
ARC
  5
744D
  8
0
 10
3951.9404182668417889
 20
91.6416401608377953
 30
0.0
 40
0.1900000000000093
 50
193.9286123964330102
 51
218.1454448382104943
  0
ARC
  5
744E
  8
0
 10
3951.9404182668417889
 20
91.6416401608379516
 30
0.0
 40
0.1900000000002165
 50
218.1454448382168891
 51
229.6718171874883012
  0
ARC
  5
744F
  8
0
 10
3951.807749473648073
 20
91.4853583918293367
 30
0.0
 40
0.0150000000936293
 50
326.8334970416286751
 51
49.6718168782282774
  0
ARC
  5
7450
  8
0
 10
3951.845418267480909
 20
91.4607400646411861
 30
0.0
 40
0.0300000006977342
 50
146.8334971916526968
 51
179.9999994335425129
  0
ARC
  5
7451
  8
0
 10
3951.8454182669152033
 20
91.4607400650557452
 30
0.0
 40
0.0300000001305341
 50
180.0000002252951958
 51
257.9040698777330931
  0
ARC
  5
7452
  8
0
 10
3951.8359885572049279
 20
91.4167391493925834
 30
0.0
 40
0.014999999918365
 50
28.6699547056777817
 51
77.9040704579644654
  0
ARC
  5
7453
  8
0
 10
3948.9976064331190173
 20
89.8647043800548744
 30
0.0
 40
3.2500000009931642
 50
4.0440930403784172
 51
28.6699538651782184
  0
ARC
  5
7454
  8
0
 10
3952.2245515185531985
 20
90.0928499960552642
 30
0.0
 40
0.0149999999995965
 50
290.6460827611646209
 51
4.0440929478931107
  0
ARC
  5
7455
  8
0
 10
3952.2404182668428803
 20
90.0507400649353826
 30
0.0
 40
0.0300000000029107
 50
110.6460830413254968
 51
179.9999999954094108
  0
ARC
  5
7456
  8
0
 10
3952.2404182668428803
 20
90.0507400649395606
 30
0.0
 40
0.0300000000017668
 50
180.0000000033724916
 51
269.9999999985930117
  0
ARC
  5
7457
  8
0
 10
3952.2421393312702094
 20
90.0057729888229403
 30
0.0
 40
0.0149999999131642
 50
27.074676226586071
 51
86.2031237981718448
  0
ARC
  5
7458
  8
0
 10
3950.6972709327628763
 20
89.2160853009228134
 30
0.0
 40
1.75000000371895
 50
14.1502462628499401
 51
27.0746762576091093
  0
ARC
  5
7459
  8
0
 10
3953.7404182637587837
 20
92.4907400662512202
 30
0.0
 40
0.0600000030230784
 50
269.9863222403525924
 51
0.0000127582333933
  0
ARC
  5
745A
  8
0
 10
3953.7404182639679675
 20
92.4907400638333854
 30
0.0
 40
0.060000002814092
 50
0.0000150670925881
 51
90.0136779592555598
  0
ARC
  5
745B
  8
0
 10
3953.4786704906050545
 20
92.0838682603743166
 30
0.0
 40
0.0157284190673275
 50
181.0983568498826912
 51
251.1449622874382896
  0
ARC
  5
745C
  8
0
 10
3953.7287654283600205
 20
92.0834240509979907
 30
0.0
 40
0.265820505229363
 50
160.3850973313668931
 51
179.9692387759563132
  0
ARC
  5
745D
  8
0
 10
3954.0223405436890971
 20
91.9626278629196889
 30
0.0
 40
0.5831094125291387
 50
144.0295746363339902
 51
158.8880248546313112
  0
ARC
  5
745E
  8
0
 10
3953.8504165349831965
 20
92.0718871251471427
 30
0.0
 40
0.3799999992556018
 50
109.2046210207721941
 51
142.1359283392206123
  0
ARC
  5
745F
  8
0
 10
3953.4685023321039807
 20
92.037730049369685
 30
0.0
 40
0.0271491221289341
 50
298.7178353783074272
 51
4.8904139303700642
  0
ARC
  5
7460
  8
0
 10
3953.4627619845709887
 20
92.0379617035153643
 30
0.0
 40
0.0328567173982606
 50
3.6344639778873842
 51
70.7630701324405038
  0
ARC
  5
7461
  8
0
 10
3953.4884302933510298
 20
92.0020463383021365
 30
0.0
 40
0.0137246768557569
 50
120.0991788188436971
 51
210.3735791679094973
  0
ARC
  5
7462
  8
0
 10
3952.4317597094318444
 20
91.5917073678253786
 30
0.0
 40
1.120000000000366
 50
12.0944728985696095
 51
21.1111236292602911
  0
ARC
  5
7463
  8
0
 10
3952.4317597196909446
 20
91.5917073695802628
 30
0.0
 40
1.119999989600811
 50
3.0777588052651592
 51
12.0944746283042495
  0
ARC
  5
7464
  8
0
 10
3953.3604183276511321
 20
91.6416401593459256
 30
0.0
 40
0.1899999392614955
 50
0.0000028348596334
 51
3.0777661062935162
  0
ARC
  5
7465
  8
0
 10
3953.3604182614499223
 20
91.6416401618799057
 30
0.0
 40
0.1900000054621441
 50
346.0713877039041222
 51
0.00000207072043
  0
ARC
  5
7466
  8
0
 10
3953.3604182668300382
 20
91.6416401608776852
 30
0.0
 40
0.1900000000000093
 50
321.8545551650033758
 51
346.0713876067811725
  0
ARC
  5
7467
  8
0
 10
3953.3604182668291287
 20
91.6416401608778415
 30
0.0
 40
0.1900000000002165
 50
310.3281828157470841
 51
321.8545551649970093
  0
ARC
  5
7468
  8
0
 10
3953.4930870598918773
 20
91.4853583919545343
 30
0.0
 40
0.0149999999432309
 50
130.3281829077996008
 51
213.1665039051262056
  0
ARC
  5
7469
  8
0
 10
3953.4554182666670386
 20
91.4607400648148854
 30
0.0
 40
0.0300000002137138
 50
0.0000003242907802
 51
33.1665030161747509
  0
ARC
  5
746A
  8
0
 10
3953.4554182668221074
 20
91.4607400650540967
 30
0.0
 40
0.0300000000583523
 50
282.0959288745082176
 51
359.9999998674528001
  0
ARC
  5
746B
  8
0
 10
3953.4648479765419324
 20
91.4167391493835453
 30
0.0
 40
0.0150000000000067
 50
102.095932071341494
 51
151.3300452294770082
  0
ARC
  5
746C
  8
0
 10
3956.3032301006519447
 20
89.8647043802600791
 30
0.0
 40
3.2500000009931642
 50
151.3300461380368063
 51
175.9559069628406007
  0
ARC
  5
746D
  8
0
 10
3953.0762850152050305
 20
90.0928499960791953
 30
0.0
 40
0.0149999999995965
 50
175.9559070553241042
 51
249.3539172420638863
  0
ARC
  5
746E
  8
0
 10
3953.0604182670808768
 20
90.0507400651676164
 30
0.0
 40
0.0299999997495455
 50
359.9999996082606799
 51
69.3539171129550738
  0
ARC
  5
746F
  8
0
 10
3953.0604182669821967
 20
90.0507400648089344
 30
0.0
 40
0.0299999998481049
 50
269.9999998830646746
 51
0.0000002933202181
  0
ARC
  5
7470
  8
0
 10
3953.0586972024930219
 20
90.0057729888458766
 30
0.0
 40
0.0149999999131642
 50
93.7968762050400358
 51
152.9253237766299947
  0
ARC
  5
7471
  8
0
 10
3954.6035656010449202
 20
89.2160853010325354
 30
0.0
 40
1.75000000371895
 50
152.9253237456069883
 51
165.8497537403681008
  0
LINE
  5
7472
  8
0
 10
3951.5604182668421345
 20
92.5507400649377985
 30
0.0
 11
3953.7404039404418654
 21
92.5507400649377985
 31
0.0
  0
LINE
  5
7473
  8
0
 10
3951.5604182668421345
 20
92.4307400649377939
 30
0.0
 11
3953.7404039404418654
 21
92.4307400649377939
 31
0.0
  0
LINE
  5
7474
  8
0
 10
3952.2298404346502139
 20
90.078813352349826
 30
0.0
 11
3953.0709960990661784
 21
90.0788133523377894
 31
0.0
  0
LINE
  5
7475
  8
0
 10
3953.0604182669198963
 20
90.0207400649608189
 30
0.0
 11
3952.2404182668428803
 21
90.0207400649377973
 31
0.0
  0
LINE
  5
7476
  8
0
 10
3953.4617047394272049
 20
91.4314061211377975
 30
0.0
 11
3951.8391317936548148
 21
91.431406121205768
 31
0.0
  0
LINE
  5
7477
  8
0
 10
3951.8203057381419967
 20
91.4771522828377925
 30
0.0
 11
3953.4805307956589786
 21
91.4771522828377925
 31
0.0
  0
LINE
  5
7478
  8
0
 10
3953.4815473907419801
 20
92.0139203606377833
 30
0.0
 11
3951.8169756680981664
 21
92.013920360598064
 31
0.0
  0
LINE
  5
7479
  8
0
 10
3951.8203044559490991
 20
92.0689838399902101
 30
0.0
 11
3953.4735874605248682
 21
92.0689838399434137
 31
0.0
  0
LINE
  5
747A
  8
0
 10
3952.3867635821989097
 20
89.6229987868764084
 30
0.0
 11
3952.9140729516911961
 21
89.6229987868764084
 31
0.0
  0
LINE
  5
747B
  8
0
 10
3952.3104159853328383
 20
89.5500236287649756
 30
0.0
 11
3952.3104159853328383
 21
88.9914568987649659
 31
0.0
  0
ARC
  5
747C
  8
0
 10
3952.6504191888830064
 20
89.2707440012611642
 30
0.0
 40
0.4400039363971717
 50
219.4005355628052882
 51
269.9998799485030077
  0
ARC
  5
747D
  8
0
 10
3952.6505094890308101
 20
89.270638730937705
 30
0.0
 40
0.4401357885829175
 50
126.815313154907102
 51
140.5970884055799104
  0
LINE
  5
747E
  8
0
 10
3952.9904159853331294
 20
89.5500218657057161
 30
0.0
 11
3952.9904159853331294
 21
88.9914551357132382
 31
0.0
  0
ARC
  5
747F
  8
0
 10
3952.6504158168218055
 20
89.2707406442528963
 30
0.0
 40
0.4400005793947536
 50
270.0003190489687768
 51
320.599373967331303
  0
ARC
  5
7480
  8
0
 10
3952.6503427005450249
 20
89.2706831242294925
 30
0.0
 40
0.4400908673400562
 50
39.3999392448005068
 51
53.1828552379757369
  0
ARC
  5
7481
  8
0
 10
3952.9260572555449471
 20
89.6390105469649683
 30
0.0
 40
0.0199999999999997
 50
165.8497537402425905
 51
233.1862893831037979
  0
ARC
  5
7482
  8
0
 10
3952.3747792782692159
 20
89.6390105469685636
 30
0.0
 40
0.0200000000732196
 50
306.8137108253436054
 51
14.1502461850466794
  0
ARC
  5
7483
  8
0
 10
3933.7201017489051083
 20
89.2707936208267228
 30
0.0
 40
0.459685773768535
 50
140.1754168235775069
 51
180.0068702367117055
  0
ARC
  5
7484
  8
0
 10
3933.3426733803421484
 20
89.5851307224644984
 30
0.0
 40
0.0314978538270954
 50
320.7325765728630245
 51
342.2079489171330806
  0
ARC
  5
7485
  8
0
 10
3933.420386669448817
 20
89.5607961385370146
 30
0.0
 40
0.04993761923906
 50
101.6753714263628012
 51
162.8683966099742122
  0
ARC
  5
7486
  8
0
 10
3933.4204159853329656
 20
89.5607385006968286
 30
0.0
 40
0.0499999999999924
 50
40.6388972053340822
 51
101.6949039880013999
  0
ARC
  5
7487
  8
0
 10
3933.4735340386628195
 20
89.6063287672616866
 30
0.0
 40
0.0199999999648732
 50
220.6388966898360025
 51
329.7700167431046907
  0
ARC
  5
7488
  8
0
 10
3933.6205087416788047
 20
89.5206378956200268
 30
0.0
 40
0.150130799788811
 50
85.5837894774495851
 51
149.7546659598125132
  0
ARC
  5
7489
  8
0
 10
3933.5781873444079793
 20
89.1699310214452083
 30
0.0
 40
0.5032845328205892
 50
76.8913943271032707
 51
83.8541356140548686
  0
ARC
  5
748A
  8
0
 10
3933.5119063811321212
 20
88.8039047222959255
 30
0.0
 40
0.8750000000009318
 50
65.6163608244605996
 51
78.100266208835265
  0
ARC
  5
748B
  8
0
 10
3933.5122855267250088
 20
88.8047063992816845
 30
0.0
 40
0.8741133033265867
 50
63.7599113957317982
 51
65.617301990780021
  0
ARC
  5
748C
  8
0
 10
3933.9076150711712216
 20
89.606778992356567
 30
0.0
 40
0.020093574119664
 50
243.8530357710451995
 51
318.6191229340795985
  0
ARC
  5
748D
  8
0
 10
3933.9604159853320198
 20
89.5606798304970937
 30
0.0
 40
0.0499999999999984
 50
75.3649046462306842
 51
138.9800720825789995
  0
ARC
  5
748E
  8
0
 10
3933.9501288744659178
 20
89.5529780922581438
 30
0.0
 40
0.0605825296857918
 50
2.3448980488390538
 51
67.7696966621211203
  0
ARC
  5
748F
  8
0
 10
3934.0298776720101159
 20
89.5564429435299161
 30
0.0
 40
0.0192422825324219
 50
182.9375888310497089
 51
253.4737390834094128
  0
ARC
  5
7490
  8
0
 10
3934.3211906451288087
 20
90.498296526077965
 30
0.0
 40
1.0051169941022711
 50
252.8259351867280884
 51
269.9558412189524006
  0
LINE
  5
7491
  8
0
 10
3935.0504159853330748
 20
89.4932385006967763
 30
0.0
 11
3935.0980495300332223
 21
89.4932385006967763
 31
0.0
  0
LINE
  5
7492
  8
0
 10
3935.0980495300332223
 20
89.4932385006967763
 30
0.0
 11
3935.1027404521328208
 21
89.4937964006967661
 31
0.0
  0
ARC
  5
7493
  8
0
 10
3934.8684227159078546
 20
90.4653805033960339
 30
0.0
 40
0.9994400783312656
 50
283.5591460055010771
 51
303.7884879340006137
  0
ARC
  5
7494
  8
0
 10
3929.3458753998270367
 20
98.424007521538158
 30
0.0
 40
10.6863263171292893
 50
304.6664721219027001
 51
304.8489273640387864
  0
ARC
  5
7495
  8
0
 10
3934.8681943437159134
 20
90.4659013966190741
 30
0.0
 40
1.0000000000275311
 50
305.7326345050615259
 51
307.054291355977
  0
ARC
  5
7496
  8
0
 10
3935.458282725439858
 20
89.6842567867438731
 30
0.0
 40
0.0206265418741234
 50
307.2430445998091955
 51
331.1167329639538934
  0
ARC
  5
7497
  8
0
 10
3935.5203107120751156
 20
89.6509178666812119
 30
0.0
 40
0.0497950454224689
 50
110.6085530565177066
 51
152.0020960273004107
  0
ARC
  5
7498
  8
0
 10
3935.5204159853319652
 20
89.6507385006967752
 30
0.0
 40
0.0500000000000002
 50
359.9999999999992042
 51
110.6491219322397939
  0
ARC
  5
7499
  8
0
 10
3933.7207305037850347
 20
89.270793710816406
 30
0.0
 40
0.4603145286541775
 50
180.0068720535878981
 51
219.7962254271967026
  0
ARC
  5
749A
  8
0
 10
3933.3452335042120467
 20
88.9576206930784394
 30
0.0
 40
0.0286400534396049
 50
16.7058700055465792
 51
40.3536059270233523
  0
ARC
  5
749B
  8
0
 10
3933.4206279184800223
 20
88.980913372325233
 30
0.0
 40
0.0502719078455918
 50
197.431650069669189
 51
258.1225112901566945
  0
ARC
  5
749C
  8
0
 10
3933.4202857102159214
 20
88.981061787793152
 30
0.0
 40
0.0503480386850889
 50
258.5383703534488973
 51
319.1278207351147103
  0
ARC
  5
749D
  8
0
 10
3933.473534038672824
 20
88.9350895640401689
 30
0.0
 40
0.0199999999020376
 50
30.2299830039060495
 51
139.361103296044007
  0
ARC
  5
749E
  8
0
 10
3933.6204159853350575
 20
89.0206798305023881
 30
0.0
 40
0.1500000000050542
 50
210.22998310528709
 51
274.4562258484817221
  0
ARC
  5
749F
  8
0
 10
3933.5506156111628115
 20
89.5364902218135654
 30
0.0
 40
0.6703243778754682
 50
276.9795904762000873
 51
282.2062203652433823
  0
ARC
  5
74A0
  8
0
 10
3933.51013815874785
 20
89.7421162821954255
 30
0.0
 40
0.8798687259025227
 50
281.9513892337473067
 51
294.366352392224087
  0
ARC
  5
74A1
  8
0
 10
3933.4026999794778021
 20
89.9734249337665659
 30
0.0
 40
1.134902153139673
 50
294.4894019187324261
 51
295.9186705443427741
  0
ARC
  5
74A2
  8
0
 10
3933.9076561835349821
 20
88.9350053459222352
 30
0.0
 40
0.0197841356083433
 50
40.5367475030635376
 51
116.7222921220037932
  0
ARC
  5
74A3
  8
0
 10
3933.9600891213458453
 20
88.9798005457714538
 30
0.0
 40
0.0491783423530873
 50
220.4969466261204047
 51
285.2969442034915915
  0
ARC
  5
74A4
  8
0
 10
3933.9462306042660202
 20
88.9910251684161153
 30
0.0
 40
0.0645063747551229
 50
294.5805239515436824
 51
357.2128941482307027
  0
ARC
  5
74A5
  8
0
 10
3934.0302915231500265
 20
88.9843673906065078
 30
0.0
 40
0.0199441406487738
 50
107.169230247194605
 51
169.8310768043482994
  0
ARC
  5
74A6
  8
0
 10
3934.7104159853320198
 20
89.2706365989992037
 30
0.0
 40
0.4398980963836679
 50
329.6159671776396181
 51
329.6309809387951191
  0
LINE
  5
74A7
  8
0
 10
3935.0504159853330748
 20
89.048238500722519
 30
0.0
 11
3935.0980495300332223
 21
89.048238500722519
 31
0.0
  0
LINE
  5
74A8
  8
0
 10
3935.0980495300332223
 20
89.048238500722519
 30
0.0
 11
3935.1027404521328208
 21
89.0476806007225434
 31
0.0
  0
ARC
  5
74A9
  8
0
 10
3934.8684227159078546
 20
88.0760964980233041
 30
0.0
 40
0.9994400783312656
 50
56.2115120659985621
 51
76.4408539944986671
  0
ARC
  5
74AA
  8
0
 10
3929.3458753998270367
 20
80.1174694798813931
 30
0.0
 40
10.6863263171292893
 50
55.1510726359602899
 51
55.3335278780963833
  0
ARC
  5
74AB
  8
0
 10
3934.8681943437159134
 20
88.0755756048002638
 30
0.0
 40
1.0000000000275311
 50
52.9457086440221332
 51
54.2673654949379625
  0
ARC
  5
74AC
  8
0
 10
3935.4591055552491525
 20
88.8580950557129938
 30
0.0
 40
0.0194325337521468
 50
27.4934962186557605
 51
53.127233138576301
  0
ARC
  5
74AD
  8
0
 10
3935.5205376635121866
 20
88.8909376904737485
 30
0.0
 40
0.0502293213358809
 50
208.3758367565532978
 51
249.301123486309308
  0
ARC
  5
74AE
  8
0
 10
3935.5204159853319652
 20
88.8907385007225344
 30
0.0
 40
0.0500000000000002
 50
249.3508780677599077
 51
359.9999999999992042
  0
LINE
  5
74AF
  8
0
 10
3933.3726647483331362
 20
88.9658535239971116
 30
0.0
 11
3933.3726647483331362
 21
89.575506137186224
 31
0.0
  0
LINE
  5
74B0
  8
0
 10
3933.4583574520161164
 20
89.5933029768309268
 30
0.0
 11
3933.4583574520770526
 21
88.9481153544337246
 31
0.0
  0
LINE
  5
74B1
  8
0
 10
3934.0106606747831393
 20
89.5554568123822889
 30
0.0
 11
3934.0106606747831393
 21
88.9878885464666212
 31
0.0
  0
LINE
  5
74B2
  8
0
 10
3933.9226919177249329
 20
89.5934959046551569
 30
0.0
 11
3933.9226919144321073
 21
88.9478637602153128
 31
0.0
  0
LINE
  5
74B3
  8
0
 10
3935.4763434416317978
 20
89.674293616551239
 30
0.0
 11
3935.4763434416317978
 21
88.867066044497065
 31
0.0
  0
LINE
  5
74B4
  8
0
 10
3935.5704159853330566
 20
89.6507385002967681
 30
0.0
 11
3935.5704159853330566
 21
88.8907385006967843
 31
0.0
  0
ARC
  5
74B5
  8
0
 10
3934.3211906451288087
 20
88.0431804753414156
 30
0.0
 40
1.0051169941022711
 50
90.0441587810475426
 51
107.1740648132717979
  0
ARC
  5
74B6
  8
0
 10
3935.8004137038228691
 20
92.4907400649379525
 30
0.0
 40
0.0600000000000014
 50
270.0
 51
0.0000139507730584
  0
ARC
  5
74B7
  8
0
 10
3935.8004137038228691
 20
92.4907400649379525
 30
0.0
 40
0.0599999999999987
 50
0.0000139507730584
 51
90.0
  0
ARC
  5
74B8
  8
0
 10
3935.545584420153773
 20
92.0831057274911302
 30
0.0
 40
0.0149999999729648
 50
178.2386854585309095
 51
250.2980670488173871
  0
ARC
  5
74B9
  8
0
 10
3935.9104119725238888
 20
92.0718871245379376
 30
0.0
 40
0.3799999999999766
 50
163.8469051182767942
 51
178.2386853490087901
  0
ARC
  5
74BA
  8
0
 10
3935.9104119725238888
 20
92.071887124537966
 30
0.0
 40
0.3799999999999399
 50
142.1359283197670038
 51
163.8469051182815122
  0
ARC
  5
74BB
  8
0
 10
3935.910411972629845
 20
92.0718871244275476
 30
0.0
 40
0.3800000001516206
 50
109.2046210787132026
 51
142.1359283164580916
  0
ARC
  5
74BC
  8
0
 10
3935.530413703711929
 20
92.0407400649723968
 30
0.0
 40
0.0300000001116234
 50
296.6209899979396027
 51
359.9999999342263095
  0
ARC
  5
74BD
  8
0
 10
3935.5304137038228873
 20
92.0407400649379639
 30
0.0
 40
0.0299999999999997
 50
359.9999999999992042
 51
70.2980661579513537
  0
ARC
  5
74BE
  8
0
 10
3935.5505776020290796
 20
92.0005105083417902
 30
0.0
 40
0.0150000001333886
 50
116.6209901611516955
 51
201.1160024484289863
  0
ARC
  5
74BF
  8
0
 10
3934.4917551464241114
 20
91.591707367838012
 30
0.0
 40
1.119999999999941
 50
12.0944728953449907
 51
21.1111236260351482
  0
ARC
  5
74C0
  8
0
 10
3934.4917551566832117
 20
91.5917073695927257
 30
0.0
 40
1.119999989600811
 50
3.0777588020460409
 51
12.0944746250836008
  0
ARC
  5
74C1
  8
0
 10
3935.4204137646452182
 20
91.6416401593062062
 30
0.0
 40
0.1899999392614955
 50
0.0000028316401996
 51
3.0777661030752101
  0
ARC
  5
74C2
  8
0
 10
3935.4204136984440083
 20
91.6416401618401721
 30
0.0
 40
0.1900000054621441
 50
346.0713877006828056
 51
0.000002067500182
  0
ARC
  5
74C3
  8
0
 10
3935.4204137038232147
 20
91.6416401608379658
 30
0.0
 40
0.1900000000000093
 50
321.8545551617888805
 51
346.0713876035662224
  0
ARC
  5
74C4
  8
0
 10
3935.4204137038232147
 20
91.6416401608381079
 30
0.0
 40
0.1900000000002165
 50
310.3281828125111019
 51
321.8545551617824003
  0
ARC
  5
74C5
  8
0
 10
3935.5530824970169306
 20
91.485358391829493
 30
0.0
 40
0.0150000000936293
 50
130.3281831217711897
 51
213.1665029583705859
  0
ARC
  5
74C6
  8
0
 10
3935.5154137031840946
 20
91.4607400646413566
 30
0.0
 40
0.0300000006977342
 50
0.000000566456687
 51
33.1665028083465785
  0
ARC
  5
74C7
  8
0
 10
3935.5154137037511646
 20
91.4607400650559157
 30
0.0
 40
0.0300000001305341
 50
282.0959301222669069
 51
359.9999997747040084
  0
ARC
  5
74C8
  8
0
 10
3935.5248434134600757
 20
91.4167391493927539
 30
0.0
 40
0.014999999918365
 50
102.0959295420355062
 51
151.3300452943207972
  0
ARC
  5
74C9
  8
0
 10
3938.3632255375459863
 20
89.8647043800550023
 30
0.0
 40
3.2500000009931642
 50
151.3300461348210035
 51
175.9559069596199947
  0
ARC
  5
74CA
  8
0
 10
3935.1362804521118051
 20
90.0928499960554348
 30
0.0
 40
0.0149999999995965
 50
175.9559070521052035
 51
249.3539172388350948
  0
ARC
  5
74CB
  8
0
 10
3935.1204137038221234
 20
90.0507400649355532
 30
0.0
 40
0.0300000000029107
 50
0.0000000045889552
 51
69.3539169586741906
  0
ARC
  5
74CC
  8
0
 10
3935.1204137038230328
 20
90.0507400649397312
 30
0.0
 40
0.0300000000017668
 50
270.0000000014069883
 51
359.9999999966266842
  0
ARC
  5
74CD
  8
0
 10
3935.1186926393947942
 20
90.0057729888230966
 30
0.0
 40
0.0149999999131642
 50
93.7968762018281552
 51
152.9253237734131972
  0
ARC
  5
74CE
  8
0
 10
3936.6635610379021273
 20
89.2160853009229555
 30
0.0
 40
1.75000000371895
 50
152.9253237423901055
 51
165.8497537371493138
  0
ARC
  5
74CF
  8
0
 10
3933.6204137069062199
 20
92.490740066251405
 30
0.0
 40
0.0600000030230784
 50
179.9999872417648987
 51
270.0136777596474076
  0
ARC
  5
74D0
  8
0
 10
3933.6204137066979456
 20
92.4907400638335844
 30
0.0
 40
0.060000002814092
 50
89.9863220407444544
 51
179.9999849329066137
  0
ARC
  5
74D1
  8
0
 10
3933.8821614800599491
 20
92.0838682603745013
 30
0.0
 40
0.0157284190673275
 50
288.8550377125616251
 51
358.901643150116513
  0
ARC
  5
74D2
  8
0
 10
3933.6320665423049832
 20
92.0834240509981754
 30
0.0
 40
0.265820505229363
 50
0.0307612240420014
 51
19.6149026686323609
  0
ARC
  5
74D3
  8
0
 10
3933.3384914269759065
 20
91.9626278629199021
 30
0.0
 40
0.5831094125291387
 50
21.1119751453679498
 51
35.9704253636646598
  0
ARC
  5
74D4
  8
0
 10
3933.5104154356818071
 20
92.0718871251473274
 30
0.0
 40
0.3799999992556018
 50
37.8640716607787766
 51
70.7953789792275074
  0
ARC
  5
74D5
  8
0
 10
3933.8923296385610229
 20
92.037730049369884
 30
0.0
 40
0.0271491221289341
 50
175.1095860696283069
 51
241.2821646216922886
  0
ARC
  5
74D6
  8
0
 10
3933.8980699860940149
 20
92.0379617035155633
 30
0.0
 40
0.0328567173982606
 50
109.2369298675594962
 51
176.3655360221110016
  0
ARC
  5
74D7
  8
0
 10
3933.8724016773139738
 20
92.0020463383023355
 30
0.0
 40
0.0137246768557569
 50
329.6264208320898206
 51
59.9008211811558624
  0
ARC
  5
74D8
  8
0
 10
3934.9290722612331592
 20
91.5917073678255349
 30
0.0
 40
1.120000000000366
 50
158.8888763707388989
 51
167.9055271014296125
  0
ARC
  5
74D9
  8
0
 10
3934.9290722509731495
 20
91.5917073695804334
 30
0.0
 40
1.119999989600811
 50
167.9055253716950062
 51
176.9222411947339992
  0
ARC
  5
74DA
  8
0
 10
3934.0004136430138715
 20
91.6416401593461103
 30
0.0
 40
0.1899999392614955
 50
176.9222338937047994
 51
179.9999971651386943
  0
ARC
  5
74DB
  8
0
 10
3934.0004137092150813
 20
91.6416401618801046
 30
0.0
 40
0.1900000054621441
 50
179.9999979292786918
 51
193.9286122960951104
  0
ARC
  5
74DC
  8
0
 10
3934.0004137038358749
 20
91.6416401608778557
 30
0.0
 40
0.1900000000000093
 50
193.9286123932172075
 51
218.1454448349959137
  0
ARC
  5
74DD
  8
0
 10
3934.0004137038358749
 20
91.6416401608780262
 30
0.0
 40
0.1900000000002165
 50
218.1454448350023085
 51
229.6718171842522906
  0
ARC
  5
74DE
  8
0
 10
3933.8677449107740358
 20
91.4853583919547191
 30
0.0
 40
0.0149999999432309
 50
326.8334960948731123
 51
49.6718170921799569
  0
ARC
  5
74DF
  8
0
 10
3933.9054137039988746
 20
91.4607400648150985
 30
0.0
 40
0.0300000002137138
 50
146.8334969838244888
 51
179.9999996757076133
  0
ARC
  5
74E0
  8
0
 10
3933.9054137038428962
 20
91.4607400650542957
 30
0.0
 40
0.0300000000583523
 50
180.0000001325456083
 51
257.9040711254917824
  0
ARC
  5
74E1
  8
0
 10
3933.8959839941230712
 20
91.41673914938373
 30
0.0
 40
0.0150000000000067
 50
28.6699547705215885
 51
77.904067928633026
  0
ARC
  5
74E2
  8
0
 10
3931.0576018700130589
 20
89.8647043802603491
 30
0.0
 40
3.2500000009931642
 50
4.0440930371577721
 51
28.6699538619617513
  0
ARC
  5
74E3
  8
0
 10
3934.2845469554599731
 20
90.09284999607938
 30
0.0
 40
0.0149999999995965
 50
290.646082757936199
 51
4.0440929446743032
  0
ARC
  5
74E4
  8
0
 10
3934.3004137035850363
 20
90.0507400651678154
 30
0.0
 40
0.0299999997495455
 50
110.6460828870448978
 51
180.0000003917377001
  0
ARC
  5
74E5
  8
0
 10
3934.3004137036841712
 20
90.0507400648091192
 30
0.0
 40
0.0299999998481049
 50
179.9999997066788922
 51
270.0000001169353254
  0
ARC
  5
74E6
  8
0
 10
3934.3021347681719817
 20
90.0057729888460756
 30
0.0
 40
0.0149999999131642
 50
27.0746762233685416
 51
86.2031237949599642
  0
ARC
  5
74E7
  8
0
 10
3932.7572663696209929
 20
89.2160853010327486
 30
0.0
 40
1.75000000371895
 50
14.1502462596310608
 51
27.0746762543804387
  0
LINE
  5
74E8
  8
0
 10
3935.8004137038228691
 20
92.5507400649379406
 30
0.0
 11
3933.6204280302240477
 21
92.5507400649379832
 31
0.0
  0
LINE
  5
74E9
  8
0
 10
3935.8004137038228691
 20
92.4307400649379503
 30
0.0
 11
3933.6204280302240477
 21
92.4307400649379929
 31
0.0
  0
LINE
  5
74EA
  8
0
 10
3935.1309915360147897
 20
90.0788133523499823
 30
0.0
 11
3934.2898358715988252
 21
90.0788133523379742
 31
0.0
  0
LINE
  5
74EB
  8
0
 10
3934.3004137037441978
 20
90.0207400649610037
 30
0.0
 11
3935.1204137038221234
 21
90.0207400649379679
 31
0.0
  0
LINE
  5
74EC
  8
0
 10
3933.8991272312377987
 20
91.4314061211379823
 30
0.0
 11
3935.5217001770101888
 21
91.4314061212059244
 31
0.0
  0
LINE
  5
74ED
  8
0
 10
3935.5405262325239164
 20
91.4771522828379489
 30
0.0
 11
3933.880301175006025
 21
91.4771522828379773
 31
0.0
  0
LINE
  5
74EE
  8
0
 10
3933.8792845799230236
 20
92.0139203606379965
 30
0.0
 11
3935.5438563025668373
 21
92.0139203605982345
 31
0.0
  0
LINE
  5
74EF
  8
0
 10
3935.540527514716814
 20
92.0689838399903664
 30
0.0
 11
3933.8872445101401354
 21
92.0689838399436269
 31
0.0
  0
LINE
  5
74F0
  8
0
 10
3934.9740683884660939
 20
89.6229987868765647
 30
0.0
 11
3934.4467590189751718
 21
89.6229987868765932
 31
0.0
  0
LINE
  5
74F1
  8
0
 10
3935.0504159853330748
 20
89.5500236287651461
 30
0.0
 11
3935.0504159853330748
 21
88.9914568987651364
 31
0.0
  0
ARC
  5
74F2
  8
0
 10
3934.7104127817819972
 20
89.2707440012613347
 30
0.0
 40
0.4400039363971717
 50
270.0001200514968787
 51
320.5994644371940012
  0
ARC
  5
74F3
  8
0
 10
3934.710322481635103
 20
89.2706387309378613
 30
0.0
 40
0.4401357885829175
 50
39.4029115944187822
 51
53.1846868450924504
  0
LINE
  5
74F4
  8
0
 10
3934.3704159853327837
 20
89.5500218657059293
 30
0.0
 11
3934.3704159853327837
 21
88.9914551357134371
 31
0.0
  0
ARC
  5
74F5
  8
0
 10
3934.7104161538431981
 20
89.2707406442530811
 30
0.0
 40
0.4400005793947536
 50
219.4006260326681002
 51
269.9996809510312232
  0
ARC
  5
74F6
  8
0
 10
3934.7104892701199788
 20
89.270683124229663
 30
0.0
 40
0.4400908673400562
 50
126.8171447620242986
 51
140.6000607551987969
  0
ARC
  5
74F7
  8
0
 10
3934.4347747151200565
 20
89.639010546965153
 30
0.0
 40
0.0199999999999997
 50
306.8137106168957189
 51
14.1502462597566492
  0
ARC
  5
74F8
  8
0
 10
3934.9860526923957877
 20
89.6390105469687342
 30
0.0
 40
0.0200000000732196
 50
165.849753814951697
 51
233.1862891746563946
  0
LINE
  5
74F9
  8
0
 10
3934.3204159853330566
 20
89.493179830497084
 30
0.0
 11
3934.3704159853327837
 21
89.493179830497084
 31
0.0
  0
LINE
  5
74FA
  8
0
 10
3934.3204159853330566
 20
89.0482971709222539
 30
0.0
 11
3934.3704159853327837
 21
89.0482971709222539
 31
0.0
  0
LINE
  5
74FB
  8
0
 10
3953.0404159853328565
 20
89.4931798304968993
 30
0.0
 11
3952.9904159853331294
 21
89.4931798304968993
 31
0.0
  0
LINE
  5
74FC
  8
0
 10
3953.0404159853328565
 20
89.0482971709220834
 30
0.0
 11
3952.9904159853331294
 21
89.0482971709220834
 31
0.0
  0
ENDSEC
  0
EOF
