  0
SECTION
  2
HEADER
  9
$ACADVER
  1
AC1009
  9
$INSBASE
 10
4379.6063426293812881
 20
211.3514720451130984
 30
0.0
  9
$EXTMIN
 10
4378.503980424630754
 20
207.1406721249429097
 30
0.0
  9
$EXTMAX
 10
4380.7087048341300033
 20
211.356303708891005
 30
0.0
  9
$LIMMIN
 10
0.0
 20
0.0
  9
$LIMMAX
 10
11.6929133858000007
 20
8.2677165353999982
  9
$ORTHOMODE
 70
     0
  9
$REGENMODE
 70
     1
  9
$FILLMODE
 70
     1
  9
$QTEXTMODE
 70
     0
  9
$MIRRTEXT
 70
     0
  9
$DRAGMODE
 70
     2
  9
$LTSCALE
 40
0.6431102362
  9
$OSMODE
 70
   563
  9
$ATTMODE
 70
     1
  9
$TEXTSIZE
 40
0.2
  9
$TRACEWID
 40
0.05
  9
$TEXTSTYLE
  7
STANDARD
  9
$CLAYER
  8
0
  9
$CELTYPE
  6
BYLAYER
  9
$CECOLOR
 62
   256
  9
$DIMSCALE
 40
1.0
  9
$DIMASZ
 40
0.1875
  9
$DIMEXO
 40
0.0625
  9
$DIMDLI
 40
0.4443307087
  9
$DIMRND
 40
0.0
  9
$DIMDLE
 40
0.0
  9
$DIMEXE
 40
0.125
  9
$DIMTP
 40
0.01
  9
$DIMTM
 40
0.01
  9
$DIMTXT
 40
2.0
  9
$DIMCEN
 40
0.1052362205
  9
$DIMTSZ
 40
0.0
  9
$DIMTOL
 70
     1
  9
$DIMLIM
 70
     0
  9
$DIMTIH
 70
     1
  9
$DIMTOH
 70
     1
  9
$DIMSE1
 70
     0
  9
$DIMSE2
 70
     0
  9
$DIMTAD
 70
     0
  9
$DIMZIN
 70
     0
  9
$DIMBLK
  1

  9
$DIMASO
 70
     1
  9
$DIMSHO
 70
     1
  9
$DIMPOST
  1
\X
  9
$DIMAPOST
  1

  9
$DIMALT
 70
     1
  9
$DIMALTD
 70
     2
  9
$DIMALTF
 40
25.3999999999999986
  9
$DIMLFAC
 40
1.0
  9
$DIMTOFL
 70
     0
  9
$DIMTVP
 40
0.0
  9
$DIMTIX
 70
     0
  9
$DIMSOXD
 70
     0
  9
$DIMSAH
 70
     0
  9
$DIMBLK1
  1

  9
$DIMBLK2
  1

  9
$DIMSTYLE
  2
STANDARD
  9
$DIMCLRD
 70
     0
  9
$DIMCLRE
 70
     0
  9
$DIMCLRT
 70
     0
  9
$DIMTFAC
 40
1.0
  9
$DIMGAP
 40
0.09
  9
$LUNITS
 70
     2
  9
$LUPREC
 70
     4
  9
$SKETCHINC
 40
0.1
  9
$FILLETRAD
 40
0.0
  9
$AUNITS
 70
     0
  9
$AUPREC
 70
     0
  9
$MENU
  1
.
  9
$ELEVATION
 40
0.0
  9
$PELEVATION
 40
0.0
  9
$THICKNESS
 40
0.0
  9
$LIMCHECK
 70
     0
  9
$BLIPMODE
 70
     0
  9
$CHAMFERA
 40
0.0
  9
$CHAMFERB
 40
0.0
  9
$SKPOLY
 70
     0
  9
$TDCREATE
 40
2458060.468368056230247
  9
$TDUPDATE
 40
2459233.618171296082437
  9
$TDINDWG
 40
0.466534838
  9
$TDUSRTIMER
 40
0.466534838
  9
$USRTIMER
 70
     1
  9
$ANGBASE
 50
0.0
  9
$ANGDIR
 70
     0
  9
$PDMODE
 70
     0
  9
$PDSIZE
 40
0.3125
  9
$PLINEWID
 40
0.0
  9
$COORDS
 70
     1
  9
$SPLFRAME
 70
     0
  9
$SPLINETYPE
 70
     6
  9
$SPLINESEGS
 70
     8
  9
$ATTDIA
 70
     1
  9
$ATTREQ
 70
     1
  9
$HANDLING
 70
     1
  9
$HANDSEED
  5
1CB6E
  9
$SURFTAB1
 70
     6
  9
$SURFTAB2
 70
     6
  9
$SURFTYPE
 70
     6
  9
$SURFU
 70
     6
  9
$SURFV
 70
     6
  9
$UCSNAME
  2

  9
$UCSORG
 10
0.0
 20
0.0
 30
0.0
  9
$UCSXDIR
 10
1.0
 20
0.0
 30
0.0
  9
$UCSYDIR
 10
0.0
 20
1.0
 30
0.0
  9
$PUCSNAME
  2

  9
$PUCSORG
 10
0.0
 20
0.0
 30
0.0
  9
$PUCSXDIR
 10
1.0
 20
0.0
 30
0.0
  9
$PUCSYDIR
 10
0.0
 20
1.0
 30
0.0
  9
$USERI1
 70
     0
  9
$USERI2
 70
     0
  9
$USERI3
 70
     0
  9
$USERI4
 70
     0
  9
$USERI5
 70
     0
  9
$USERR1
 40
0.0
  9
$USERR2
 40
0.0
  9
$USERR3
 40
0.0
  9
$USERR4
 40
0.0
  9
$USERR5
 40
0.0
  9
$WORLDVIEW
 70
     1
  9
$SHADEDGE
 70
     3
  9
$SHADEDIF
 70
    70
  9
$TILEMODE
 70
     1
  9
$MAXACTVP
 70
    64
  9
$PLIMCHECK
 70
     0
  9
$PEXTMIN
 10
1.0000000000000000E+20
 20
1.0000000000000000E+20
 30
1.0000000000000000E+20
  9
$PEXTMAX
 10
-1.0000000000000000E+20
 20
-1.0000000000000000E+20
 30
-1.0000000000000000E+20
  9
$PLIMMIN
 10
0.0
 20
0.0
  9
$PLIMMAX
 10
12.0
 20
9.0
  9
$UNITMODE
 70
     0
  9
$VISRETAIN
 70
     1
  9
$PLINEGEN
 70
     0
  9
$PSLTSCALE
 70
     1
  0
ENDSEC
  0
SECTION
  2
TABLES
  0
TABLE
  2
VPORT
 70
     1
  0
VPORT
  2
*ACTIVE
 70
     0
 10
0.0
 20
0.0
 11
1.0
 21
1.0
 12
468.2409861826242832
 22
76.6688828017026083
 13
0.0
 23
0.0
 14
1.0
 24
1.0
 15
0.0
 25
0.0
 16
0.0
 26
0.0
 36
60.4960186965801583
 17
3911.3653564453120453
 27
132.5796051025390057
 37
0.0
 40
6.1957179492855374
 41
1.9002217294900221
 42
50.0
 43
0.0
 44
0.0
 50
0.0
 51
0.0
 71
     0
 72
   100
 73
     1
 74
     1
 75
     0
 76
     0
 77
     0
 78
     0
  0
ENDTAB
  0
TABLE
  2
LTYPE
 70
     2
  0
LTYPE
  2
CONTINUOUS
 70
     0
  3
Solid line
 72
    65
 73
     0
 40
0.0
  0
LTYPE
  2
PHANTOM2
 70
     0
  3
___ _ _ ___ _ _ ___ _ _ ___ _ _
 72
    65
 73
     6
 40
1.25
 49
0.625
 49
-0.125
 49
0.125
 49
-0.125
 49
0.125
 49
-0.125
  0
ENDTAB
  0
TABLE
  2
LAYER
 70
     2
  0
LAYER
  2
0
 70
     0
 62
   255
  6
CONTINUOUS
  0
LAYER
  2
DEFPOINTS
 70
     0
 62
     7
  6
CONTINUOUS
  0
ENDTAB
  0
TABLE
  2
STYLE
 70
     1
  0
STYLE
  2
STANDARD
 70
     0
 40
0.0
 41
0.8
 50
0.0
 71
     0
 42
0.2
  3
txt
  4

  0
ENDTAB
  0
TABLE
  2
VIEW
 70
     0
  0
ENDTAB
  0
TABLE
  2
UCS
 70
     0
  0
ENDTAB
  0
TABLE
  2
APPID
 70
    11
  0
APPID
  2
ACAD
 70
     0
  0
APPID
  2
ACAD_MLEADERVER
 70
     0
  0
APPID
  2
ACAD_EXEMPT_FROM_CAD_STANDARDS
 70
     0
  0
APPID
  2
ACAD_NAV_VCDISPLAY
 70
     0
  0
APPID
  2
ACAECLAYERSTANDARD
 70
     0
  0
APPID
  2
ACCMTRANSPARENCY
 70
     0
  0
APPID
  2
ACAD_DSTYLE_DIMJAG
 70
     0
  0
APPID
  2
ACAD_DSTYLE_DIMTALN
 70
     0
  0
APPID
  2
ACDBATTR
 70
     0
  0
APPID
  2
ACADANNOTATIVE
 70
     0
  0
APPID
  2
DCO15
 70
     0
  0
ENDTAB
  0
TABLE
  2
DIMSTYLE
 70
     1
  0
DIMSTYLE
  2
STANDARD
 70
     0
  3

  4

  5

  6

  7

 40
1.0
 41
0.1875
 42
0.0625
 43
0.38
 44
0.125
 45
0.0
 46
0.0
 47
0.01
 48
0.01
140
0.15625
141
0.09
142
0.0
143
25.3999999999999986
144
1.0
145
0.0
146
1.0
147
0.09
 71
     1
 72
     0
 73
     1
 74
     1
 75
     0
 76
     0
 77
     0
 78
     4
170
     0
171
     2
172
     0
173
     0
174
     0
175
     0
176
     0
177
     0
178
     0
  0
ENDTAB
  0
ENDSEC
  0
SECTION
  2
BLOCKS
  0
BLOCK
  8
0
  2
$MODEL_SPACE
 70
     0
 10
0.0
 20
0.0
 30
0.0
  3
$MODEL_SPACE
  1

  0
ENDBLK
  5
21
  8
0
  0
BLOCK
 67
     1
  8
0
  2
$PAPER_SPACE
 70
     0
 10
0.0
 20
0.0
 30
0.0
  3
$PAPER_SPACE
  1

  0
ENDBLK
  5
1D
 67
     1
  8
0
  0
ENDSEC
  0
SECTION
  2
ENTITIES
  0
LINE
  5
1C9F4
  8
0
 10
4378.503980424630754
 20
211.2139420589130907
 30
0.0
 11
4378.503980424630754
 21
211.3514720451130984
 31
0.0
  0
LINE
  5
1C9F5
  8
0
 10
4380.3647675583306409
 20
210.9417710613130907
 30
0.0
 11
4380.6926167901956433
 21
211.1821938314130023
 31
0.0
  0
LINE
  5
1C9F6
  8
0
 10
4380.2172749205310538
 20
208.5328482349129899
 30
0.0
 11
4378.9952495213310613
 21
208.5328482349129899
 31
0.0
  0
LINE
  5
1C9F7
  8
0
 10
4379.0157990335301292
 20
208.576155321513113
 30
0.0
 11
4380.196886225230628
 21
208.576155321513113
 31
0.0
  0
LINE
  5
1C9F8
  8
0
 10
4379.1339016845313381
 20
208.5328482349129899
 30
0.0
 11
4379.1339016845313381
 21
208.5367852427129947
 31
0.0
  0
LINE
  5
1C9F9
  8
0
 10
4380.0787835742312382
 20
208.5328482349129899
 30
0.0
 11
4380.0787835742312382
 21
208.5367852427129947
 31
0.0
  0
LINE
  5
1C9FA
  8
0
 10
4378.8479177004310259
 20
210.9417710613130907
 30
0.0
 11
4378.5200684685660235
 21
211.1821938314130023
 31
0.0
  0
LINE
  5
1C9FB
  8
0
 10
4380.7087048341300033
 20
211.2139420589130907
 30
0.0
 11
4380.7087048341300033
 21
211.3514720451130984
 31
0.0
  0
LINE
  5
1C9FC
  8
0
 10
4378.8712089274313257
 20
210.9341492105129987
 30
0.0
 11
4380.3414855240316683
 21
210.9341492105129987
 31
0.0
  0
LINE
  5
1C9FD
  8
0
 10
4380.6926167901956433
 20
211.1821938314130875
 30
0.0
 11
4378.5200684685660235
 21
211.1821938314130875
 31
0.0
  0
LINE
  5
1C9FE
  8
0
 10
4380.7087048341300033
 20
211.3514720451130984
 30
0.0
 11
4378.503980424630754
 21
211.3514720451130984
 31
0.0
  0
CIRCLE
  5
1C9FF
  8
0
 10
4379.6063426294322198
 20
207.5879663451129886
 30
0.0
 40
0.1377952756
  0
ARC
  5
1CA00
  8
0
 10
4378.8711997397140294
 20
210.9735192988364929
 30
0.0
 40
0.0393700893955606
 50
233.7461641024628136
 51
270.0133709989606245
  0
ARC
  5
1CA01
  8
0
 10
4380.3414855240489487
 20
210.9735192890969984
 30
0.0
 40
0.0393700785838842
 50
270.0000009131272236
 51
306.2538384102329019
  0
ARC
  5
1CA02
  8
0
 10
4380.669334755330965
 20
211.2139420589130907
 30
0.0
 40
0.0393700787
 50
306.2538393391516252
 51
0.0
  0
ARC
  5
1CA03
  8
0
 10
4378.5433505034316113
 20
211.2139420589130907
 30
0.0
 40
0.0393700787
 50
180.0
 51
233.7461606608484033
  0
ARC
  5
1CA04
  8
0
 10
4379.0945316057322998
 20
208.5367852427129947
 30
0.0
 40
0.0393700787
 50
0.0
 51
90.0
  0
ARC
  5
1CA05
  8
0
 10
4380.1181536530320955
 20
208.5367852427129947
 30
0.0
 40
0.0393700787
 50
90.0
 51
180.0
  0
ARC
  5
1CA06
  8
0
 10
4380.1791250611913711
 20
207.2311510816776945
 30
0.0
 40
0.0383597497905231
 50
311.5047477332058747
 51
328.0466156124441
  0
ARC
  5
1CA07
  8
0
 10
4379.0334128861723002
 20
207.2310158361974004
 30
0.0
 40
0.0381633728144328
 50
180.0370354192812954
 51
260.5528201378522795
  0
ARC
  5
1CA08
  8
0
 10
4380.1792782879529113
 20
207.2310288340111128
 30
0.0
 40
0.038173911449977
 50
279.4233558610549721
 51
295.8433078414130932
  0
ARC
  5
1CA09
  8
0
 10
4380.1806016795071628
 20
207.230343978181395
 30
0.0
 40
0.0366798549096285
 50
327.8956290886873717
 51
358.9119253591529173
  0
ARC
  5
1CA0A
  8
0
 10
4380.1792890406313745
 20
207.2309646570130042
 30
0.0
 40
0.03811147
 50
295.8708168644787975
 51
311.5058541070001183
  0
ARC
  5
1CA0B
  8
0
 10
4380.1964045240902124
 20
208.5970225641086131
 30
0.0
 40
0.0208728016694269
 50
271.3223856215985279
 51
0.8698204428327557
  0
ARC
  5
1CA0C
  8
0
 10
4379.0164327694419626
 20
208.5973881188174062
 30
0.0
 40
0.0212422527659519
 50
184.27150636508361
 51
268.2903987635006047
  0
ARC
  5
1CA0D
  8
0
 10
4379.6063386228352101
 20
210.3498861393464949
 30
0.0
 40
3.209214014403587
 50
259.602446176575711
 51
280.397553823424289
  0
LINE
  5
1CA0E
  8
0
 10
4379.0271488152793609
 20
207.1933700603333079
 30
0.0
 11
4380.1855284303901499
 21
207.1933700603333079
 31
0.0
  0
LINE
  5
1CA10
  8
0
 10
4378.9952495213310613
 20
207.2309911677764092
 30
0.0
 11
4378.9952495213310613
 21
208.5328482349129899
 31
0.0
  0
LINE
  5
1CA11
  8
0
 10
4378.9952495213310613
 20
208.5958059361472863
 30
0.0
 11
4378.9952495213310613
 21
210.9341492105129987
 31
0.0
  0
LINE
  5
1CA12
  8
0
 10
4380.2172749205310538
 20
207.2296474518147988
 30
0.0
 11
4380.2172749205310538
 21
208.5328482349129899
 31
0.0
  0
LINE
  5
1CA13
  8
0
 10
4380.2172749205310538
 20
208.5967057014638897
 30
0.0
 11
4380.2172749205310538
 21
210.9341492105129987
 31
0.0
  0
ATTDEF
  5
1CA14
  8
DEFPOINTS
 10
4379.6072704071802946
 20
211.3553037088908866
 30
0.0
 40
0.001
  1
K-16087IN-4
  3

  2
MODELNUMBER
 70
     0
1001
ACDBATTR
1070
     0
1070
     1
  0
ATTDEF
  5
1CA15
  8
DEFPOINTS
 10
4379.607144597522165
 20
211.3536368685116997
 30
0.0
 40
0.001
  1
JULY
  3

  2
TRADENAME
 70
     0
1001
ACDBATTR
1070
     0
1070
     1
  0
ATTDEF
  5
1CA16
  8
DEFPOINTS
 10
4379.6072704071802946
 20
211.3519703755576131
 30
0.0
 40
0.001
  1
VALVE TRIM
  3

  2
PRODUCT
 70
     0
1001
ACDBATTR
1070
     0
1070
     1
  0
ENDSEC
  0
EOF
