  0
SECTION
  2
HEADER
  9
$ACADVER
  1
AC1009
  9
$INSBASE
 10
263.0575409693597067
 20
25.5932858246191088
 30
0.0
  9
$EXTMIN
 10
258.424119299948984
 20
25.5926012413993398
 30
-0.0015258207003583
  9
$EXTMAX
 10
264.1256883087929168
 20
31.0765928838772396
 30
0.0000000349246037
  9
$LIMMIN
 10
0.0
 20
0.0
  9
$LIMMAX
 10
11.6929133858000007
 20
8.2677165353999982
  9
$ORTHOMODE
 70
     0
  9
$REGENMODE
 70
     1
  9
$FILLMODE
 70
     1
  9
$QTEXTMODE
 70
     0
  9
$MIRRTEXT
 70
     0
  9
$DRAGMODE
 70
     2
  9
$LTSCALE
 40
0.6431102362
  9
$OSMODE
 70
  4095
  9
$ATTMODE
 70
     1
  9
$TEXTSIZE
 40
0.2
  9
$TRACEWID
 40
0.05
  9
$TEXTSTYLE
  7
STANDARD
  9
$CLAYER
  8
0
  9
$CELTYPE
  6
BYLAYER
  9
$CECOLOR
 62
   256
  9
$DIMSCALE
 40
1.0
  9
$DIMASZ
 40
0.1875
  9
$DIMEXO
 40
0.0625
  9
$DIMDLI
 40
0.4443307087
  9
$DIMRND
 40
0.0
  9
$DIMDLE
 40
0.0
  9
$DIMEXE
 40
0.125
  9
$DIMTP
 40
0.01
  9
$DIMTM
 40
0.01
  9
$DIMTXT
 40
1.0
  9
$DIMCEN
 40
0.1052362205
  9
$DIMTSZ
 40
0.0
  9
$DIMTOL
 70
     1
  9
$DIMLIM
 70
     0
  9
$DIMTIH
 70
     0
  9
$DIMTOH
 70
     1
  9
$DIMSE1
 70
     0
  9
$DIMSE2
 70
     0
  9
$DIMTAD
 70
     0
  9
$DIMZIN
 70
     0
  9
$DIMBLK
  1

  9
$DIMASO
 70
     1
  9
$DIMSHO
 70
     1
  9
$DIMPOST
  1
\X
  9
$DIMAPOST
  1

  9
$DIMALT
 70
     1
  9
$DIMALTD
 70
     2
  9
$DIMALTF
 40
25.3999999999999986
  9
$DIMLFAC
 40
1.0
  9
$DIMTOFL
 70
     0
  9
$DIMTVP
 40
0.0
  9
$DIMTIX
 70
     0
  9
$DIMSOXD
 70
     0
  9
$DIMSAH
 70
     0
  9
$DIMBLK1
  1

  9
$DIMBLK2
  1

  9
$DIMSTYLE
  2
STANDARD
  9
$DIMCLRD
 70
     0
  9
$DIMCLRE
 70
     0
  9
$DIMCLRT
 70
     0
  9
$DIMTFAC
 40
1.0
  9
$DIMGAP
 40
0.09
  9
$LUNITS
 70
     2
  9
$LUPREC
 70
     4
  9
$SKETCHINC
 40
0.1
  9
$FILLETRAD
 40
0.0
  9
$AUNITS
 70
     0
  9
$AUPREC
 70
     0
  9
$MENU
  1
.
  9
$ELEVATION
 40
0.0
  9
$PELEVATION
 40
0.0
  9
$THICKNESS
 40
0.0
  9
$LIMCHECK
 70
     0
  9
$BLIPMODE
 70
     0
  9
$CHAMFERA
 40
0.0
  9
$CHAMFERB
 40
0.0
  9
$SKPOLY
 70
     0
  9
$TDCREATE
 40
2458172.5207638889551163
  9
$TDUPDATE
 40
2459196.4956481480039656
  9
$TDINDWG
 40
0.1162147569
  9
$TDUSRTIMER
 40
0.1162147569
  9
$USRTIMER
 70
     1
  9
$ANGBASE
 50
0.0
  9
$ANGDIR
 70
     0
  9
$PDMODE
 70
     0
  9
$PDSIZE
 40
0.3125
  9
$PLINEWID
 40
0.0
  9
$COORDS
 70
     1
  9
$SPLFRAME
 70
     0
  9
$SPLINETYPE
 70
     6
  9
$SPLINESEGS
 70
     8
  9
$ATTDIA
 70
     1
  9
$ATTREQ
 70
     1
  9
$HANDLING
 70
     1
  9
$HANDSEED
  5
3766
  9
$SURFTAB1
 70
     6
  9
$SURFTAB2
 70
     6
  9
$SURFTYPE
 70
     6
  9
$SURFU
 70
     6
  9
$SURFV
 70
     6
  9
$UCSNAME
  2

  9
$UCSORG
 10
0.0
 20
0.0
 30
0.0
  9
$UCSXDIR
 10
1.0
 20
0.0
 30
0.0
  9
$UCSYDIR
 10
0.0
 20
1.0
 30
0.0
  9
$PUCSNAME
  2

  9
$PUCSORG
 10
0.0
 20
0.0
 30
0.0
  9
$PUCSXDIR
 10
1.0
 20
0.0
 30
0.0
  9
$PUCSYDIR
 10
0.0
 20
1.0
 30
0.0
  9
$USERI1
 70
     0
  9
$USERI2
 70
     0
  9
$USERI3
 70
     0
  9
$USERI4
 70
     0
  9
$USERI5
 70
     0
  9
$USERR1
 40
0.0
  9
$USERR2
 40
0.0
  9
$USERR3
 40
0.0
  9
$USERR4
 40
0.0
  9
$USERR5
 40
0.0
  9
$WORLDVIEW
 70
     1
  9
$SHADEDGE
 70
     3
  9
$SHADEDIF
 70
    70
  9
$TILEMODE
 70
     1
  9
$MAXACTVP
 70
    64
  9
$PLIMCHECK
 70
     0
  9
$PEXTMIN
 10
1.0000000000000000E+20
 20
1.0000000000000000E+20
 30
1.0000000000000000E+20
  9
$PEXTMAX
 10
-1.0000000000000000E+20
 20
-1.0000000000000000E+20
 30
-1.0000000000000000E+20
  9
$PLIMMIN
 10
0.0
 20
0.0
  9
$PLIMMAX
 10
12.0
 20
9.0
  9
$UNITMODE
 70
     0
  9
$VISRETAIN
 70
     1
  9
$PLINEGEN
 70
     0
  9
$PSLTSCALE
 70
     1
  0
ENDSEC
  0
SECTION
  2
TABLES
  0
TABLE
  2
VPORT
 70
     1
  0
VPORT
  2
*ACTIVE
 70
     0
 10
0.0
 20
0.0
 11
1.0
 21
1.0
 12
7.3017440143318577
 22
-0.3786658908985814
 13
0.0
 23
0.0
 14
1.0
 24
1.0
 15
0.0
 25
0.0
 16
0.0
 26
0.0
 36
30.2292614639488484
 17
253.9731597900390909
 27
28.7132629535368693
 37
0.0
 40
5.5566272933716503
 41
2.8407079646017701
 42
50.0
 43
0.0
 44
0.0
 50
0.0
 51
0.0
 71
     0
 72
   100
 73
     1
 74
     1
 75
     0
 76
     0
 77
     0
 78
     0
  0
ENDTAB
  0
TABLE
  2
LTYPE
 70
     2
  0
LTYPE
  2
CONTINUOUS
 70
     0
  3
Solid line
 72
    65
 73
     0
 40
0.0
  0
LTYPE
  2
PHANTOM2
 70
     0
  3
___ _ _ ___ _ _ ___ _ _ ___ _ _
 72
    65
 73
     6
 40
1.25
 49
0.625
 49
-0.125
 49
0.125
 49
-0.125
 49
0.125
 49
-0.125
  0
ENDTAB
  0
TABLE
  2
LAYER
 70
     2
  0
LAYER
  2
0
 70
     0
 62
   255
  6
CONTINUOUS
  0
LAYER
  2
DEFPOINTS
 70
     0
 62
     7
  6
CONTINUOUS
  0
ENDTAB
  0
TABLE
  2
STYLE
 70
     1
  0
STYLE
  2
STANDARD
 70
     0
 40
0.0
 41
0.8
 50
0.0
 71
     0
 42
0.2
  3
txt
  4

  0
ENDTAB
  0
TABLE
  2
VIEW
 70
     0
  0
ENDTAB
  0
TABLE
  2
UCS
 70
     0
  0
ENDTAB
  0
TABLE
  2
APPID
 70
    10
  0
APPID
  2
ACAD
 70
     0
  0
APPID
  2
ACAD_MLEADERVER
 70
     0
  0
APPID
  2
ACAD_EXEMPT_FROM_CAD_STANDARDS
 70
     0
  0
APPID
  2
ACAD_DSTYLE_DIMJAG
 70
     0
  0
APPID
  2
ACAD_DSTYLE_DIMTALN
 70
     0
  0
APPID
  2
ACAD_NAV_VCDISPLAY
 70
     0
  0
APPID
  2
ACAECLAYERSTANDARD
 70
     0
  0
APPID
  2
ACCMTRANSPARENCY
 70
     0
  0
APPID
  2
DCO15
 70
     0
  0
APPID
  2
ACDBATTR
 70
     0
  0
ENDTAB
  0
TABLE
  2
DIMSTYLE
 70
     1
  0
DIMSTYLE
  2
STANDARD
 70
     0
  3

  4

  5

  6

  7

 40
1.0
 41
0.1875
 42
0.0625
 43
0.38
 44
0.125
 45
0.0
 46
0.0
 47
0.01
 48
0.01
140
0.15625
141
0.09
142
0.0
143
25.3999999999999986
144
1.0
145
0.0
146
1.0
147
0.09
 71
     1
 72
     0
 73
     1
 74
     1
 75
     0
 76
     0
 77
     0
 78
     4
170
     0
171
     2
172
     0
173
     0
174
     0
175
     0
176
     0
177
     0
178
     0
  0
ENDTAB
  0
ENDSEC
  0
SECTION
  2
BLOCKS
  0
BLOCK
  8
0
  2
$MODEL_SPACE
 70
     0
 10
0.0
 20
0.0
 30
0.0
  3
$MODEL_SPACE
  1

  0
ENDBLK
  5
21
  8
0
  0
BLOCK
 67
     1
  8
0
  2
$PAPER_SPACE
 70
     0
 10
0.0
 20
0.0
 30
0.0
  3
$PAPER_SPACE
  1

  0
ENDBLK
  5
1D
 67
     1
  8
0
  0
ENDSEC
  0
SECTION
  2
ENTITIES
  0
ATTDEF
  5
829
  8
DEFPOINTS
 10
263.0534059046304947
 20
25.59758169583694
 30
0.0
 40
0.001
  1
K-16027M-B4E2
  3

  2
MODELNUMBER
 70
     0
1001
ACDBATTR
1070
     0
1070
     1
  0
ATTDEF
  5
82A
  8
DEFPOINTS
 10
263.0534059046304947
 20
25.5959150291702713
 30
0.0
 40
0.001
  1
JULY
  3

  2
TRADENAME
 70
     0
1001
ACDBATTR
1070
     0
1070
     1
  0
ATTDEF
  5
82B
  8
DEFPOINTS
 10
263.0534059046304947
 20
25.5942483625036097
 30
0.0
 40
0.001
  1
BATHROOM SINK FAUCET
  3

  2
PRODUCT
 70
     0
1001
ACDBATTR
1070
     0
1070
     1
  0
LINE
  5
3641
  8
0
 10
263.4405645526442186
 20
29.7358471175543215
 30
0.0
 11
264.0786252728441923
 21
30.0350577017543188
 31
0.0
  0
LINE
  5
3642
  8
0
 10
261.9998887680441726
 20
30.1269888706543192
 30
0.0
 11
261.9998887680441726
 21
29.6821045997543216
 31
0.0
  0
LINE
  5
3643
  8
0
 10
262.000805522344308
 20
28.0750369633547017
 30
0.0
 11
262.000805522344308
 21
25.5932863598543108
 31
0.0
  0
LINE
  5
3644
  8
0
 10
264.1142754043443119
 20
30.0911431257122608
 30
0.0
 11
264.1142754043443119
 21
30.9824829155543213
 31
0.0
  0
LINE
  5
3645
  8
0
 10
264.1142754043443119
 20
29.5005086733530995
 30
0.0
 11
264.1142754043443119
 21
25.5932863598543108
 31
0.0
  0
LINE
  5
3646
  8
0
 10
262.000805522344308
 20
25.5932863598543108
 30
0.0
 11
264.1142754043443119
 21
25.5932863598543108
 31
0.0
  0
LINE
  5
3647
  8
0
 10
259.6060671816949252
 20
28.5953126158543114
 30
0.0
 11
261.3913198416415753
 21
28.5942678477886503
 31
0.0
  0
LINE
  5
3648
  8
0
 10
258.4881419472717994
 20
29.5395637305657708
 30
0.0
 11
259.0324870593764217
 21
29.5798979756942018
 31
0.0
  0
LINE
  5
3649
  8
0
 10
264.075891478585504
 20
29.5395637305657708
 30
0.0
 11
258.4881419472717994
 21
29.5395637305657708
 31
0.0
  0
LINE
  5
364A
  8
0
 10
262.0392383612232265
 20
29.6427369021543186
 30
0.0
 11
263.0226910106442233
 21
29.6427369021543186
 31
0.0
  0
ARC
  5
364B
  8
0
 10
258.5038649450563071
 20
29.5055972565043305
 30
0.0
 40
0.0374290531472365
 50
114.8393028794171045
 51
180.8644681920750941
  0
ARC
  5
364C
  8
0
 10
263.1794396928978017
 20
23.6692571943224692
 30
0.0
 40
7.4072124787840918
 50
83.0275983033404543
 51
89.9917157714789653
  0
ARC
  5
364D
  8
0
 10
263.022690990944227
 20
30.6269888706543192
 30
0.0
 40
0.9842519684999999
 50
270.0000011507008821
 51
295.1227868334012214
  0
ARC
  5
364E
  8
0
 10
263.2838080485441878
 20
29.5396582022543193
 30
0.0
 40
0.8661417323
 50
173.165084819642999
 51
180.0062493571726918
  0
ARC
  5
364F
  8
0
 10
263.173571838444218
 20
29.5396581815543087
 30
0.0
 40
0.8661417323
 50
359.9937520121442844
 51
29.3790710440581506
  0
ARC
  5
3650
  8
0
 10
264.0756974181149985
 20
29.5009833126762189
 30
0.0
 40
0.0385809059509825
 50
359.2951042671896857
 51
89.7118032211514276
  0
ARC
  5
3651
  8
0
 10
257.0262763767149181
 20
24.6679311159994299
 30
0.0
 40
4.4958830860389369
 50
62.8097205174235214
 51
70.66140494493159
  0
ARC
  5
3652
  8
0
 10
259.8680651758239719
 20
31.6521883497094301
 30
0.0
 40
3.087298298103081
 50
255.2235872073291034
 51
261.7875369817684827
  0
ARC
  5
3653
  8
0
 10
259.5798903850338775
 20
37.7588408750050633
 30
0.0
 40
9.1635656477671272
 50
269.0443891861847874
 51
270.1636723157051279
  0
ARC
  5
3654
  8
0
 10
261.3864598679099913
 20
27.7673840377556012
 30
0.0
 40
0.8268980920521158
 50
56.2388054628858285
 51
89.6632504184096462
  0
ARC
  5
3655
  8
0
 10
261.5363850924190956
 20
28.1071828881569097
 30
0.0
 40
0.465531627511174
 50
356.0404566392693937
 51
48.3126427496348114
  0
ARC
  5
3656
  8
0
 10
262.3486920289732893
 20
29.4374174938964615
 30
0.0
 40
3.8828406395887232
 50
179.002211569027196
 51
184.890798356181989
  0
LINE
  5
3657
  8
0
 10
259.0324870593764217
 20
29.5798979756942018
 30
0.0
 11
261.5513180940599227
 21
29.5798979756942018
 31
0.0
  0
ARC
  5
3658
  8
0
 10
262.5805204630868843
 20
40.1441748167852523
 30
0.0
 40
10.6142923782804992
 50
264.4356394905905177
 51
267.5526742287481738
  0
ARC
  5
3659
  8
0
 10
262.0379418690008038
 20
29.6807906035048106
 30
0.0
 40
0.0380757807346758
 50
178.0223283781681118
 51
271.951316372932979
  0
ARC
  5
365A
  8
0
 10
264.0503172919475787
 20
30.092424417429541
 30
0.0
 40
0.0639709453565158
 50
296.2643366270575029
 51
358.8523302772082957
  0
ARC
  5
365B
  8
0
 10
264.0748795585145103
 20
30.9824726086955913
 30
0.0
 40
0.0393958471780465
 50
0.0149898924403575
 51
84.5658831083278812
  0
ARC
  5
365C
  8
0
 10
261.1012463496456917
 20
30.2655735654340496
 30
0.0
 40
0.909265590337775
 50
351.2331596710479857
 51
8.7668442630688102
  0
ARC
  5
365D
  8
0
 10
261.6481474060150276
 20
30.4666304325638606
 30
0.0
 40
0.3572460548091259
 50
349.9288266851348226
 51
48.6980006121745177
  0
ARC
  5
365E
  8
0
 10
261.6069880654292206
 20
30.3333753096843814
 30
0.0
 40
0.4878640630600431
 50
55.4112504929965368
 51
93.0066677174504406
  0
ARC
  5
365F
  8
0
 10
260.6985254964567957
 20
12.09453270067349
 30
0.0
 40
18.7468358729469813
 50
87.3006849408656791
 51
90.5997254122142124
  0
ARC
  5
3660
  8
0
 10
261.0406623026416923
 20
237.0300172426968004
 30
0.0
 40
206.1903784549755017
 50
269.6991280900626862
 51
269.8504014645988036
  0
ARC
  5
3661
  8
0
 10
259.9661872998395893
 20
28.1447645044074903
 30
0.0
 40
2.6977298130854099
 50
90.1756016299675309
 51
96.2377999212278041
  0
ARC
  5
3662
  8
0
 10
259.5541736145382856
 20
31.9680347512922793
 30
0.0
 40
1.1476870605545439
 50
271.1218513072807923
 51
275.9460566173714824
  0
ARC
  5
3663
  8
0
 10
259.5102276291298153
 20
32.2794713731977012
 30
0.0
 40
1.460414701599356
 50
259.0285754557543214
 51
272.6065777031923858
  0
ARC
  5
3664
  8
0
 10
259.3053635324570791
 20
31.1254918958954185
 30
0.0
 40
0.2891305812587262
 50
213.3877653336342064
 51
255.3590012882073097
  0
ARC
  5
3665
  8
0
 10
259.0982018938719875
 20
30.9857954140968985
 30
0.0
 40
0.0393710880231598
 50
114.2538145091930062
 51
209.5427071609626921
  0
LINE
  5
3666
  8
0
 10
263.1805106799963028
 20
31.0764695956811288
 30
0.0
 11
259.5872468792421728
 21
31.0764695956811288
 31
0.0
  0
ARC
  5
3667
  8
0
 10
259.5889174840407918
 20
28.7038673186151492
 30
0.0
 40
2.372602865221876
 50
90.0403432928053746
 51
102.3358885725609042
  0
LINE
  5
3668
  8
0
 10
259.0820290559350951
 20
31.0216914011315694
 30
0.0
 11
264.0786103888161165
 21
31.0216914011315694
 31
0.0
  0
ARC
  5
3669
  8
0
 10
259.6333028996423877
 20
29.2114163150101902
 30
0.0
 40
1.158087362017461
 50
185.2038436888385888
 51
195.0785505445984995
  0
LINE
  5
366A
  8
0
 10
259.4270624364377795
 20
28.5965497314621686
 30
0.0
 11
259.317800486576914
 21
28.3261169157411103
 31
0.0
  0
ARC
  5
366B
  8
0
 10
259.2899849709514797
 20
28.3373551135371713
 30
0.0
 40
0.0299999999868266
 50
247.9999999748409891
 51
338.0000000030714205
  0
LINE
  5
366C
  8
0
 10
259.2787467731417905
 20
28.3095395979173112
 30
0.0
 11
258.460043429708719
 21
28.6403172202613696
 31
0.0
  0
ARC
  5
366D
  8
0
 10
258.4712816275380192
 20
28.6681327359296603
 30
0.0
 40
0.0300000000390685
 50
158.0000008527663056
 51
247.9999999748409891
  0
LINE
  5
366E
  8
0
 10
258.4434661116976031
 20
28.6793709333327804
 30
0.0
 11
258.5340046893632007
 21
28.90346178624252
 31
0.0
  0
LINE
  5
366F
  8
0
 10
259.2097883865703238
 20
28.3374005946186891
 30
0.0
 11
259.2010780457442252
 21
28.3158417448543105
 31
0.0
  0
ARC
  5
3670
  8
0
 10
259.1864767251087187
 20
28.3217410614057492
 30
0.0
 40
0.0157480316254173
 50
248.0000008464600967
 51
337.9999997204421902
  0
LINE
  5
3671
  8
0
 10
259.1805774088442718
 20
28.3071397406543213
 30
0.0
 11
258.5289934755973036
 21
28.5703967268213397
 31
0.0
  0
ARC
  5
3672
  8
0
 10
258.5348927917062269
 20
28.5849980471874083
 30
0.0
 40
0.0157480312097653
 50
157.9999609858467977
 51
248.0000008464566008
  0
LINE
  5
3673
  8
0
 10
258.52029147544431
 20
28.590897373454311
 30
0.0
 11
258.5290018309650009
 21
28.6124562176269492
 31
0.0
  0
LINE
  5
3674
  8
0
 10
258.707611624644187
 20
28.5726492186543091
 30
0.0
 11
258.7540628422243003
 21
28.6876200166219597
 31
0.0
  0
LINE
  5
3675
  8
0
 10
258.7540628422243003
 20
28.6876200166219597
 30
0.0
 11
259.1001061911948113
 21
28.5478094282320001
 31
0.0
  0
LINE
  5
3676
  8
0
 10
259.1001061911948113
 20
28.5478094282320001
 30
0.0
 11
259.0536549736619918
 21
28.4328386304471188
 31
0.0
  0
ARC
  5
3677
  8
0
 10
259.0129419947277256
 20
28.5314077928513292
 30
0.0
 40
0.1066462677636209
 50
253.5829182927504917
 51
292.4425692561350729
  0
ARC
  5
3678
  8
0
 10
258.7835263180489278
 20
28.5949536374660305
 30
0.0
 40
0.0791234969731079
 50
196.3732618433170956
 51
247.3523031938283907
  0
LINE
  5
3679
  8
0
 10
263.3993471567980009
 20
27.285450712462481
 30
0.0
 11
263.3993471567980009
 21
27.5386848216814499
 31
0.0
  0
LINE
  5
367A
  8
0
 10
263.4741504446686804
 20
27.2207350240116206
 30
0.0
 11
263.4741504446686804
 21
26.6329387085237101
 31
0.0
  0
LINE
  5
367B
  8
0
 10
263.2670698209431066
 20
27.7398866853977104
 30
0.0
 11
263.3135395230639233
 21
27.924706945180251
 31
0.0
  0
ARC
  5
367C
  8
0
 10
263.5523027674138916
 20
27.5283103100136017
 30
0.0
 40
0.3173489280108849
 50
251.6837002868593061
 51
268.3288750676608174
  0
ARC
  5
367D
  8
0
 10
263.483930588991484
 20
27.3090687899038116
 30
0.0
 40
0.0878189648290506
 50
195.6012309269158891
 51
249.0788098202995116
  0
ARC
  5
367E
  8
0
 10
263.5423770168532087
 20
28.1576401096999795
 30
0.0
 40
0.5654190691965217
 50
261.8164953418256005
 51
270.0680010790965753
  0
ARC
  5
367F
  8
0
 10
263.5241439667707937
 20
28.03085295367028
 30
0.0
 40
0.4373275899740248
 50
246.373214122734197
 51
261.8164953418240088
  0
ARC
  5
3680
  8
0
 10
263.4140351690548982
 20
27.7791446948385108
 30
0.0
 40
0.162589542192965
 50
209.6896201636776027
 51
246.373214122734197
  0
ARC
  5
3681
  8
0
 10
263.3223500275564106
 20
27.726515631991699
 30
0.0
 40
0.0568743027419603
 50
166.4025811236654988
 51
209.3791183383002021
  0
ARC
  5
3682
  8
0
 10
263.2701102204196104
 20
27.5395309224413403
 30
0.0
 40
0.1292397060155295
 50
359.6248958599991852
 51
39.4301743525214121
  0
ARC
  5
3683
  8
0
 10
263.5421006168726876
 20
28.2913982313584889
 30
0.0
 40
0.4828688439402717
 50
259.6651055031454121
 51
270.1124232504806741
  0
ARC
  5
3684
  8
0
 10
263.4967528036773956
 20
28.0846599402361683
 30
0.0
 40
0.271453486233145
 50
235.7023839130586111
 51
261.2531807411136242
  0
ARC
  5
3685
  8
0
 10
263.3962303832224165
 20
27.9304197806622589
 30
0.0
 40
0.0874744076697948
 50
199.1991260868261122
 51
233.1671704091434094
  0
ARC
  5
3686
  8
0
 10
263.4794507906563013
 20
27.9137678195116408
 30
0.0
 40
0.1662715044273381
 50
176.2277434815019888
 51
184.1781526695313005
  0
ARC
  5
3687
  8
0
 10
263.414749871699712
 20
27.8902654764499403
 30
0.0
 40
0.1069100062635824
 50
117.8182363566810977
 51
161.2067700642039938
  0
ARC
  5
3688
  8
0
 10
263.5223745580000241
 20
27.6862944836467513
 30
0.0
 40
0.3375335935359129
 50
96.7212853218002522
 51
117.8182363566810977
  0
ARC
  5
3689
  8
0
 10
263.5607269398863082
 20
27.1216836784908395
 30
0.0
 40
0.9031866224220187
 50
91.1215719030040248
 51
94.9451937159341668
  0
LINE
  5
368A
  8
0
 10
263.6867490036112258
 20
27.285450712462481
 30
0.0
 11
263.6867490036112258
 21
27.5386848216814499
 31
0.0
  0
LINE
  5
368B
  8
0
 10
263.8190263394661201
 20
27.7398866853977104
 30
0.0
 11
263.7725566373454171
 21
27.924706945180251
 31
0.0
  0
ARC
  5
368C
  8
0
 10
263.533793392995392
 20
27.5283103100136017
 30
0.0
 40
0.3173489280108849
 50
271.6711249323391826
 51
288.3162997131407224
  0
ARC
  5
368D
  8
0
 10
263.6021655714176859
 20
27.3090687899038116
 30
0.0
 40
0.0878189648290506
 50
290.9211901797003748
 51
344.3987690730839972
  0
ARC
  5
368E
  8
0
 10
263.543719143556018
 20
28.1576401096999795
 30
0.0
 40
0.5654190691965217
 50
269.9319989209034247
 51
278.1835046581745132
  0
ARC
  5
368F
  8
0
 10
263.5619521936383762
 20
28.03085295367028
 30
0.0
 40
0.4373275899740248
 50
278.1835046581745132
 51
293.6267858772657178
  0
ARC
  5
3690
  8
0
 10
263.6720609913542717
 20
27.7791446948385108
 30
0.0
 40
0.162589542192965
 50
293.6267858772657178
 51
330.3103798363223973
  0
ARC
  5
3691
  8
0
 10
263.7637461328528161
 20
27.726515631991699
 30
0.0
 40
0.0568743027419603
 50
330.6208816616997979
 51
13.5974188763345101
  0
ARC
  5
3692
  8
0
 10
263.8159859399896163
 20
27.5395309224413403
 30
0.0
 40
0.1292397060155295
 50
140.5698256474786092
 51
180.3751041400001043
  0
ARC
  5
3693
  8
0
 10
263.5439955435364823
 20
28.2913982313584889
 30
0.0
 40
0.4828688439402717
 50
269.8875767495176206
 51
280.3348944968547016
  0
ARC
  5
3694
  8
0
 10
263.5893433567317743
 20
28.0846599402361683
 30
0.0
 40
0.271453486233145
 50
278.7468192588863758
 51
304.2976160869399109
  0
ARC
  5
3695
  8
0
 10
263.6898657771868102
 20
27.9304197806622589
 30
0.0
 40
0.0874744076697948
 50
306.8328295908581254
 51
340.8008739131731204
  0
ARC
  5
3696
  8
0
 10
263.6066453697529255
 20
27.9137678195116408
 30
0.0
 40
0.1662715044273381
 50
355.8218473304686995
 51
3.7722565184983479
  0
ARC
  5
3697
  8
0
 10
263.6713462887095716
 20
27.8902654764499403
 30
0.0
 40
0.1069100062635824
 50
18.7932299357959707
 51
62.1817636433188596
  0
ARC
  5
3698
  8
0
 10
263.5637216024093163
 20
27.6862944836467513
 30
0.0
 40
0.3375335935359129
 50
62.1817636433189591
 51
83.2787146781997336
  0
ARC
  5
3699
  8
0
 10
263.5253692205229186
 20
27.1216836784908395
 30
0.0
 40
0.9031866224220187
 50
85.0548062840674675
 51
88.8784280969959752
  0
LINE
  5
369A
  8
0
 10
263.6119457157404895
 20
27.2207350240116206
 30
0.0
 11
263.6119457157404895
 21
26.5088069671056417
 31
0.0
  0
ARC
  5
369B
  8
0
 10
263.7792074520203869
 20
26.7920755896189391
 30
0.0
 40
0.3359505197712856
 50
155.2360864014042079
 51
189.4964663008007903
  0
ARC
  5
369C
  8
0
 10
264.0879811832692781
 20
26.8437270148148812
 30
0.0
 40
0.6490145496982967
 50
189.4964663008007903
 51
207.626351165069309
  0
ARC
  5
369D
  8
0
 10
263.6008628302340071
 20
26.5887823628714095
 30
0.0
 40
0.0992136171614076
 50
207.6263511650678879
 51
244.8742182064555095
  0
ARC
  5
369E
  8
0
 10
263.5784649497260261
 20
26.5410239631434699
 30
0.0
 40
0.0464639271545046
 50
244.8742182064551969
 51
332.887745850029205
  0
ARC
  5
369F
  8
0
 10
263.0671449090073111
 20
26.660071413688101
 30
0.0
 40
0.5701891832370057
 50
345.7636063005469964
 51
17.1620982810404783
  0
ENDSEC
  0
EOF
