  0
SECTION
  2
HEADER
  9
$ACADVER
  1
AC1009
  9
$INSBASE
 10
1080.2354038318660514
 20
146.0973400591973927
 30
0.0
  9
$EXTMIN
 10
1050.6682548978330942
 20
131.3266495650653098
 30
-0.0000000000112498
  9
$EXTMAX
 10
1109.7855027614380106
 20
160.8732709697112
 30
0.0000000000002956
  9
$LIMMIN
 10
0.0
 20
0.0
  9
$LIMMAX
 10
11.6929133858000007
 20
8.2677165353999982
  9
$ORTHOMODE
 70
     0
  9
$REGENMODE
 70
     1
  9
$FILLMODE
 70
     1
  9
$QTEXTMODE
 70
     0
  9
$MIRRTEXT
 70
     0
  9
$DRAGMODE
 70
     2
  9
$LTSCALE
 40
0.6431102362
  9
$OSMODE
 70
  4095
  9
$ATTMODE
 70
     1
  9
$TEXTSIZE
 40
0.2
  9
$TRACEWID
 40
0.05
  9
$TEXTSTYLE
  7
STANDARD
  9
$CLAYER
  8
0
  9
$CELTYPE
  6
BYLAYER
  9
$CECOLOR
 62
   256
  9
$DIMSCALE
 40
1.0
  9
$DIMASZ
 40
0.1875
  9
$DIMEXO
 40
0.0625
  9
$DIMDLI
 40
0.4443307087
  9
$DIMRND
 40
0.0
  9
$DIMDLE
 40
0.0
  9
$DIMEXE
 40
0.125
  9
$DIMTP
 40
0.01
  9
$DIMTM
 40
0.01
  9
$DIMTXT
 40
1.0
  9
$DIMCEN
 40
0.1052362205
  9
$DIMTSZ
 40
0.0
  9
$DIMTOL
 70
     1
  9
$DIMLIM
 70
     0
  9
$DIMTIH
 70
     0
  9
$DIMTOH
 70
     1
  9
$DIMSE1
 70
     0
  9
$DIMSE2
 70
     0
  9
$DIMTAD
 70
     0
  9
$DIMZIN
 70
     0
  9
$DIMBLK
  1

  9
$DIMASO
 70
     1
  9
$DIMSHO
 70
     1
  9
$DIMPOST
  1
\X
  9
$DIMAPOST
  1

  9
$DIMALT
 70
     1
  9
$DIMALTD
 70
     2
  9
$DIMALTF
 40
25.3999999999999986
  9
$DIMLFAC
 40
1.0
  9
$DIMTOFL
 70
     0
  9
$DIMTVP
 40
0.0
  9
$DIMTIX
 70
     0
  9
$DIMSOXD
 70
     0
  9
$DIMSAH
 70
     0
  9
$DIMBLK1
  1

  9
$DIMBLK2
  1

  9
$DIMSTYLE
  2
STANDARD
  9
$DIMCLRD
 70
     0
  9
$DIMCLRE
 70
     0
  9
$DIMCLRT
 70
     0
  9
$DIMTFAC
 40
1.0
  9
$DIMGAP
 40
0.09
  9
$LUNITS
 70
     2
  9
$LUPREC
 70
     4
  9
$SKETCHINC
 40
0.1
  9
$FILLETRAD
 40
0.0
  9
$AUNITS
 70
     0
  9
$AUPREC
 70
     0
  9
$MENU
  1
.
  9
$ELEVATION
 40
0.0
  9
$PELEVATION
 40
0.0
  9
$THICKNESS
 40
0.0
  9
$LIMCHECK
 70
     0
  9
$BLIPMODE
 70
     0
  9
$CHAMFERA
 40
0.0
  9
$CHAMFERB
 40
0.0
  9
$SKPOLY
 70
     0
  9
$TDCREATE
 40
2458172.5207638889551163
  9
$TDUPDATE
 40
2459123.5392361111007631
  9
$TDINDWG
 40
0.4313664583
  9
$TDUSRTIMER
 40
0.4313664583
  9
$USRTIMER
 70
     1
  9
$ANGBASE
 50
0.0
  9
$ANGDIR
 70
     0
  9
$PDMODE
 70
     0
  9
$PDSIZE
 40
0.3125
  9
$PLINEWID
 40
0.0
  9
$COORDS
 70
     1
  9
$SPLFRAME
 70
     0
  9
$SPLINETYPE
 70
     6
  9
$SPLINESEGS
 70
     8
  9
$ATTDIA
 70
     1
  9
$ATTREQ
 70
     1
  9
$HANDLING
 70
     1
  9
$HANDSEED
  5
B257
  9
$SURFTAB1
 70
     6
  9
$SURFTAB2
 70
     6
  9
$SURFTYPE
 70
     6
  9
$SURFU
 70
     6
  9
$SURFV
 70
     6
  9
$UCSNAME
  2

  9
$UCSORG
 10
0.0
 20
0.0
 30
0.0
  9
$UCSXDIR
 10
1.0
 20
0.0
 30
0.0
  9
$UCSYDIR
 10
0.0
 20
1.0
 30
0.0
  9
$PUCSNAME
  2

  9
$PUCSORG
 10
0.0
 20
0.0
 30
0.0
  9
$PUCSXDIR
 10
1.0
 20
0.0
 30
0.0
  9
$PUCSYDIR
 10
0.0
 20
1.0
 30
0.0
  9
$USERI1
 70
     0
  9
$USERI2
 70
     0
  9
$USERI3
 70
     0
  9
$USERI4
 70
     0
  9
$USERI5
 70
     0
  9
$USERR1
 40
0.0
  9
$USERR2
 40
0.0
  9
$USERR3
 40
0.0
  9
$USERR4
 40
0.0
  9
$USERR5
 40
0.0
  9
$WORLDVIEW
 70
     1
  9
$SHADEDGE
 70
     3
  9
$SHADEDIF
 70
    70
  9
$TILEMODE
 70
     1
  9
$MAXACTVP
 70
    64
  9
$PLIMCHECK
 70
     0
  9
$PEXTMIN
 10
1.0000000000000000E+20
 20
1.0000000000000000E+20
 30
1.0000000000000000E+20
  9
$PEXTMAX
 10
-1.0000000000000000E+20
 20
-1.0000000000000000E+20
 30
-1.0000000000000000E+20
  9
$PLIMMIN
 10
0.0
 20
0.0
  9
$PLIMMAX
 10
12.0
 20
9.0
  9
$UNITMODE
 70
     0
  9
$VISRETAIN
 70
     1
  9
$PLINEGEN
 70
     0
  9
$PSLTSCALE
 70
     1
  0
ENDSEC
  0
SECTION
  2
TABLES
  0
TABLE
  2
VPORT
 70
     1
  0
VPORT
  2
*ACTIVE
 70
     0
 10
0.0
 20
0.0
 11
1.0
 21
1.0
 12
613.4846771218054755
 22
56.9668131474584811
 13
0.0
 23
0.0
 14
1.0
 24
1.0
 15
0.0
 25
0.0
 16
0.0
 26
0.0
 36
24.1179433675886514
 17
466.74220170783002
 27
89.133147119929788
 37
0.0
 40
29.8955972480078209
 41
2.6528599605522678
 42
50.0
 43
0.0
 44
0.0
 50
0.0
 51
0.0
 71
     0
 72
   100
 73
     1
 74
     1
 75
     0
 76
     0
 77
     0
 78
     0
  0
ENDTAB
  0
TABLE
  2
LTYPE
 70
     2
  0
LTYPE
  2
CONTINUOUS
 70
     0
  3
Solid line
 72
    65
 73
     0
 40
0.0
  0
LTYPE
  2
PHANTOM2
 70
     0
  3
___ _ _ ___ _ _ ___ _ _ ___ _ _
 72
    65
 73
     6
 40
1.25
 49
0.625
 49
-0.125
 49
0.125
 49
-0.125
 49
0.125
 49
-0.125
  0
ENDTAB
  0
TABLE
  2
LAYER
 70
     2
  0
LAYER
  2
0
 70
     0
 62
   255
  6
CONTINUOUS
  0
LAYER
  2
DEFPOINTS
 70
     0
 62
     7
  6
CONTINUOUS
  0
ENDTAB
  0
TABLE
  2
STYLE
 70
     1
  0
STYLE
  2
STANDARD
 70
     0
 40
0.0
 41
0.8
 50
0.0
 71
     0
 42
0.2
  3
txt
  4

  0
ENDTAB
  0
TABLE
  2
VIEW
 70
     0
  0
ENDTAB
  0
TABLE
  2
UCS
 70
     0
  0
ENDTAB
  0
TABLE
  2
APPID
 70
    11
  0
APPID
  2
ACAD
 70
     0
  0
APPID
  2
ACAD_MLEADERVER
 70
     0
  0
APPID
  2
ACAD_EXEMPT_FROM_CAD_STANDARDS
 70
     0
  0
APPID
  2
ACAD_DSTYLE_DIMJAG
 70
     0
  0
APPID
  2
ACAD_DSTYLE_DIMTALN
 70
     0
  0
APPID
  2
ACAD_NAV_VCDISPLAY
 70
     0
  0
APPID
  2
ACAECLAYERSTANDARD
 70
     0
  0
APPID
  2
ACCMTRANSPARENCY
 70
     0
  0
APPID
  2
DCO15
 70
     0
  0
APPID
  2
ACDBATTR
 70
     0
  0
APPID
  2
ACADANNOTATIVE
 70
     0
  0
ENDTAB
  0
TABLE
  2
DIMSTYLE
 70
     1
  0
DIMSTYLE
  2
STANDARD
 70
     0
  3

  4

  5

  6

  7

 40
1.0
 41
0.1875
 42
0.0625
 43
0.38
 44
0.125
 45
0.0
 46
0.0
 47
0.01
 48
0.01
140
0.15625
141
0.09
142
0.0
143
25.3999999999999986
144
1.0
145
0.0
146
1.0
147
0.09
 71
     1
 72
     0
 73
     1
 74
     1
 75
     0
 76
     0
 77
     0
 78
     4
170
     0
171
     2
172
     0
173
     0
174
     0
175
     0
176
     0
177
     0
178
     0
  0
ENDTAB
  0
ENDSEC
  0
SECTION
  2
BLOCKS
  0
BLOCK
  8
0
  2
$MODEL_SPACE
 70
     0
 10
0.0
 20
0.0
 30
0.0
  3
$MODEL_SPACE
  1

  0
ENDBLK
  5
21
  8
0
  0
BLOCK
 67
     1
  8
0
  2
$PAPER_SPACE
 70
     0
 10
0.0
 20
0.0
 30
0.0
  3
$PAPER_SPACE
  1

  0
ENDBLK
  5
1D
 67
     1
  8
0
  0
ENDSEC
  0
SECTION
  2
ENTITIES
  0
ATTDEF
  5
829
  8
DEFPOINTS
 10
1080.2311488235091019
 20
146.0949874227191003
 30
0.0
 40
0.001
  1
K-15341T
  3

  2
MODELNUMBER
 70
     0
1001
ACDBATTR
1070
     0
1070
     1
  0
ATTDEF
  5
82A
  8
DEFPOINTS
 10
1080.2311488235091019
 20
146.093320756052492
 30
0.0
 40
0.001
  1
EVOK
  3

  2
TRADENAME
 70
     0
1001
ACDBATTR
1070
     0
1070
     1
  0
ATTDEF
  5
82B
  8
DEFPOINTS
 10
1080.2311488235091019
 20
146.0916540893857984
 30
0.0
 40
0.001
  1
BATH
  3

  2
PRODUCT
 70
     0
1001
ACDBATTR
1070
     0
1070
     1
  0
LINE
  5
B15A
  8
0
 10
1050.7031051391659275
 20
131.6431208086472964
 30
0.0
 11
1050.7031051391659275
 21
160.5515593097472902
 31
0.0
  0
LINE
  5
B15B
  8
0
 10
1109.7677025245659479
 20
131.6431208086472964
 30
0.0
 11
1109.7677025245659479
 21
160.5515593097472902
 31
0.0
  0
LINE
  5
B15C
  8
0
 10
1051.0174051391659304
 20
131.3288208086474071
 30
0.0
 11
1109.453402524565945
 21
131.3288208086474071
 31
0.0
  0
LINE
  5
B15D
  8
0
 10
1109.453402524565945
 20
160.8658593097472931
 30
0.0
 11
1051.0174051391659304
 21
160.8658593097472931
 31
0.0
  0
ARC
  5
B15E
  8
0
 10
1051.0174051391659304
 20
131.6431208086472964
 30
0.0
 40
0.3143
 50
179.9999999999984084
 51
270.0
  0
ARC
  5
B15F
  8
0
 10
1109.453402524565945
 20
131.6431208086472964
 30
0.0
 40
0.3143
 50
270.0
 51
0.0
  0
ARC
  5
B160
  8
0
 10
1109.453402524565945
 20
160.5515593097472902
 30
0.0
 40
0.3143
 50
0.0
 51
90.0
  0
ARC
  5
B161
  8
0
 10
1051.0174051391659304
 20
160.5515593097472902
 30
0.0
 40
0.3143
 50
90.0
 51
180.0000000000015916
  0
LINE
  5
B162
  8
0
 10
1053.973013922131031
 20
134.4944501201688922
 30
0.0
 11
1106.473556453556057
 21
134.4944501201688922
 31
0.0
  0
LINE
  5
B163
  8
0
 10
1106.973556453556057
 20
134.9944501201688922
 30
0.0
 11
1106.973556453556057
 21
159.1364063319821867
 31
0.0
  0
LINE
  5
B164
  8
0
 10
1053.973013922131031
 20
159.6364063319821867
 30
0.0
 11
1106.473556453556057
 21
159.6364063319821867
 31
0.0
  0
LINE
  5
B165
  8
0
 10
1053.473013922131031
 20
159.1364063319821867
 30
0.0
 11
1053.473013922131031
 21
134.9944501201688922
 31
0.0
  0
ARC
  5
B166
  8
0
 10
1053.973013922131031
 20
159.1364063319821867
 30
0.0
 40
0.5
 50
90.0
 51
180.0
  0
ARC
  5
B167
  8
0
 10
1053.973013922131031
 20
134.9944501201688922
 30
0.0
 40
0.5
 50
179.9999999999984084
 51
270.0
  0
ARC
  5
B168
  8
0
 10
1106.473556453556057
 20
134.9944501201688922
 30
0.0
 40
0.5
 50
270.0
 51
359.9999999999984084
  0
ARC
  5
B169
  8
0
 10
1106.473556453556057
 20
159.1364063319821867
 30
0.0
 40
0.5
 50
359.9999999999984084
 51
90.0
  0
LINE
  5
B16A
  8
0
 10
1066.096141447321088
 20
156.0179284122783088
 30
0.0
 11
1094.3746662164119243
 21
156.0179284122783088
 31
0.0
  0
LINE
  5
B16B
  8
0
 10
1060.9494406585920387
 20
154.3364096683544062
 30
0.0
 11
1060.9494406585920387
 21
138.64811357549371
 31
0.0
  0
LINE
  5
B16C
  8
0
 10
1099.5213670051409736
 20
154.6481039431147906
 30
0.0
 11
1099.5213670051409736
 21
138.3364193007317908
 31
0.0
  0
ARC
  5
B16D
  8
0
 10
1065.7533430743899316
 20
181.3149136322757897
 30
0.0
 40
25.2993077364826888
 50
262.7210034286449059
 51
270.7763651575500035
  0
ARC
  5
B16E
  8
0
 10
1062.6742683516160923
 20
154.4922568057345131
 30
0.0
 40
1.7318541800198211
 50
94.1845681714948739
 51
185.1629514011661115
  0
ARC
  5
B16F
  8
0
 10
1094.7174645893430807
 20
181.3149136322757897
 30
0.0
 40
25.2993077364826888
 50
269.2236348424501102
 51
277.2789965713549805
  0
ARC
  5
B170
  8
0
 10
1097.79653931211692
 20
154.4922568057345131
 30
0.0
 40
1.7318541800198211
 50
5.1629514011465387
 51
85.8154318285051261
  0
LINE
  5
B171
  8
0
 10
1066.096141447321088
 20
136.9665948315690116
 30
0.0
 11
1094.3746662164119243
 21
136.9665948315690116
 31
0.0
  0
ARC
  5
B172
  8
0
 10
1065.7533430743899316
 20
111.6696096115715022
 30
0.0
 40
25.2993077364826888
 50
89.223634842450096
 51
97.2789965713550373
  0
ARC
  5
B173
  8
0
 10
1062.6742683516160923
 20
138.4922664381128072
 30
0.0
 40
1.7318541800198211
 50
174.8370485988338032
 51
265.8154318285050977
  0
ARC
  5
B174
  8
0
 10
1094.7174645893430807
 20
111.6696096115715022
 30
0.0
 40
25.2993077364826888
 50
82.7210034286449769
 51
90.776365157549904
  0
ARC
  5
B175
  8
0
 10
1097.79653931211692
 20
138.4922664381128072
 30
0.0
 40
1.7318541800198211
 50
274.1845681714949023
 51
354.8370485988550058
  0
ARC
  5
B176
  8
0
 10
1066.32927868179695
 20
174.1072709724602134
 30
0.0
 40
19.3601230202828596
 50
228.9952826976767142
 51
254.699325835417909
  0
ARC
  5
B177
  8
0
 10
1094.1415289819360623
 20
174.1072709724602134
 30
0.0
 40
19.3601230202828596
 50
285.3006741645820057
 51
310.9540755284390912
  0
ARC
  5
B178
  8
0
 10
1088.9792074146889718
 20
54.098715566832702
 30
0.0
 40
87.9480328593498371
 50
108.3986620747276959
 51
113.6987345794868958
  0
ARC
  5
B179
  8
0
 10
1065.9319990881469948
 20
39.1773918402367372
 30
0.0
 40
103.8629299068767011
 50
66.8085666502571058
 51
71.289190593116885
  0
LINE
  5
B17A
  8
0
 10
1076.485403859599046
 20
135.1374104163822096
 30
0.0
 11
1076.485403859599046
 21
134.9929280646273071
 31
0.0
  0
ARC
  5
B17B
  8
0
 10
1076.5085727178020534
 20
135.0025918787744956
 30
0.0
 40
0.025103491675265
 50
202.6412150525976017
 51
256.8887735492090769
  0
ARC
  5
B17C
  8
0
 10
1076.5956708014489323
 20
135.2864033295342097
 30
0.0
 40
0.3219239434179207
 50
253.2471498526992093
 51
271.3960826284646259
  0
ARC
  5
B17D
  8
0
 10
1076.6008753509840972
 20
134.7142784276088889
 30
0.0
 40
0.4505448763074933
 50
89.6644295779920668
 51
99.1773889467571621
  0
ARC
  5
B17E
  8
0
 10
1076.5501381165308885
 20
135.0283247908992053
 30
0.0
 40
0.1324263681131037
 50
99.1773889467571621
 51
116.6604127089139951
  0
ARC
  5
B17F
  8
0
 10
1076.4950594391109462
 20
135.1380253087727965
 30
0.0
 40
0.0096751386770829
 50
116.6604127088717036
 51
183.6438236120382896
  0
LINE
  5
B180
  8
0
 10
1076.6035141361910519
 20
134.9645749475573098
 30
0.0
 11
1083.8672774413689694
 21
134.9645749475573098
 31
0.0
  0
LINE
  5
B181
  8
0
 10
1076.6035139176119628
 20
135.1648155776121882
 30
0.0
 11
1083.8673612081179272
 21
135.1648155776121882
 31
0.0
  0
ARC
  5
B182
  8
0
 10
1076.6014859268320834
 20
134.527867332633889
 30
0.0
 40
0.4625499009824896
 50
89.7488706235500331
 51
98.6199549874508108
  0
ARC
  5
B183
  8
0
 10
1076.5612891916280205
 20
134.7998638083716116
 30
0.0
 40
0.1876039523986421
 50
98.9327150464342679
 51
108.1407714968094069
  0
LINE
  5
B184
  8
0
 10
1076.6035132924989739
 20
134.9904127906025053
 30
0.0
 11
1083.8673854075188956
 21
134.9904127906025053
 31
0.0
  0
LINE
  5
B185
  8
0
 10
1083.9854037386239725
 20
135.1374100132971989
 30
0.0
 11
1083.9854037230938957
 21
134.9929276615422964
 31
0.0
  0
ARC
  5
B186
  8
0
 10
1083.9622348659290765
 20
135.0025914781799088
 30
0.0
 40
0.025103491675265
 50
283.1112202921112839
 51
337.3587787887216791
  0
ARC
  5
B187
  8
0
 10
1083.8751368127889236
 20
135.2864029383017055
 30
0.0
 40
0.3219239434179207
 50
268.6010560374182887
 51
286.7528439886082197
  0
ARC
  5
B188
  8
0
 10
1083.8699322017569102
 20
134.7142780369360082
 30
0.0
 40
0.4505448763074933
 50
80.8226048945528817
 51
90.3269549646590661
  0
ARC
  5
B189
  8
0
 10
1083.9206694699669242
 20
135.0283243947725111
 30
0.0
 40
0.1324263681131037
 50
63.3395811324108706
 51
80.8226048945528817
  0
ARC
  5
B18A
  8
0
 10
1083.9757481591789201
 20
135.1380249067256898
 30
0.0
 40
0.0096751386770829
 50
356.3561702292782911
 51
63.3395811324407205
  0
ARC
  5
B18B
  8
0
 10
1083.8693216058720736
 20
134.5278669420266056
 30
0.0
 40
0.4625499009824896
 50
81.3800388538652015
 51
90.2398364320679462
  0
ARC
  5
B18C
  8
0
 10
1083.9095183703120711
 20
134.7998634134436031
 30
0.0
 40
0.1876039523986421
 50
71.8592223445059659
 51
81.0672787948853539
  0
LINE
  5
B18D
  8
0
 10
1083.8673854075188956
 20
134.9904127906025053
 30
0.0
 11
1083.8673854075188956
 21
135.1648157150563065
 31
0.0
  0
LINE
  5
B18E
  8
0
 10
1076.6035132924989739
 20
135.1648155776121882
 30
0.0
 11
1076.6035132924989739
 21
134.9904127906025053
 31
0.0
  0
CIRCLE
  5
B18F
  8
0
 10
1080.2354038516659784
 20
141.165960757496407
 30
0.0
 40
1.1259842520000001
  0
CIRCLE
  5
B190
  8
0
 10
1080.2354038516659784
 20
141.165960757496407
 30
0.0
 40
1.7067331498
  0
ENDSEC
  0
EOF
