  0
SECTION
  2
HEADER
  9
$ACADVER
  1
AC1009
  9
$INSBASE
 10
3762.563428686809857
 20
157.2021382551926081
 30
0.0
  9
$EXTMIN
 10
3761.6270219187308612
 20
151.9024530686644141
 30
0.0
  9
$EXTMAX
 10
3763.4998354548888528
 20
158.2593312551925919
 30
0.0
  9
$LIMMIN
 10
0.0
 20
0.0
  9
$LIMMAX
 10
11.6929133858000007
 20
8.2677165353999982
  9
$ORTHOMODE
 70
     0
  9
$REGENMODE
 70
     1
  9
$FILLMODE
 70
     1
  9
$QTEXTMODE
 70
     0
  9
$MIRRTEXT
 70
     0
  9
$DRAGMODE
 70
     2
  9
$LTSCALE
 40
0.6431102362
  9
$OSMODE
 70
  4095
  9
$ATTMODE
 70
     1
  9
$TEXTSIZE
 40
0.2
  9
$TRACEWID
 40
0.05
  9
$TEXTSTYLE
  7
STANDARD
  9
$CLAYER
  8
0
  9
$CELTYPE
  6
BYLAYER
  9
$CECOLOR
 62
   256
  9
$DIMSCALE
 40
1.0
  9
$DIMASZ
 40
0.1875
  9
$DIMEXO
 40
0.0625
  9
$DIMDLI
 40
0.4443307087
  9
$DIMRND
 40
0.0
  9
$DIMDLE
 40
0.0
  9
$DIMEXE
 40
0.125
  9
$DIMTP
 40
0.01
  9
$DIMTM
 40
0.01
  9
$DIMTXT
 40
2.0
  9
$DIMCEN
 40
0.1052362205
  9
$DIMTSZ
 40
0.0
  9
$DIMTOL
 70
     1
  9
$DIMLIM
 70
     0
  9
$DIMTIH
 70
     1
  9
$DIMTOH
 70
     1
  9
$DIMSE1
 70
     0
  9
$DIMSE2
 70
     0
  9
$DIMTAD
 70
     0
  9
$DIMZIN
 70
     0
  9
$DIMBLK
  1

  9
$DIMASO
 70
     1
  9
$DIMSHO
 70
     1
  9
$DIMPOST
  1
\X
  9
$DIMAPOST
  1

  9
$DIMALT
 70
     1
  9
$DIMALTD
 70
     2
  9
$DIMALTF
 40
25.3999999999999986
  9
$DIMLFAC
 40
1.0
  9
$DIMTOFL
 70
     0
  9
$DIMTVP
 40
0.0
  9
$DIMTIX
 70
     0
  9
$DIMSOXD
 70
     0
  9
$DIMSAH
 70
     0
  9
$DIMBLK1
  1

  9
$DIMBLK2
  1

  9
$DIMSTYLE
  2
STANDARD
  9
$DIMCLRD
 70
     0
  9
$DIMCLRE
 70
     0
  9
$DIMCLRT
 70
     0
  9
$DIMTFAC
 40
1.0
  9
$DIMGAP
 40
0.09
  9
$LUNITS
 70
     2
  9
$LUPREC
 70
     4
  9
$SKETCHINC
 40
0.1
  9
$FILLETRAD
 40
0.0
  9
$AUNITS
 70
     0
  9
$AUPREC
 70
     0
  9
$MENU
  1
.
  9
$ELEVATION
 40
0.0
  9
$PELEVATION
 40
0.0
  9
$THICKNESS
 40
0.0
  9
$LIMCHECK
 70
     0
  9
$BLIPMODE
 70
     0
  9
$CHAMFERA
 40
0.0
  9
$CHAMFERB
 40
0.0
  9
$SKPOLY
 70
     0
  9
$TDCREATE
 40
2458060.468368056230247
  9
$TDUPDATE
 40
2459062.5106944451108575
  9
$TDINDWG
 40
0.7315116898
  9
$TDUSRTIMER
 40
0.7315116898
  9
$USRTIMER
 70
     1
  9
$ANGBASE
 50
0.0
  9
$ANGDIR
 70
     0
  9
$PDMODE
 70
     0
  9
$PDSIZE
 40
0.3125
  9
$PLINEWID
 40
0.0
  9
$COORDS
 70
     1
  9
$SPLFRAME
 70
     0
  9
$SPLINETYPE
 70
     6
  9
$SPLINESEGS
 70
     8
  9
$ATTDIA
 70
     1
  9
$ATTREQ
 70
     1
  9
$HANDLING
 70
     1
  9
$HANDSEED
  5
10B27
  9
$SURFTAB1
 70
     6
  9
$SURFTAB2
 70
     6
  9
$SURFTYPE
 70
     6
  9
$SURFU
 70
     6
  9
$SURFV
 70
     6
  9
$UCSNAME
  2

  9
$UCSORG
 10
0.0
 20
0.0
 30
0.0
  9
$UCSXDIR
 10
1.0
 20
0.0
 30
0.0
  9
$UCSYDIR
 10
0.0
 20
1.0
 30
0.0
  9
$PUCSNAME
  2

  9
$PUCSORG
 10
0.0
 20
0.0
 30
0.0
  9
$PUCSXDIR
 10
1.0
 20
0.0
 30
0.0
  9
$PUCSYDIR
 10
0.0
 20
1.0
 30
0.0
  9
$USERI1
 70
     0
  9
$USERI2
 70
     0
  9
$USERI3
 70
     0
  9
$USERI4
 70
     0
  9
$USERI5
 70
     0
  9
$USERR1
 40
0.0
  9
$USERR2
 40
0.0
  9
$USERR3
 40
0.0
  9
$USERR4
 40
0.0
  9
$USERR5
 40
0.0
  9
$WORLDVIEW
 70
     1
  9
$SHADEDGE
 70
     3
  9
$SHADEDIF
 70
    70
  9
$TILEMODE
 70
     1
  9
$MAXACTVP
 70
    64
  9
$PLIMCHECK
 70
     0
  9
$PEXTMIN
 10
1.0000000000000000E+20
 20
1.0000000000000000E+20
 30
1.0000000000000000E+20
  9
$PEXTMAX
 10
-1.0000000000000000E+20
 20
-1.0000000000000000E+20
 30
-1.0000000000000000E+20
  9
$PLIMMIN
 10
0.0
 20
0.0
  9
$PLIMMAX
 10
12.0
 20
9.0
  9
$UNITMODE
 70
     0
  9
$VISRETAIN
 70
     1
  9
$PLINEGEN
 70
     0
  9
$PSLTSCALE
 70
     1
  0
ENDSEC
  0
SECTION
  2
TABLES
  0
TABLE
  2
VPORT
 70
     1
  0
VPORT
  2
*ACTIVE
 70
     0
 10
0.0
 20
0.0
 11
1.0
 21
1.0
 12
91.289624975872357
 22
0.357418483420787
 13
0.0
 23
0.0
 14
1.0
 24
1.0
 15
0.0
 25
0.0
 16
0.0
 26
0.0
 36
137.7247118064013875
 17
3671.2738037109379547
 27
154.7234736785077018
 37
0.0
 40
6.3966916198467541
 41
2.005224660397074
 42
50.0
 43
0.0
 44
0.0
 50
0.0
 51
0.0
 71
     0
 72
   100
 73
     1
 74
     1
 75
     0
 76
     0
 77
     0
 78
     0
  0
ENDTAB
  0
TABLE
  2
LTYPE
 70
     2
  0
LTYPE
  2
CONTINUOUS
 70
     0
  3
Solid line
 72
    65
 73
     0
 40
0.0
  0
LTYPE
  2
PHANTOM2
 70
     0
  3
___ _ _ ___ _ _ ___ _ _ ___ _ _
 72
    65
 73
     6
 40
1.25
 49
0.625
 49
-0.125
 49
0.125
 49
-0.125
 49
0.125
 49
-0.125
  0
ENDTAB
  0
TABLE
  2
LAYER
 70
     2
  0
LAYER
  2
0
 70
     0
 62
   255
  6
CONTINUOUS
  0
LAYER
  2
DEFPOINTS
 70
     0
 62
     7
  6
CONTINUOUS
  0
ENDTAB
  0
TABLE
  2
STYLE
 70
     1
  0
STYLE
  2
STANDARD
 70
     0
 40
0.0
 41
0.8
 50
0.0
 71
     0
 42
0.2
  3
txt
  4

  0
ENDTAB
  0
TABLE
  2
VIEW
 70
     0
  0
ENDTAB
  0
TABLE
  2
UCS
 70
     0
  0
ENDTAB
  0
TABLE
  2
APPID
 70
    10
  0
APPID
  2
ACAD
 70
     0
  0
APPID
  2
ACAD_MLEADERVER
 70
     0
  0
APPID
  2
ACAD_EXEMPT_FROM_CAD_STANDARDS
 70
     0
  0
APPID
  2
ACAD_NAV_VCDISPLAY
 70
     0
  0
APPID
  2
ACAECLAYERSTANDARD
 70
     0
  0
APPID
  2
ACCMTRANSPARENCY
 70
     0
  0
APPID
  2
ACAD_DSTYLE_DIMJAG
 70
     0
  0
APPID
  2
ACAD_DSTYLE_DIMTALN
 70
     0
  0
APPID
  2
ACDBATTR
 70
     0
  0
APPID
  2
ACAD_PSEXT
 70
     0
  0
ENDTAB
  0
TABLE
  2
DIMSTYLE
 70
     1
  0
DIMSTYLE
  2
STANDARD
 70
     0
  3

  4

  5

  6

  7

 40
1.0
 41
0.1875
 42
0.0625
 43
0.38
 44
0.125
 45
0.0
 46
0.0
 47
0.01
 48
0.01
140
0.15625
141
0.09
142
0.0
143
25.3999999999999986
144
1.0
145
0.0
146
1.0
147
0.09
 71
     1
 72
     0
 73
     1
 74
     1
 75
     0
 76
     0
 77
     0
 78
     4
170
     0
171
     2
172
     0
173
     0
174
     0
175
     0
176
     0
177
     0
178
     0
  0
ENDTAB
  0
ENDSEC
  0
SECTION
  2
BLOCKS
  0
BLOCK
  8
0
  2
$MODEL_SPACE
 70
     0
 10
0.0
 20
0.0
 30
0.0
  3
$MODEL_SPACE
  1

  0
ENDBLK
  5
21
  8
0
  0
BLOCK
 67
     1
  8
0
  2
$PAPER_SPACE
 70
     0
 10
0.0
 20
0.0
 30
0.0
  3
$PAPER_SPACE
  1

  0
ENDBLK
  5
1D
 67
     1
  8
0
  0
ENDSEC
  0
SECTION
  2
ENTITIES
  0
ATTDEF
  5
AA11
  8
DEFPOINTS
 10
3762.5589876674980587
 20
157.2000217035420917
 30
0.0
 40
0.001
  1
K-15238IN-4ND
  3

  2
MODELNUMBER
 70
     0
1001
ACDBATTR
1070
     0
1070
     1
  0
ATTDEF
  5
AA12
  8
DEFPOINTS
 10
3762.5589876674980587
 20
157.1983550368753981
 30
0.0
 40
0.001
  1
JULY
  3

  2
TRADENAME
 70
     0
1001
ACDBATTR
1070
     0
1070
     1
  0
ATTDEF
  5
AA13
  8
DEFPOINTS
 10
3762.5589876674980587
 20
157.1966883702087046
 30
0.0
 40
0.001
  1
BATHROOM SINK FAUCET 
  3

  2
PRODUCT
 70
     0
1001
ACDBATTR
1070
     0
1070
     1
  0
LINE
  5
10A82
  8
0
 10
3761.8807656769308778
 20
155.7040406124928893
 30
0.0
 11
3761.9883430824547759
 21
153.7477003252589043
 31
0.0
  0
LINE
  5
10A83
  8
0
 10
3761.9199524670898427
 20
153.7908704074673096
 30
0.0
 11
3761.8545494084019083
 21
155.6901163646037958
 31
0.0
  0
LINE
  5
10A84
  8
0
 10
3761.9374900436268945
 20
152.5315220046529134
 30
0.0
 11
3761.9199566787801814
 21
153.0448074973974997
 31
0.0
  0
LINE
  5
10A85
  8
0
 10
3761.9199524670898427
 20
153.7908704074673096
 30
0.0
 11
3761.9199566787801814
 21
153.0448074973974997
 31
0.0
  0
ARC
  5
10A86
  8
0
 10
3762.5663242152709245
 20
152.5312806202304898
 30
0.0
 40
0.6288342179730158
 50
179.9780064306465874
 51
269.7361750652548267
  0
ARC
  5
10A87
  8
0
 10
3757.050169147422821
 20
155.5275055725792015
 30
0.0
 40
4.8071313651459047
 50
1.9385136645164489
 51
15.6980872929584105
  0
ARC
  5
10A88
  8
0
 10
3762.5578128318679774
 20
153.7753144362368971
 30
0.0
 40
0.5701388731012289
 50
182.7761503962952077
 51
227.2265519690400026
  0
ARC
  5
10A89
  8
0
 10
3762.5581964804250674
 20
153.7757500982476131
 30
0.0
 40
0.5707192048463462
 50
227.2279818984239057
 51
248.6369195476615914
  0
ARC
  5
10A8A
  8
0
 10
3762.5675166191181233
 20
153.7995774724763862
 30
0.0
 40
0.5963045277461181
 50
248.6369195476615914
 51
269.6072089143314088
  0
ARC
  5
10A8B
  8
0
 10
3756.8711663295198377
 20
155.3475886699249884
 30
0.0
 40
5.0222647888120724
 50
4.0699521507924104
 51
13.88098007109277
  0
LINE
  5
10A8C
  8
0
 10
3763.2460916966888362
 20
155.7040406124928893
 30
0.0
 11
3763.1385142911649382
 21
153.7477003252589043
 31
0.0
  0
LINE
  5
10A8D
  8
0
 10
3763.2069049065298714
 20
153.7908704074673096
 30
0.0
 11
3763.2723079652168963
 21
155.6901163646049895
 31
0.0
  0
LINE
  5
10A8E
  8
0
 10
3763.1893673299928196
 20
152.5315220046529134
 30
0.0
 11
3763.2069006948399874
 21
153.0448074973974997
 31
0.0
  0
LINE
  5
10A8F
  8
0
 10
3763.2069049065298714
 20
153.7908704074673096
 30
0.0
 11
3763.2069006948399874
 21
153.0448074973974997
 31
0.0
  0
ARC
  5
10A90
  8
0
 10
3762.5523344440548499
 20
152.5394385371259887
 30
0.0
 40
0.6370820741894466
 50
270.9978077302301926
 51
359.2880107738812967
  0
ARC
  5
10A91
  8
0
 10
3768.0766882261968931
 20
155.5275055725792015
 30
0.0
 40
4.8071313651459047
 50
164.3019127070415948
 51
178.0614863354689135
  0
ARC
  5
10A92
  8
0
 10
3761.0361334313938642
 20
157.3338150858648987
 30
0.0
 40
2.4651428519711982
 50
348.1634284337334861
 51
358.0409573932766989
  0
ARC
  5
10A93
  8
0
 10
3762.2737637453701609
 20
157.2379264372540035
 30
0.0
 40
1.2261267487818559
 50
0.5428850392199215
 51
16.2579445318117592
  0
ARC
  5
10A94
  8
0
 10
3762.4688095967048866
 20
157.2628495360891066
 30
0.0
 40
1.0323590038856429
 50
17.9608755329016496
 51
59.6303798399565892
  0
ARC
  5
10A95
  8
0
 10
3762.5641044645058173
 20
157.3445192862506872
 30
0.0
 40
0.9146331912515243
 50
62.1951317525775877
 51
74.8644920116918655
  0
ARC
  5
10A96
  8
0
 10
3762.5623998635510361
 20
157.3382172852500105
 30
0.0
 40
0.921161658225464
 50
74.8644920116918655
 51
86.4262050972599951
  0
ARC
  5
10A97
  8
0
 10
3762.5634177816091324
 20
157.346248163162187
 30
0.0
 40
0.9130830920955553
 50
86.4585426682668299
 51
89.9993157008394036
  0
ARC
  5
10A98
  8
0
 10
3762.5690445417521914
 20
153.7753144362368971
 30
0.0
 40
0.5701388731012278
 50
312.7734480309600258
 51
357.2238496037031155
  0
ARC
  5
10A99
  8
0
 10
3762.5686608931941919
 20
153.7757500982476131
 30
0.0
 40
0.5707192048463462
 50
291.3630804523385223
 51
312.7720181015761227
  0
ARC
  5
10A9A
  8
0
 10
3762.5593407545020455
 20
153.7995774724763862
 30
0.0
 40
0.5963045277461181
 50
270.3927910856684775
 51
291.3630804523385223
  0
ARC
  5
10A9B
  8
0
 10
3768.2556910440998763
 20
155.3475886699249884
 30
0.0
 40
5.0222647888120724
 50
166.1190199289071927
 51
175.9300478492075968
  0
ARC
  5
10A9D
  8
0
 10
3764.0907239422258499
 20
157.3338150858648987
 30
0.0
 40
2.4651428519711982
 50
181.9590426067233011
 51
191.8365715662664002
  0
ARC
  5
10A9E
  8
0
 10
3762.8530936282500079
 20
157.2379264372540035
 30
0.0
 40
1.2261267487818559
 50
163.7420554681881981
 51
179.4571149607801033
  0
ARC
  5
10A9F
  8
0
 10
3762.6580477769139179
 20
157.2628495360891066
 30
0.0
 40
1.0323590038856429
 50
120.3696201600433966
 51
162.0391244670983042
  0
ARC
  5
10AA0
  8
0
 10
3762.5627529091138967
 20
157.3445192862506872
 30
0.0
 40
0.9146331912515243
 50
105.1355079883081061
 51
117.8048682474224051
  0
ARC
  5
10AA1
  8
0
 10
3762.5644575100700422
 20
157.3382172852500105
 30
0.0
 40
0.921161658225464
 50
93.5737949027400049
 51
105.1355079883081061
  0
ARC
  5
10AA2
  8
0
 10
3762.5634395920110364
 20
157.346248163162187
 30
0.0
 40
0.9130830920955553
 50
90.0006842991605964
 51
93.5414573317331843
  0
ENDSEC
  0
EOF
