  0
SECTION
  2
HEADER
  9
$ACADVER
  1
AC1009
  9
$INSBASE
 10
96.143541316295682
 20
-28.384104524036001
 30
0.0
  9
$EXTMIN
 10
85.0649527075739229
 20
-37.09226394124709
 30
-0.0000000000112498
  9
$EXTMAX
 10
107.217539590238701
 20
-19.6738043984075794
 30
0.0000000000002956
  9
$LIMMIN
 10
0.0
 20
0.0
  9
$LIMMAX
 10
11.6929133858000007
 20
8.2677165353999982
  9
$ORTHOMODE
 70
     0
  9
$REGENMODE
 70
     1
  9
$FILLMODE
 70
     1
  9
$QTEXTMODE
 70
     0
  9
$MIRRTEXT
 70
     0
  9
$DRAGMODE
 70
     2
  9
$LTSCALE
 40
0.6431102362
  9
$OSMODE
 70
  4095
  9
$ATTMODE
 70
     1
  9
$TEXTSIZE
 40
0.2
  9
$TRACEWID
 40
0.05
  9
$TEXTSTYLE
  7
STANDARD
  9
$CLAYER
  8
0
  9
$CELTYPE
  6
BYLAYER
  9
$CECOLOR
 62
   256
  9
$DIMSCALE
 40
1.0
  9
$DIMASZ
 40
0.1875
  9
$DIMEXO
 40
0.0625
  9
$DIMDLI
 40
0.4443307087
  9
$DIMRND
 40
0.0
  9
$DIMDLE
 40
0.0
  9
$DIMEXE
 40
0.125
  9
$DIMTP
 40
0.01
  9
$DIMTM
 40
0.01
  9
$DIMTXT
 40
1.0
  9
$DIMCEN
 40
0.1052362205
  9
$DIMTSZ
 40
0.0
  9
$DIMTOL
 70
     1
  9
$DIMLIM
 70
     0
  9
$DIMTIH
 70
     1
  9
$DIMTOH
 70
     1
  9
$DIMSE1
 70
     0
  9
$DIMSE2
 70
     0
  9
$DIMTAD
 70
     0
  9
$DIMZIN
 70
     0
  9
$DIMBLK
  1

  9
$DIMASO
 70
     1
  9
$DIMSHO
 70
     1
  9
$DIMPOST
  1
\X
  9
$DIMAPOST
  1

  9
$DIMALT
 70
     1
  9
$DIMALTD
 70
     2
  9
$DIMALTF
 40
25.3999999999999986
  9
$DIMLFAC
 40
1.0
  9
$DIMTOFL
 70
     0
  9
$DIMTVP
 40
0.0
  9
$DIMTIX
 70
     0
  9
$DIMSOXD
 70
     0
  9
$DIMSAH
 70
     0
  9
$DIMBLK1
  1

  9
$DIMBLK2
  1

  9
$DIMSTYLE
  2
STANDARD
  9
$DIMCLRD
 70
     0
  9
$DIMCLRE
 70
     0
  9
$DIMCLRT
 70
     0
  9
$DIMTFAC
 40
1.0
  9
$DIMGAP
 40
0.09
  9
$LUNITS
 70
     2
  9
$LUPREC
 70
     4
  9
$SKETCHINC
 40
0.1
  9
$FILLETRAD
 40
0.0
  9
$AUNITS
 70
     0
  9
$AUPREC
 70
     0
  9
$MENU
  1
.
  9
$ELEVATION
 40
0.0
  9
$PELEVATION
 40
0.0
  9
$THICKNESS
 40
0.0
  9
$LIMCHECK
 70
     0
  9
$BLIPMODE
 70
     0
  9
$CHAMFERA
 40
0.0
  9
$CHAMFERB
 40
0.0
  9
$SKPOLY
 70
     0
  9
$TDCREATE
 40
2458172.4620254631154239
  9
$TDUPDATE
 40
2459060.7347916672006249
  9
$TDINDWG
 40
0.1025059375
  9
$TDUSRTIMER
 40
0.1025059375
  9
$USRTIMER
 70
     1
  9
$ANGBASE
 50
0.0
  9
$ANGDIR
 70
     0
  9
$PDMODE
 70
     0
  9
$PDSIZE
 40
0.3125
  9
$PLINEWID
 40
0.0
  9
$COORDS
 70
     1
  9
$SPLFRAME
 70
     0
  9
$SPLINETYPE
 70
     6
  9
$SPLINESEGS
 70
     8
  9
$ATTDIA
 70
     1
  9
$ATTREQ
 70
     1
  9
$HANDLING
 70
     1
  9
$HANDSEED
  5
D14A
  9
$SURFTAB1
 70
     6
  9
$SURFTAB2
 70
     6
  9
$SURFTYPE
 70
     6
  9
$SURFU
 70
     6
  9
$SURFV
 70
     6
  9
$UCSNAME
  2

  9
$UCSORG
 10
0.0
 20
0.0
 30
0.0
  9
$UCSXDIR
 10
1.0
 20
0.0
 30
0.0
  9
$UCSYDIR
 10
0.0
 20
1.0
 30
0.0
  9
$PUCSNAME
  2

  9
$PUCSORG
 10
0.0
 20
0.0
 30
0.0
  9
$PUCSXDIR
 10
1.0
 20
0.0
 30
0.0
  9
$PUCSYDIR
 10
0.0
 20
1.0
 30
0.0
  9
$USERI1
 70
     0
  9
$USERI2
 70
     0
  9
$USERI3
 70
     0
  9
$USERI4
 70
     0
  9
$USERI5
 70
     0
  9
$USERR1
 40
0.0
  9
$USERR2
 40
0.0
  9
$USERR3
 40
0.0
  9
$USERR4
 40
0.0
  9
$USERR5
 40
0.0
  9
$WORLDVIEW
 70
     1
  9
$SHADEDGE
 70
     3
  9
$SHADEDIF
 70
    70
  9
$TILEMODE
 70
     1
  9
$MAXACTVP
 70
    64
  9
$PLIMCHECK
 70
     0
  9
$PEXTMIN
 10
1.0000000000000000E+20
 20
1.0000000000000000E+20
 30
1.0000000000000000E+20
  9
$PEXTMAX
 10
-1.0000000000000000E+20
 20
-1.0000000000000000E+20
 30
-1.0000000000000000E+20
  9
$PLIMMIN
 10
0.0
 20
0.0
  9
$PLIMMAX
 10
12.0
 20
9.0
  9
$UNITMODE
 70
     0
  9
$VISRETAIN
 70
     1
  9
$PLINEGEN
 70
     0
  9
$PSLTSCALE
 70
     1
  0
ENDSEC
  0
SECTION
  2
TABLES
  0
TABLE
  2
VPORT
 70
     1
  0
VPORT
  2
*ACTIVE
 70
     0
 10
0.0
 20
0.0
 11
1.0
 21
1.0
 12
-28.4699124511663086
 22
-33.695308340205159
 13
0.0
 23
0.0
 14
1.0
 24
1.0
 15
0.0
 25
0.0
 16
0.0
 26
0.0
 36
30.6214257250603907
 17
124.6111586000725993
 27
5.3122741703778242
 37
0.0
 40
17.5634120494373285
 41
2.6486111111111108
 42
50.0
 43
0.0
 44
0.0
 50
0.0
 51
0.0
 71
     0
 72
   100
 73
     1
 74
     1
 75
     0
 76
     0
 77
     0
 78
     1
  0
ENDTAB
  0
TABLE
  2
LTYPE
 70
     2
  0
LTYPE
  2
CONTINUOUS
 70
     0
  3
Solid line
 72
    65
 73
     0
 40
0.0
  0
LTYPE
  2
PHANTOM2
 70
     0
  3
___ _ _ ___ _ _ ___ _ _ ___ _ _
 72
    65
 73
     6
 40
1.25
 49
0.625
 49
-0.125
 49
0.125
 49
-0.125
 49
0.125
 49
-0.125
  0
ENDTAB
  0
TABLE
  2
LAYER
 70
     3
  0
LAYER
  2
0
 70
     0
 62
   255
  6
CONTINUOUS
  0
LAYER
  2
DEFPOINTS
 70
     0
 62
     7
  6
CONTINUOUS
  0
LAYER
  2
F14715_AF0_1
 70
     0
 62
     7
  6
CONTINUOUS
  0
ENDTAB
  0
TABLE
  2
STYLE
 70
     1
  0
STYLE
  2
STANDARD
 70
     0
 40
0.0
 41
0.8
 50
0.0
 71
     0
 42
0.2
  3
txt
  4

  0
ENDTAB
  0
TABLE
  2
VIEW
 70
     0
  0
ENDTAB
  0
TABLE
  2
UCS
 70
     0
  0
ENDTAB
  0
TABLE
  2
APPID
 70
     9
  0
APPID
  2
ACAD
 70
     0
  0
APPID
  2
ACAD_MLEADERVER
 70
     0
  0
APPID
  2
ACAD_EXEMPT_FROM_CAD_STANDARDS
 70
     0
  0
APPID
  2
ACAD_DSTYLE_DIMJAG
 70
     0
  0
APPID
  2
ACAD_DSTYLE_DIMTALN
 70
     0
  0
APPID
  2
ACAD_NAV_VCDISPLAY
 70
     0
  0
APPID
  2
ACAECLAYERSTANDARD
 70
     0
  0
APPID
  2
ACCMTRANSPARENCY
 70
     0
  0
APPID
  2
ACDBATTR
 70
     0
  0
ENDTAB
  0
TABLE
  2
DIMSTYLE
 70
     1
  0
DIMSTYLE
  2
STANDARD
 70
     0
  3

  4

  5

  6

  7

 40
1.0
 41
0.1875
 42
0.0625
 43
0.38
 44
0.125
 45
0.0
 46
0.0
 47
0.01
 48
0.01
140
0.15625
141
0.09
142
0.0
143
25.3999999999999986
144
1.0
145
0.0
146
1.0
147
0.09
 71
     1
 72
     0
 73
     1
 74
     1
 75
     0
 76
     0
 77
     0
 78
     4
170
     0
171
     2
172
     0
173
     0
174
     0
175
     0
176
     0
177
     0
178
     0
  0
ENDTAB
  0
ENDSEC
  0
SECTION
  2
BLOCKS
  0
BLOCK
  8
0
  2
$MODEL_SPACE
 70
     0
 10
0.0
 20
0.0
 30
0.0
  3
$MODEL_SPACE
  1

  0
ENDBLK
  5
21
  8
0
  0
BLOCK
 67
     1
  8
0
  2
$PAPER_SPACE
 70
     0
 10
0.0
 20
0.0
 30
0.0
  3
$PAPER_SPACE
  1

  0
ENDBLK
  5
1D
 67
     1
  8
0
  0
BLOCK
  8
0
  2
_FILLED
 70
     0
 10
0.0
 20
0.0
 30
0.0
  3
_FILLED
  1

  0
SOLID
  5
B3EB
  8
0
  6
BYBLOCK
 62
     0
 10
0.0
 20
0.0
 30
0.0
 11
-1.0
 21
0.1666666667
 31
0.0
 12
-1.0
 22
-0.1666666667
 32
0.0
 13
-1.0
 23
-0.1666666667
 33
0.0
  0
ENDBLK
  5
B3EC
  8
0
  6
BYBLOCK
 62
     0
  0
ENDSEC
  0
SECTION
  2
ENTITIES
  0
ATTDEF
  5
BA2F
  8
DEFPOINTS
 10
96.143836990061402
 20
-28.3803309190739803
 30
0.0
 40
0.001
  1
K-14715IN-8
  3

  2
MODELNUMBER
 70
     0
1001
ACDBATTR
1070
     0
1070
     1
  0
ATTDEF
  5
BA30
  8
DEFPOINTS
 10
96.143836990061402
 20
-28.3819975857406384
 30
0.0
 40
0.001
  1
PARLIAMENT
  3

  2
TRADENAME
 70
     0
1001
ACDBATTR
1070
     0
1070
     1
  0
ATTDEF
  5
BA31
  8
DEFPOINTS
 10
96.143836990061402
 20
-28.3836642524073106
 30
0.0
 40
0.001
  1
BATHROOM SINK
  3

  2
PRODUCT
 70
     0
1001
ACDBATTR
1070
     0
1070
     1
  0
LINE
  5
C88C
  8
0
 10
106.9738884946956006
 20
-19.6766351041515897
 30
0.0
 11
85.3131941347956655
 21
-19.6766351837515892
 31
0.0
  0
ARC
  5
C88D
  8
0
 10
85.3131941356850234
 20
-19.9186493728956187
 30
0.0
 40
0.2420141891440295
 50
90.0000002105528978
 51
179.9873971721818862
  0
LINE
  5
C88E
  8
0
 10
85.0711799523956671
 20
-19.9185961392516013
 30
0.0
 11
85.0711752658678364
 21
-36.8487090845503218
 31
0.0
  0
ARC
  5
C88F
  8
0
 10
85.3139470921407792
 20
-36.8488003725598219
 30
0.0
 40
0.2427718434361746
 50
179.9784554184145122
 51
269.9941988032671247
  0
LINE
  5
C890
  8
0
 10
85.3139225114956758
 20
-37.0915722147515865
 30
0.0
 11
106.9731601317955949
 21
-37.091572112851587
 31
0.0
  0
ARC
  5
C891
  8
0
 10
106.9722104867750971
 20
-36.8478799833964175
 30
0.0
 40
0.2436939797862547
 50
270.2232750660012925
 51
359.8050688169910813
  0
LINE
  5
C892
  8
0
 10
107.2159030561956001
 20
-36.8487090752515911
 30
0.0
 11
107.2159027369957016
 21
-19.9185961357515993
 31
0.0
  0
ARC
  5
C893
  8
0
 10
106.9729587537115947
 20
-19.9195792977499515
 30
0.0
 40
0.2429459726388834
 50
0.2318671358367395
 51
89.7807316421885986
  0
LINE
  5
C894
  8
0
 10
86.8386234515773765
 20
-24.7126875968515911
 30
0.0
 11
105.4393929635456999
 21
-24.7126875968515911
 31
0.0
  0
ARC
  5
C895
  8
0
 10
86.8431565594778192
 20
-25.2545049232928704
 30
0.0
 40
0.5418362892047828
 50
89.5206467600853131
 51
179.7351116522526127
  0
LINE
  5
C896
  8
0
 10
86.3013260607956738
 20
-25.251999928870319
 30
0.0
 11
86.3013259797998131
 21
-34.8029125023380317
 31
0.0
  0
ARC
  5
C897
  8
0
 10
87.2977926800142541
 20
-34.8035046787889826
 30
0.0
 40
0.9964668761726162
 50
179.9659504854853083
 51
270.2815841524400753
  0
LINE
  5
C898
  8
0
 10
87.3026898670956655
 20
-35.7999595211515924
 30
0.0
 11
104.9841792304050045
 21
-35.7999595211515924
 31
0.0
  0
ARC
  5
C899
  8
0
 10
104.989107071480305
 20
-34.8033220287307401
 30
0.0
 40
0.9966496751198999
 50
269.7167052243066223
 51
0.0294107642980065
  0
LINE
  5
C89A
  8
0
 10
105.9857566152956991
 20
-34.8028104338515902
 30
0.0
 11
105.9857565718957062
 21
-25.2520011900184294
 31
0.0
  0
ARC
  5
C89B
  8
0
 10
105.4439260085626984
 20
-25.2545049829176698
 30
0.0
 40
0.5418363483014043
 50
0.2647612639804884
 51
90.4793465378856467
  0
CIRCLE
  5
C89C
  8
0
 10
96.143541316295682
 20
-27.1601962781515986
 30
0.0
 40
0.8858267716999996
  0
CIRCLE
  5
C89D
  8
0
 10
96.143541316295682
 20
-27.1601962781515986
 30
0.0
 40
1.5140914197000011
  0
CIRCLE
  5
C89E
  8
0
 10
96.143541316295682
 20
-22.643660845051599
 30
0.0
 40
0.6889763779999996
  0
ARC
  5
C89F
  8
0
 10
94.8418897374323819
 20
-35.3264634341129735
 30
0.0
 40
0.0574370022238457
 50
126.8133634498474009
 51
169.2792595451136037
  0
ARC
  5
C8A0
  8
0
 10
94.9636439795858109
 20
-35.4891365741148803
 30
0.0
 40
0.260628158430103
 50
106.483580668162503
 51
126.8133634498474009
  0
ARC
  5
C8A1
  8
0
 10
95.074651569488978
 20
-35.864286667239341
 30
0.0
 40
0.6518573462310699
 50
89.4816145074201756
 51
106.4835806681615935
  0
ARC
  5
C8A2
  8
0
 10
95.0738076250041644
 20
-35.9575630771882828
 30
0.0
 40
0.7451375740141135
 50
74.8452657645227362
 51
89.4816145074201756
  0
ARC
  5
C8A3
  8
0
 10
95.2083596692201013
 20
-35.4607784211905397
 30
0.0
 40
0.2304539361961968
 50
47.5002170435608235
 51
74.8452657645227362
  0
ARC
  5
C8A4
  8
0
 10
95.3394744750381733
 20
-35.317690630779218
 30
0.0
 40
0.0363786722661743
 50
357.7365141433697886
 51
47.5002170435619888
  0
ARC
  5
C8A5
  8
0
 10
95.3362603550959591
 20
-35.3175635899721172
 30
0.0
 40
0.0395953019261916
 50
326.2804579157847797
 51
357.7365141433677991
  0
ARC
  5
C8A6
  8
0
 10
95.2683466539692745
 20
-35.2503559947709135
 30
0.0
 40
0.1346282478427522
 50
284.6891700481755834
 51
318.5109740512494909
  0
ARC
  5
C8A7
  8
0
 10
95.0949496255758362
 20
-34.6552496337461022
 30
0.0
 40
0.7544407888259581
 50
268.906296840894413
 51
285.9670841399516803
  0
ARC
  5
C8A8
  8
0
 10
95.0761336649417643
 20
-34.4912650290371801
 30
0.0
 40
0.9182985622302497
 50
260.6808524397351903
 51
270.2755007493270227
  0
ARC
  5
C8A9
  8
0
 10
94.9741698267011145
 20
-35.064193686196873
 30
0.0
 40
0.3365116220151812
 50
241.8407481452954073
 51
262.016128308136274
  0
ARC
  5
C8AA
  8
0
 10
94.8478466627914543
 20
-35.3024083850115886
 30
0.0
 40
0.0668854712773916
 50
207.0486860528176862
 51
240.9431936065203956
  0
ARC
  5
C8AB
  8
0
 10
94.8188816416761853
 20
-35.3190015746192927
 30
0.0
 40
0.0335813679396382
 50
174.4930199349979034
 51
204.3067263425259057
  0
ARC
  5
C8AC
  8
0
 10
95.9051434080008249
 20
-35.3264634341129735
 30
0.0
 40
0.0574370022238457
 50
126.8133634498474009
 51
169.2792595451136037
  0
ARC
  5
C8AD
  8
0
 10
96.0268976501542539
 20
-35.4891365741148803
 30
0.0
 40
0.260628158430103
 50
106.483580668162503
 51
126.8133634498474009
  0
ARC
  5
C8AE
  8
0
 10
96.1379052400574068
 20
-35.864286667239341
 30
0.0
 40
0.6518573462310699
 50
89.4816145074201756
 51
106.4835806681615935
  0
ARC
  5
C8AF
  8
0
 10
96.1370612955726074
 20
-35.9575630771882828
 30
0.0
 40
0.7451375740141135
 50
74.8452657645227362
 51
89.4816145074201756
  0
ARC
  5
C8B0
  8
0
 10
96.2716133397885443
 20
-35.4607784211905397
 30
0.0
 40
0.2304539361961968
 50
47.5002170435608235
 51
74.8452657645227362
  0
ARC
  5
C8B1
  8
0
 10
96.4027281456066163
 20
-35.317690630779218
 30
0.0
 40
0.0363786722661743
 50
357.7365141433697886
 51
47.5002170435619888
  0
ARC
  5
C8B2
  8
0
 10
96.3995140256643737
 20
-35.3175635899721172
 30
0.0
 40
0.0395953019261916
 50
326.2804579157847797
 51
357.7365141433677991
  0
ARC
  5
C8B3
  8
0
 10
96.3316003245377033
 20
-35.2503559947709135
 30
0.0
 40
0.1346282478427522
 50
284.6891700481755834
 51
318.5109740512494909
  0
ARC
  5
C8B4
  8
0
 10
96.158203296144265
 20
-34.6552496337461022
 30
0.0
 40
0.7544407888259581
 50
268.906296840894413
 51
285.9670841399516803
  0
ARC
  5
C8B5
  8
0
 10
96.1393873355101931
 20
-34.4912650290371801
 30
0.0
 40
0.9182985622302497
 50
260.6808524397351903
 51
270.2755007493270227
  0
ARC
  5
C8B6
  8
0
 10
96.0374234972695433
 20
-35.064193686196873
 30
0.0
 40
0.3365116220151812
 50
241.8407481452954073
 51
262.016128308136274
  0
ARC
  5
C8B7
  8
0
 10
95.9111003333598546
 20
-35.3024083850115886
 30
0.0
 40
0.0668854712773916
 50
207.0486860528176862
 51
240.9431936065203956
  0
ARC
  5
C8B8
  8
0
 10
95.8821353122446283
 20
-35.3190015746192927
 30
0.0
 40
0.0335813679396382
 50
174.4930199349979034
 51
204.3067263425259057
  0
ARC
  5
C8B9
  8
0
 10
96.9711300282206139
 20
-35.3264634341129735
 30
0.0
 40
0.0574370022238457
 50
126.8133634498474009
 51
169.2792595451136037
  0
ARC
  5
C8BA
  8
0
 10
97.0928842703740429
 20
-35.4891365741148803
 30
0.0
 40
0.260628158430103
 50
106.483580668162503
 51
126.8133634498474009
  0
ARC
  5
C8BB
  8
0
 10
97.2038918602772242
 20
-35.864286667239341
 30
0.0
 40
0.6518573462310699
 50
89.4816145074201756
 51
106.4835806681615935
  0
ARC
  5
C8BC
  8
0
 10
97.2030479157924105
 20
-35.9575630771882828
 30
0.0
 40
0.7451375740141135
 50
74.8452657645227362
 51
89.4816145074201756
  0
ARC
  5
C8BD
  8
0
 10
97.3375999600083333
 20
-35.4607784211905397
 30
0.0
 40
0.2304539361961968
 50
47.5002170435608235
 51
74.8452657645227362
  0
ARC
  5
C8BE
  8
0
 10
97.4687147658264195
 20
-35.317690630779218
 30
0.0
 40
0.0363786722661743
 50
357.7365141433697886
 51
47.5002170435619888
  0
ARC
  5
C8BF
  8
0
 10
97.465500645884191
 20
-35.3175635899721172
 30
0.0
 40
0.0395953019261916
 50
326.2804579157847797
 51
357.7365141433677991
  0
ARC
  5
C8C0
  8
0
 10
97.3975869447575064
 20
-35.2503559947709135
 30
0.0
 40
0.1346282478427522
 50
284.6891700481755834
 51
318.5109740512494909
  0
ARC
  5
C8C1
  8
0
 10
97.2241899163640682
 20
-34.6552496337461022
 30
0.0
 40
0.7544407888259581
 50
268.906296840894413
 51
285.9670841399516803
  0
ARC
  5
C8C2
  8
0
 10
97.2053739557299963
 20
-34.4912650290371801
 30
0.0
 40
0.9182985622302497
 50
260.6808524397351903
 51
270.2755007493270227
  0
ARC
  5
C8C3
  8
0
 10
97.1034101174893465
 20
-35.064193686196873
 30
0.0
 40
0.3365116220151812
 50
241.8407481452954073
 51
262.016128308136274
  0
ARC
  5
C8C4
  8
0
 10
96.977086953579672
 20
-35.3024083850115886
 30
0.0
 40
0.0668854712773916
 50
207.0486860528176862
 51
240.9431936065203956
  0
ARC
  5
C8C5
  8
0
 10
96.9481219324644314
 20
-35.3190015746192927
 30
0.0
 40
0.0335813679396382
 50
174.4930199349979034
 51
204.3067263425259057
  0
POINT
  5
C9CE
  8
DEFPOINTS
 10
96.143541316295682
 20
-22.643660845051599
 30
0.0
  0
CIRCLE
  5
CC2D
  8
0
 10
100.1435413162955967
 20
-22.643660845051599
 30
0.0
 40
0.6885
  0
CIRCLE
  5
CC2E
  8
0
 10
92.1435413162956678
 20
-22.643660845051599
 30
0.0
 40
0.6885
  0
ENDSEC
  0
EOF
