  0
SECTION
  2
HEADER
  9
$ACADVER
  1
AC1009
  9
$INSBASE
 10
46.4467545861242996
 20
-74.9913541835949218
 30
0.0
  9
$EXTMIN
 10
43.2540464312520498
 20
-77.8548777634585747
 30
-0.0000000349181948
  9
$EXTMAX
 10
49.6999139297979227
 20
-74.9835990758337232
 30
0.0000000814935746
  9
$LIMMIN
 10
0.0
 20
0.0
  9
$LIMMAX
 10
11.6929133858000007
 20
8.2677165353999982
  9
$ORTHOMODE
 70
     0
  9
$REGENMODE
 70
     1
  9
$FILLMODE
 70
     1
  9
$QTEXTMODE
 70
     0
  9
$MIRRTEXT
 70
     0
  9
$DRAGMODE
 70
     2
  9
$LTSCALE
 40
0.6431102362
  9
$OSMODE
 70
  2039
  9
$ATTMODE
 70
     1
  9
$TEXTSIZE
 40
0.2
  9
$TRACEWID
 40
0.05
  9
$TEXTSTYLE
  7
STANDARD
  9
$CLAYER
  8
0
  9
$CELTYPE
  6
BYLAYER
  9
$CECOLOR
 62
   256
  9
$DIMSCALE
 40
1.0
  9
$DIMASZ
 40
0.1875
  9
$DIMEXO
 40
0.0625
  9
$DIMDLI
 40
0.4443307087
  9
$DIMRND
 40
0.0
  9
$DIMDLE
 40
0.0
  9
$DIMEXE
 40
0.125
  9
$DIMTP
 40
0.01
  9
$DIMTM
 40
0.01
  9
$DIMTXT
 40
1.0
  9
$DIMCEN
 40
0.1052362205
  9
$DIMTSZ
 40
0.0
  9
$DIMTOL
 70
     1
  9
$DIMLIM
 70
     0
  9
$DIMTIH
 70
     1
  9
$DIMTOH
 70
     1
  9
$DIMSE1
 70
     0
  9
$DIMSE2
 70
     0
  9
$DIMTAD
 70
     0
  9
$DIMZIN
 70
     0
  9
$DIMBLK
  1

  9
$DIMASO
 70
     1
  9
$DIMSHO
 70
     1
  9
$DIMPOST
  1
\X
  9
$DIMAPOST
  1

  9
$DIMALT
 70
     1
  9
$DIMALTD
 70
     2
  9
$DIMALTF
 40
25.3999999999999986
  9
$DIMLFAC
 40
1.0
  9
$DIMTOFL
 70
     0
  9
$DIMTVP
 40
0.0
  9
$DIMTIX
 70
     0
  9
$DIMSOXD
 70
     0
  9
$DIMSAH
 70
     0
  9
$DIMBLK1
  1

  9
$DIMBLK2
  1

  9
$DIMSTYLE
  2
STANDARD
  9
$DIMCLRD
 70
     0
  9
$DIMCLRE
 70
     0
  9
$DIMCLRT
 70
     0
  9
$DIMTFAC
 40
1.0
  9
$DIMGAP
 40
0.09
  9
$LUNITS
 70
     2
  9
$LUPREC
 70
     4
  9
$SKETCHINC
 40
0.1
  9
$FILLETRAD
 40
0.0
  9
$AUNITS
 70
     0
  9
$AUPREC
 70
     0
  9
$MENU
  1
.
  9
$ELEVATION
 40
0.0
  9
$PELEVATION
 40
0.0
  9
$THICKNESS
 40
0.0
  9
$LIMCHECK
 70
     0
  9
$BLIPMODE
 70
     0
  9
$CHAMFERA
 40
0.0
  9
$CHAMFERB
 40
0.0
  9
$SKPOLY
 70
     0
  9
$TDCREATE
 40
2458172.4620254631154239
  9
$TDUPDATE
 40
2459156.6974768522195518
  9
$TDINDWG
 40
0.141961956
  9
$TDUSRTIMER
 40
0.141961956
  9
$USRTIMER
 70
     1
  9
$ANGBASE
 50
0.0
  9
$ANGDIR
 70
     0
  9
$PDMODE
 70
     0
  9
$PDSIZE
 40
0.3125
  9
$PLINEWID
 40
0.0
  9
$COORDS
 70
     1
  9
$SPLFRAME
 70
     0
  9
$SPLINETYPE
 70
     6
  9
$SPLINESEGS
 70
     8
  9
$ATTDIA
 70
     1
  9
$ATTREQ
 70
     1
  9
$HANDLING
 70
     1
  9
$HANDSEED
  5
8532
  9
$SURFTAB1
 70
     6
  9
$SURFTAB2
 70
     6
  9
$SURFTYPE
 70
     6
  9
$SURFU
 70
     6
  9
$SURFV
 70
     6
  9
$UCSNAME
  2

  9
$UCSORG
 10
0.0
 20
0.0
 30
0.0
  9
$UCSXDIR
 10
1.0
 20
0.0
 30
0.0
  9
$UCSYDIR
 10
0.0
 20
1.0
 30
0.0
  9
$PUCSNAME
  2

  9
$PUCSORG
 10
0.0
 20
0.0
 30
0.0
  9
$PUCSXDIR
 10
1.0
 20
0.0
 30
0.0
  9
$PUCSYDIR
 10
0.0
 20
1.0
 30
0.0
  9
$USERI1
 70
     0
  9
$USERI2
 70
     0
  9
$USERI3
 70
     0
  9
$USERI4
 70
     0
  9
$USERI5
 70
     0
  9
$USERR1
 40
0.0
  9
$USERR2
 40
0.0
  9
$USERR3
 40
0.0
  9
$USERR4
 40
0.0
  9
$USERR5
 40
0.0
  9
$WORLDVIEW
 70
     1
  9
$SHADEDGE
 70
     3
  9
$SHADEDIF
 70
    70
  9
$TILEMODE
 70
     1
  9
$MAXACTVP
 70
    64
  9
$PLIMCHECK
 70
     0
  9
$PEXTMIN
 10
1.0000000000000000E+20
 20
1.0000000000000000E+20
 30
1.0000000000000000E+20
  9
$PEXTMAX
 10
-1.0000000000000000E+20
 20
-1.0000000000000000E+20
 30
-1.0000000000000000E+20
  9
$PLIMMIN
 10
0.0
 20
0.0
  9
$PLIMMAX
 10
12.0
 20
9.0
  9
$UNITMODE
 70
     0
  9
$VISRETAIN
 70
     1
  9
$PLINEGEN
 70
     0
  9
$PSLTSCALE
 70
     1
  0
ENDSEC
  0
SECTION
  2
TABLES
  0
TABLE
  2
VPORT
 70
     1
  0
VPORT
  2
*ACTIVE
 70
     0
 10
0.0
 20
0.0
 11
1.0
 21
1.0
 12
-78.1341784195476521
 22
-81.7315125900239678
 13
0.0
 23
0.0
 14
1.0
 24
1.0
 15
0.0
 25
0.0
 16
0.0
 26
0.0
 36
30.6214257250603907
 17
124.6111586000725993
 27
5.3122741703778242
 37
0.0
 40
2.8951728237215941
 41
2.6486111111111108
 42
50.0
 43
0.0
 44
0.0
 50
0.0
 51
0.0
 71
     0
 72
   100
 73
     1
 74
     1
 75
     0
 76
     0
 77
     0
 78
     0
  0
ENDTAB
  0
TABLE
  2
LTYPE
 70
     2
  0
LTYPE
  2
CONTINUOUS
 70
     0
  3
Solid line
 72
    65
 73
     0
 40
0.0
  0
LTYPE
  2
PHANTOM2
 70
     0
  3
___ _ _ ___ _ _ ___ _ _ ___ _ _
 72
    65
 73
     6
 40
1.25
 49
0.625
 49
-0.125
 49
0.125
 49
-0.125
 49
0.125
 49
-0.125
  0
ENDTAB
  0
TABLE
  2
LAYER
 70
     2
  0
LAYER
  2
0
 70
     0
 62
   255
  6
CONTINUOUS
  0
LAYER
  2
DEFPOINTS
 70
     0
 62
     7
  6
CONTINUOUS
  0
ENDTAB
  0
TABLE
  2
STYLE
 70
     1
  0
STYLE
  2
STANDARD
 70
     0
 40
0.0
 41
0.8
 50
0.0
 71
     0
 42
0.2
  3
txt
  4

  0
ENDTAB
  0
TABLE
  2
VIEW
 70
     0
  0
ENDTAB
  0
TABLE
  2
UCS
 70
     0
  0
ENDTAB
  0
TABLE
  2
APPID
 70
     9
  0
APPID
  2
ACAD
 70
     0
  0
APPID
  2
ACAD_MLEADERVER
 70
     0
  0
APPID
  2
ACAD_EXEMPT_FROM_CAD_STANDARDS
 70
     0
  0
APPID
  2
ACAD_DSTYLE_DIMJAG
 70
     0
  0
APPID
  2
ACAD_DSTYLE_DIMTALN
 70
     0
  0
APPID
  2
ACAD_NAV_VCDISPLAY
 70
     0
  0
APPID
  2
ACAECLAYERSTANDARD
 70
     0
  0
APPID
  2
ACCMTRANSPARENCY
 70
     0
  0
APPID
  2
ACDBATTR
 70
     0
  0
ENDTAB
  0
TABLE
  2
DIMSTYLE
 70
     1
  0
DIMSTYLE
  2
STANDARD
 70
     0
  3

  4

  5

  6

  7

 40
1.0
 41
0.1875
 42
0.0625
 43
0.38
 44
0.125
 45
0.0
 46
0.0
 47
0.01
 48
0.01
140
0.15625
141
0.09
142
0.0
143
25.3999999999999986
144
1.0
145
0.0
146
1.0
147
0.09
 71
     1
 72
     0
 73
     1
 74
     1
 75
     0
 76
     0
 77
     0
 78
     4
170
     0
171
     2
172
     0
173
     0
174
     0
175
     0
176
     0
177
     0
178
     0
  0
ENDTAB
  0
ENDSEC
  0
SECTION
  2
BLOCKS
  0
BLOCK
  8
0
  2
$MODEL_SPACE
 70
     0
 10
0.0
 20
0.0
 30
0.0
  3
$MODEL_SPACE
  1

  0
ENDBLK
  5
21
  8
0
  0
BLOCK
 67
     1
  8
0
  2
$PAPER_SPACE
 70
     0
 10
0.0
 20
0.0
 30
0.0
  3
$PAPER_SPACE
  1

  0
ENDBLK
  5
1D
 67
     1
  8
0
  0
BLOCK
  8
0
  2
_FILLED
 70
     0
 10
0.0
 20
0.0
 30
0.0
  3
_FILLED
  1

  0
SOLID
  5
69C2
  8
0
  6
BYBLOCK
 62
     0
 10
0.0
 20
0.0
 30
0.0
 11
-1.0
 21
0.1666666667
 31
0.0
 12
-1.0
 22
-0.1666666667
 32
0.0
 13
-1.0
 23
-0.1666666667
 33
0.0
  0
ENDBLK
  5
69C3
  8
0
  6
BYBLOCK
 62
     0
  0
ENDSEC
  0
SECTION
  2
ENTITIES
  0
ATTDEF
  5
76B8
  8
DEFPOINTS
 10
46.447329159440649
 20
-74.9872996969683498
 30
0.0
 40
0.001
  1
K-14683A-4
  3

  2
MODELNUMBER
 70
     0
1001
ACDBATTR
1070
     0
1070
     1
  0
ATTDEF
  5
76B9
  8
DEFPOINTS
 10
46.447329159440649
 20
-74.988966363635015
 30
0.0
 40
0.001
  1
LOURE
  3

  2
TRADENAME
 70
     0
1001
ACDBATTR
1070
     0
1070
     1
  0
ATTDEF
  5
76BA
  8
DEFPOINTS
 10
46.447329159440649
 20
-74.9906330303016802
 30
0.0
 40
0.001
  1
VALVE TRIM
  3

  2
PRODUCT
 70
     0
1001
ACDBATTR
1070
     0
1070
     1
  0
LINE
  5
81DB
  8
0
 10
45.3975465369471394
 20
-75.7205126431607596
 30
0.0
 11
45.3975465369471394
 21
-75.7346449159098967
 31
0.0
  0
LINE
  5
81DC
  8
0
 10
45.4271953559242903
 20
-75.7200030476618622
 30
0.0
 11
45.4271953559242903
 21
-76.684267569394919
 31
0.0
  0
LINE
  5
81DD
  8
0
 10
45.4271953559242903
 20
-76.9165510339949208
 30
0.0
 11
45.4271953559242903
 21
-77.8070058420509838
 31
0.0
  0
LINE
  5
81DE
  8
0
 10
47.555275985074303
 20
-75.7205105326955987
 30
0.0
 11
47.5552759851641369
 21
-75.7343636677240397
 31
0.0
  0
LINE
  5
81DF
  8
0
 10
47.5256205527242912
 20
-75.7199920190145548
 30
0.0
 11
47.5256205527242983
 21
-76.684267569394919
 31
0.0
  0
LINE
  5
81E0
  8
0
 10
47.5256205527242983
 20
-76.9165510339949208
 30
0.0
 11
47.5256205527242983
 21
-77.8070058420618551
 31
0.0
  0
LINE
  5
81E1
  8
0
 10
43.2559355133243031
 20
-74.9913541835949218
 30
0.0
 11
49.6968803952243121
 21
-74.9913541835949218
 31
0.0
  0
LINE
  5
81E2
  8
0
 10
49.6968803952243121
 20
-74.9913541835949218
 30
0.0
 11
49.6378165706886989
 21
-75.6664332699460545
 31
0.0
  0
ARC
  5
81E3
  8
0
 10
49.5960112753862674
 20
-75.6602054206598069
 30
0.0
 40
0.0422666395879277
 50
273.9142680466335946
 51
351.5268056886648083
  0
ARC
  5
81E4
  8
0
 10
46.4324076203257476
 20
61.2894985068431808
 30
0.0
 40
137.0284628776063869
 50
270.4571105177122945
 51
271.3241234598337996
  0
ARC
  5
81E5
  8
0
 10
47.5592657444581803
 20
-75.7089326036114443
 30
0.0
 40
0.0257421289159145
 50
205.5761530925842919
 51
261.0838136030877763
  0
ARC
  5
81E6
  8
0
 10
47.5239814078335527
 20
-77.0496296596632675
 30
0.0
 40
1.3296386509972671
 50
88.7570986788217056
 51
89.9293671946381465
  0
ARC
  5
81E7
  8
0
 10
47.5523941090476825
 20
-75.7400540063923415
 30
0.0
 40
0.0197548114029922
 50
81.6116292432873252
 51
88.7570578271427451
  0
LINE
  5
81E8
  8
0
 10
43.2559355133243031
 20
-74.9913541835949218
 30
0.0
 11
43.314815798366908
 21
-75.6643824993261092
 31
0.0
  0
ARC
  5
81E9
  8
0
 10
43.3586432037053129
 20
-75.6605795326887574
 30
0.0
 40
0.0439920903565787
 50
184.9592151755009013
 51
231.0090033770225943
  0
ARC
  5
81EA
  8
0
 10
43.3542279151348922
 20
-75.6629777993289139
 30
0.0
 40
0.039396906790577
 50
233.8064483375547979
 51
269.545244933151082
  0
ARC
  5
81EB
  8
0
 10
46.6285480861703832
 20
66.8685501878865125
 30
0.0
 40
142.6085253120052982
 50
268.6842362064754184
 51
269.5173272064079129
  0
ARC
  5
81EC
  8
0
 10
45.3933602282352169
 20
-75.7091838839249078
 30
0.0
 40
0.025802893837172
 50
279.3370440647597093
 51
335.1075789287248199
  0
ARC
  5
81ED
  8
0
 10
45.4150731762905693
 20
-76.0454646479428504
 30
0.0
 40
0.3254243206931227
 50
89.7019474399115921
 51
93.0873186477690382
  0
ARC
  5
81EE
  8
0
 10
45.437727690106847
 20
-79.6600438662049015
 30
0.0
 40
3.9400548957912518
 50
89.6951766887610376
 51
90.3048233112389767
  0
LINE
  5
81EF
  8
0
 10
45.4586893547242994
 20
-75.7200447303591631
 30
0.0
 11
47.4941224257242993
 21
-75.7200632960800135
 31
0.0
  0
ARC
  5
81F0
  8
0
 10
47.5228439749787128
 20
-81.4527132156350007
 30
0.0
 40
5.732721869022197
 50
89.9722494486621258
 51
90.2870591798354951
  0
ARC
  5
81F1
  8
0
 10
45.4586878001741681
 20
-77.8070094273858359
 30
0.0
 40
0.0314924444539749
 50
179.9934769189470956
 51
268.7506596077691938
  0
ARC
  5
81F2
  8
0
 10
46.4764058919184677
 20
-31.2411856825386494
 30
0.0
 40
46.6084362165308903
 50
268.7479747907672163
 51
271.2520252047339113
  0
ARC
  5
81F3
  8
0
 10
47.4941208709247178
 20
-77.8070022561380625
 30
0.0
 40
0.0314996820036826
 50
271.2547098457685024
 51
359.993477570201776
  0
ARC
  5
81F4
  8
0
 10
45.4468768715285378
 20
-76.6842710929293929
 30
0.0
 40
0.0196815159196454
 50
179.9897424743030001
 51
270.0042488058306844
  0
LINE
  5
81F5
  8
0
 10
45.4468783310241591
 20
-76.7039526087949213
 30
0.0
 11
47.5059334491242282
 21
-76.7039526014128938
 31
0.0
  0
ARC
  5
81F6
  8
0
 10
47.5059319892587766
 20
-76.6842640376847555
 30
0.0
 40
0.0196885637822649
 50
270.004248361126713
 51
359.9897223540605182
  0
ARC
  5
81F7
  8
0
 10
47.4016027405242966
 20
-76.6888477467949201
 30
0.0
 40
0.0196850393999996
 50
284.999975798781179
 51
309.8774808920903183
  0
LINE
  5
81F8
  8
0
 10
47.4066976036246075
 20
-76.7078620347429023
 30
0.0
 11
47.3417828084352124
 21
-76.7252559017032638
 31
0.0
  0
ARC
  5
81F9
  8
0
 10
47.3621622617394777
 20
-76.8013130568104287
 30
0.0
 40
0.0787401610359908
 50
105.0000000103315045
 51
179.2914683105211964
  0
ARC
  5
81FA
  8
0
 10
46.4774138548641531
 20
-76.7903715137299088
 30
0.0
 40
0.8060758994158009
 50
335.3984820031971026
 51
359.2914683105212248
  0
LINE
  5
81FB
  8
0
 10
47.2779095753644825
 20
-76.8850549709949291
 30
0.0
 11
47.4941224255243029
 21
-76.8850549709949291
 31
0.0
  0
ARC
  5
81FC
  8
0
 10
47.4941209657990129
 20
-76.9165545580835044
 30
0.0
 40
0.0314995871224182
 50
0.0064100968343952
 51
89.9973448509604737
  0
LINE
  5
81FD
  8
0
 10
45.6748994239341286
 20
-76.8850549709949291
 30
0.0
 11
45.4586893547242994
 21
-76.8850549709949291
 31
0.0
  0
ARC
  5
81FE
  8
0
 10
45.45868789522995
 20
-76.9165475104638716
 30
0.0
 40
0.0314925395027655
 50
89.9973446769363932
 51
180.0064105169639106
  0
ARC
  5
81FF
  8
0
 10
45.5512090397242986
 20
-76.6888477467949201
 30
0.0
 40
0.0196850394000057
 50
230.1225191079039973
 51
255.0000242012065996
  0
LINE
  5
8200
  8
0
 10
45.5461141846554511
 20
-76.7078620368949231
 30
0.0
 11
45.6110289942957294
 21
-76.7252558783268199
 31
0.0
  0
ARC
  5
8201
  8
0
 10
45.5906495922847199
 20
-76.8013129705629751
 30
0.0
 40
0.0787400870316121
 50
0.7062612029174752
 51
75.0000242012069407
  0
ARC
  5
8202
  8
0
 10
46.4752332103531174
 20
-76.7904085245507559
 30
0.0
 40
0.8059107391692183
 50
180.7062612029174034
 51
204.5983248844644038
  0
ARC
  5
8203
  8
0
 10
47.4783744145812321
 20
-76.9165510425046222
 30
0.0
 40
0.0314960835569392
 50
90.0501133148888471
 51
179.9999845196635988
  0
ARC
  5
8204
  8
0
 10
47.342871742170253
 20
-76.9165510339949208
 30
0.0
 40
0.1040065888540429
 50
337.6004288631992267
 51
0.0
  0
ARC
  5
8205
  8
0
 10
47.2914185075668527
 20
-76.8953439916188728
 30
0.0
 40
0.1596588484442199
 50
321.6618341671468215
 51
337.6004288631989994
  0
ARC
  5
8206
  8
0
 10
47.2218809135261282
 20
-76.8403512586243238
 30
0.0
 40
0.2483136715909747
 50
306.0862221204841944
 51
321.6618341671468215
  0
ARC
  5
8207
  8
0
 10
46.9743804939691927
 20
-76.4983771003336273
 30
0.0
 40
0.6704535129762708
 50
290.6040458840233214
 51
305.965676187716781
  0
ARC
  5
8208
  8
0
 10
46.6024833517593109
 20
-75.4622167868955813
 30
0.0
 40
1.7712860727335711
 50
275.4828945315435931
 51
290.0695294451340942
  0
ARC
  5
8209
  8
0
 10
46.4785051461261105
 20
-74.5299874287780568
 30
0.0
 40
2.7113136531189079
 50
269.9554185953854244
 51
276.2085438794644006
  0
ARC
  5
820A
  8
0
 10
45.474437365567141
 20
-76.9165510425047216
 30
0.0
 40
0.0314960835571648
 50
0.0000154805081083
 51
89.949886412950832
  0
ARC
  5
820B
  8
0
 10
45.6177427464280285
 20
-76.9165510339949066
 30
0.0
 40
0.111809297303723
 50
180.0000000000065086
 51
218.9392907075765038
  0
ARC
  5
820C
  8
0
 10
45.7485041624519297
 20
-76.8242025475653634
 30
0.0
 40
0.2717551406477036
 50
216.7559109104423101
 51
232.9249276381860909
  0
ARC
  5
820D
  8
0
 10
45.9767186119938387
 20
-76.501117530382146
 30
0.0
 40
0.6672296841734388
 50
234.0151517645541901
 51
249.4459383402083006
  0
ARC
  5
820E
  8
0
 10
46.2247805400302028
 20
-75.8774483973869707
 30
0.0
 40
1.3383553343183541
 50
248.8762912420928046
 51
256.0611281841365212
  0
ARC
  5
820F
  8
0
 10
46.3948037089547185
 20
-75.1929799760272886
 30
0.0
 40
2.0436247051719501
 50
256.057278803893098
 51
263.9971191564025048
  0
ARC
  5
8210
  8
0
 10
46.4743067620954378
 20
-74.5299938195932157
 30
0.0
 40
2.711307246108595
 50
263.7914387074155798
 51
270.0441394234401855
  0
LINE
  5
8211
  8
0
 10
45.9023887259242898
 20
-77.1763935536949219
 30
0.0
 11
47.0486361995875981
 21
-77.1763935536949219
 31
0.0
  0
LINE
  5
8212
  8
0
 10
46.2237619683242968
 20
-77.1960785929949225
 30
0.0
 11
46.7290498118242965
 21
-77.1960785929949225
 31
0.0
  0
ARC
  5
8213
  8
0
 10
46.7290498118242965
 20
-77.2157636323900078
 30
0.0
 40
0.0196850393950943
 50
2.0000027016445721
 51
89.9999999999995879
  0
LINE
  5
8214
  8
0
 10
46.748722859592867
 20
-77.2150766334949168
 30
0.0
 11
46.7491656938109017
 21
-77.2277577291808086
 31
0.0
  0
ARC
  5
8215
  8
0
 10
46.2237619682819414
 20
-77.2157636322425986
 30
0.0
 40
0.019685039247678
 50
89.9999998767161884
 51
177.9999977127015995
  0
LINE
  5
8216
  8
0
 10
46.2040889206557281
 20
-77.2150766334949168
 30
0.0
 11
46.203646088659319
 21
-77.2277576681916003
 31
0.0
  0
LINE
  5
8217
  8
0
 10
46.279555496424301
 20
-77.1960785929949225
 30
0.0
 11
46.2795554964243081
 21
-77.1763935536949219
 31
0.0
  0
LINE
  5
8218
  8
0
 10
46.2893980161243022
 20
-77.1960785929949225
 30
0.0
 11
46.2893980161243022
 21
-77.1763935536949219
 31
0.0
  0
LINE
  5
8219
  8
0
 10
46.181084568320891
 20
-77.2253987479628137
 30
0.0
 11
46.1822942708243005
 21
-77.1763935536949219
 31
0.0
  0
LINE
  5
821A
  8
0
 10
46.7705175094243017
 20
-77.1763935536949219
 30
0.0
 11
46.7717272194322575
 21
-77.2253988150631017
 31
0.0
  0
LINE
  5
821B
  8
0
 10
46.6634137641243001
 20
-77.1960785929949225
 30
0.0
 11
46.6634137641243001
 21
-77.1763935536949219
 31
0.0
  0
LINE
  5
821C
  8
0
 10
46.6732562838243012
 20
-77.1960785929949225
 30
0.0
 11
46.6732562838243012
 21
-77.1763935536949219
 31
0.0
  0
LINE
  5
821D
  8
0
 10
45.505933449206232
 20
-76.9165540606287834
 30
0.0
 11
45.6792561860390691
 21
-76.9165540606287834
 31
0.0
  0
LINE
  5
821E
  8
0
 10
47.273552235095309
 20
-76.9165540606287692
 30
0.0
 11
47.4468783309419706
 21
-76.9165540606287692
 31
0.0
  0
LINE
  5
821F
  8
0
 10
45.4271953559242903
 20
-77.2784678933315092
 30
0.0
 11
47.5256205527242983
 21
-77.2784678933315092
 31
0.0
  0
ENDSEC
  0
EOF
