  0
SECTION
  2
HEADER
  9
$ACADVER
  1
AC1009
  9
$INSBASE
 10
46.4485248461636004
 20
-86.2576526641695125
 30
0.0
  9
$EXTMIN
 10
43.2272076551729967
 20
-89.4795370797986322
 30
-0.0000000000112498
  9
$EXTMAX
 10
49.6696402957137124
 20
-83.0359417974987934
 30
0.0000000000002956
  9
$LIMMIN
 10
0.0
 20
0.0
  9
$LIMMAX
 10
11.6929133858000007
 20
8.2677165353999982
  9
$ORTHOMODE
 70
     0
  9
$REGENMODE
 70
     1
  9
$FILLMODE
 70
     1
  9
$QTEXTMODE
 70
     0
  9
$MIRRTEXT
 70
     0
  9
$DRAGMODE
 70
     2
  9
$LTSCALE
 40
0.6431102362
  9
$OSMODE
 70
  2039
  9
$ATTMODE
 70
     1
  9
$TEXTSIZE
 40
0.2
  9
$TRACEWID
 40
0.05
  9
$TEXTSTYLE
  7
STANDARD
  9
$CLAYER
  8
0
  9
$CELTYPE
  6
BYLAYER
  9
$CECOLOR
 62
   256
  9
$DIMSCALE
 40
1.0
  9
$DIMASZ
 40
0.1875
  9
$DIMEXO
 40
0.0625
  9
$DIMDLI
 40
0.4443307087
  9
$DIMRND
 40
0.0
  9
$DIMDLE
 40
0.0
  9
$DIMEXE
 40
0.125
  9
$DIMTP
 40
0.01
  9
$DIMTM
 40
0.01
  9
$DIMTXT
 40
1.0
  9
$DIMCEN
 40
0.1052362205
  9
$DIMTSZ
 40
0.0
  9
$DIMTOL
 70
     1
  9
$DIMLIM
 70
     0
  9
$DIMTIH
 70
     1
  9
$DIMTOH
 70
     1
  9
$DIMSE1
 70
     0
  9
$DIMSE2
 70
     0
  9
$DIMTAD
 70
     0
  9
$DIMZIN
 70
     0
  9
$DIMBLK
  1

  9
$DIMASO
 70
     1
  9
$DIMSHO
 70
     1
  9
$DIMPOST
  1
\X
  9
$DIMAPOST
  1

  9
$DIMALT
 70
     1
  9
$DIMALTD
 70
     2
  9
$DIMALTF
 40
25.3999999999999986
  9
$DIMLFAC
 40
1.0
  9
$DIMTOFL
 70
     0
  9
$DIMTVP
 40
0.0
  9
$DIMTIX
 70
     0
  9
$DIMSOXD
 70
     0
  9
$DIMSAH
 70
     0
  9
$DIMBLK1
  1

  9
$DIMBLK2
  1

  9
$DIMSTYLE
  2
STANDARD
  9
$DIMCLRD
 70
     0
  9
$DIMCLRE
 70
     0
  9
$DIMCLRT
 70
     0
  9
$DIMTFAC
 40
1.0
  9
$DIMGAP
 40
0.09
  9
$LUNITS
 70
     2
  9
$LUPREC
 70
     4
  9
$SKETCHINC
 40
0.1
  9
$FILLETRAD
 40
0.0
  9
$AUNITS
 70
     0
  9
$AUPREC
 70
     0
  9
$MENU
  1
.
  9
$ELEVATION
 40
0.0
  9
$PELEVATION
 40
0.0
  9
$THICKNESS
 40
0.0
  9
$LIMCHECK
 70
     0
  9
$BLIPMODE
 70
     0
  9
$CHAMFERA
 40
0.0
  9
$CHAMFERB
 40
0.0
  9
$SKPOLY
 70
     0
  9
$TDCREATE
 40
2458172.4620254631154239
  9
$TDUPDATE
 40
2459251.6570949070155621
  9
$TDINDWG
 40
0.1436517708
  9
$TDUSRTIMER
 40
0.1436517708
  9
$USRTIMER
 70
     1
  9
$ANGBASE
 50
0.0
  9
$ANGDIR
 70
     0
  9
$PDMODE
 70
     0
  9
$PDSIZE
 40
0.3125
  9
$PLINEWID
 40
0.0
  9
$COORDS
 70
     1
  9
$SPLFRAME
 70
     0
  9
$SPLINETYPE
 70
     6
  9
$SPLINESEGS
 70
     8
  9
$ATTDIA
 70
     1
  9
$ATTREQ
 70
     1
  9
$HANDLING
 70
     1
  9
$HANDSEED
  5
8269
  9
$SURFTAB1
 70
     6
  9
$SURFTAB2
 70
     6
  9
$SURFTYPE
 70
     6
  9
$SURFU
 70
     6
  9
$SURFV
 70
     6
  9
$UCSNAME
  2

  9
$UCSORG
 10
0.0
 20
0.0
 30
0.0
  9
$UCSXDIR
 10
1.0
 20
0.0
 30
0.0
  9
$UCSYDIR
 10
0.0
 20
1.0
 30
0.0
  9
$PUCSNAME
  2

  9
$PUCSORG
 10
0.0
 20
0.0
 30
0.0
  9
$PUCSXDIR
 10
1.0
 20
0.0
 30
0.0
  9
$PUCSYDIR
 10
0.0
 20
1.0
 30
0.0
  9
$USERI1
 70
     0
  9
$USERI2
 70
     0
  9
$USERI3
 70
     0
  9
$USERI4
 70
     0
  9
$USERI5
 70
     0
  9
$USERR1
 40
0.0
  9
$USERR2
 40
0.0
  9
$USERR3
 40
0.0
  9
$USERR4
 40
0.0
  9
$USERR5
 40
0.0
  9
$WORLDVIEW
 70
     1
  9
$SHADEDGE
 70
     3
  9
$SHADEDIF
 70
    70
  9
$TILEMODE
 70
     1
  9
$MAXACTVP
 70
    64
  9
$PLIMCHECK
 70
     0
  9
$PEXTMIN
 10
1.0000000000000000E+20
 20
1.0000000000000000E+20
 30
1.0000000000000000E+20
  9
$PEXTMAX
 10
-1.0000000000000000E+20
 20
-1.0000000000000000E+20
 30
-1.0000000000000000E+20
  9
$PLIMMIN
 10
0.0
 20
0.0
  9
$PLIMMAX
 10
12.0
 20
9.0
  9
$UNITMODE
 70
     0
  9
$VISRETAIN
 70
     1
  9
$PLINEGEN
 70
     0
  9
$PSLTSCALE
 70
     1
  0
ENDSEC
  0
SECTION
  2
TABLES
  0
TABLE
  2
VPORT
 70
     1
  0
VPORT
  2
*ACTIVE
 70
     0
 10
0.0
 20
0.0
 11
1.0
 21
1.0
 12
-78.1627346246292802
 22
-91.5700136090265175
 13
0.0
 23
0.0
 14
1.0
 24
1.0
 15
0.0
 25
0.0
 16
0.0
 26
0.0
 36
30.6214257250603907
 17
124.6111586000725993
 27
5.3122741703778242
 37
0.0
 40
6.4972174344410396
 41
2.6486111111111099
 42
50.0
 43
0.0
 44
0.0
 50
0.0
 51
0.0
 71
     0
 72
   100
 73
     1
 74
     1
 75
     0
 76
     0
 77
     0
 78
     0
  0
ENDTAB
  0
TABLE
  2
LTYPE
 70
     2
  0
LTYPE
  2
CONTINUOUS
 70
     0
  3
Solid line
 72
    65
 73
     0
 40
0.0
  0
LTYPE
  2
PHANTOM2
 70
     0
  3
___ _ _ ___ _ _ ___ _ _ ___ _ _
 72
    65
 73
     6
 40
1.25
 49
0.625
 49
-0.125
 49
0.125
 49
-0.125
 49
0.125
 49
-0.125
  0
ENDTAB
  0
TABLE
  2
LAYER
 70
     2
  0
LAYER
  2
0
 70
     0
 62
   255
  6
CONTINUOUS
  0
LAYER
  2
DEFPOINTS
 70
     0
 62
     7
  6
CONTINUOUS
  0
ENDTAB
  0
TABLE
  2
STYLE
 70
     1
  0
STYLE
  2
STANDARD
 70
     0
 40
0.0
 41
0.8
 50
0.0
 71
     0
 42
0.2
  3
txt
  4

  0
ENDTAB
  0
TABLE
  2
VIEW
 70
     0
  0
ENDTAB
  0
TABLE
  2
UCS
 70
     0
  0
ENDTAB
  0
TABLE
  2
APPID
 70
     9
  0
APPID
  2
ACAD
 70
     0
  0
APPID
  2
ACAD_MLEADERVER
 70
     0
  0
APPID
  2
ACAD_EXEMPT_FROM_CAD_STANDARDS
 70
     0
  0
APPID
  2
ACAD_DSTYLE_DIMJAG
 70
     0
  0
APPID
  2
ACAD_DSTYLE_DIMTALN
 70
     0
  0
APPID
  2
ACAD_NAV_VCDISPLAY
 70
     0
  0
APPID
  2
ACAECLAYERSTANDARD
 70
     0
  0
APPID
  2
ACCMTRANSPARENCY
 70
     0
  0
APPID
  2
ACDBATTR
 70
     0
  0
ENDTAB
  0
TABLE
  2
DIMSTYLE
 70
     1
  0
DIMSTYLE
  2
STANDARD
 70
     0
  3

  4

  5

  6

  7

 40
1.0
 41
0.1875
 42
0.0625
 43
0.38
 44
0.125
 45
0.0
 46
0.0
 47
0.01
 48
0.01
140
0.15625
141
0.09
142
0.0
143
25.3999999999999986
144
1.0
145
0.0
146
1.0
147
0.09
 71
     1
 72
     0
 73
     1
 74
     1
 75
     0
 76
     0
 77
     0
 78
     4
170
     0
171
     2
172
     0
173
     0
174
     0
175
     0
176
     0
177
     0
178
     0
  0
ENDTAB
  0
ENDSEC
  0
SECTION
  2
BLOCKS
  0
BLOCK
  8
0
  2
$MODEL_SPACE
 70
     0
 10
0.0
 20
0.0
 30
0.0
  3
$MODEL_SPACE
  1

  0
ENDBLK
  5
21
  8
0
  0
BLOCK
 67
     1
  8
0
  2
$PAPER_SPACE
 70
     0
 10
0.0
 20
0.0
 30
0.0
  3
$PAPER_SPACE
  1

  0
ENDBLK
  5
1D
 67
     1
  8
0
  0
BLOCK
  8
0
  2
_FILLED
 70
     0
 10
0.0
 20
0.0
 30
0.0
  3
_FILLED
  1

  0
SOLID
  5
69C2
  8
0
  6
BYBLOCK
 62
     0
 10
0.0
 20
0.0
 30
0.0
 11
-1.0
 21
0.1666666667
 31
0.0
 12
-1.0
 22
-0.1666666667
 32
0.0
 13
-1.0
 23
-0.1666666667
 33
0.0
  0
ENDBLK
  5
69C3
  8
0
  6
BYBLOCK
 62
     0
  0
ENDSEC
  0
SECTION
  2
ENTITIES
  0
ATTDEF
  5
76B5
  8
DEFPOINTS
 10
46.4486909132937313
 20
-86.2537967079220209
 30
0.0
 40
0.001
  1
K-14682M-4
  3

  2
MODELNUMBER
 70
     0
1001
ACDBATTR
1070
     0
1070
     1
  0
ATTDEF
  5
76B6
  8
DEFPOINTS
 10
46.4486909132937313
 20
-86.2554633745886861
 30
0.0
 40
0.001
  1
LOURE
  3

  2
TRADENAME
 70
     0
1001
ACDBATTR
1070
     0
1070
     1
  0
ATTDEF
  5
76B7
  8
DEFPOINTS
 10
46.4486909132937313
 20
-86.257130041255337
 30
0.0
 40
0.001
  1
VALVE TRIM
  3

  2
PRODUCT
 70
     0
1001
ACDBATTR
1070
     0
1070
     1
  0
LINE
  5
7E67
  8
0
 10
43.2280503410135992
 20
-83.1940612780506541
 30
0.0
 11
43.2280503410135992
 21
-89.3212440502883709
 31
0.0
  0
LINE
  5
7E68
  8
0
 10
49.6689952229136082
 20
-83.1940612780195181
 30
0.0
 11
49.6689952229136082
 21
-89.3212498326265347
 31
0.0
  0
LINE
  5
7E69
  8
0
 10
47.4977353804136087
 20
-88.3344243177195096
 30
0.0
 11
47.4977353804136087
 21
-84.1966290421195254
 31
0.0
  0
LINE
  5
7E6A
  8
0
 10
45.3993101836136006
 20
-88.3344243177195096
 30
0.0
 11
45.3993101836136006
 21
-84.1966290373103305
 31
0.0
  0
LINE
  5
7E6B
  8
0
 10
43.3847835446730983
 20
-83.0371802232194938
 30
0.0
 11
49.5121141681824568
 21
-83.0371802232194938
 31
0.0
  0
LINE
  5
7E6C
  8
0
 10
49.4534831716639331
 20
-89.3801433278695185
 30
0.0
 11
43.4437599289136003
 21
-89.3801433282195177
 31
0.0
  0
LINE
  5
7E6D
  8
0
 10
43.3260321181136092
 20
-83.2528898097195054
 30
0.0
 11
43.3260321181136092
 21
-89.26260493619057
 31
0.0
  0
LINE
  5
7E6E
  8
0
 10
49.5710134460136089
 20
-83.2528898097195054
 30
0.0
 11
49.5710134460136089
 21
-89.2626132888287032
 31
0.0
  0
ARC
  5
7E6F
  8
0
 10
43.3846870235625701
 20
-83.1938170664044634
 30
0.0
 40
0.1566368729235669
 50
89.9646938009314141
 51
180.0893295559453975
  0
ARC
  5
7E70
  8
0
 10
43.4436599524713216
 20
-83.2527865863005161
 30
0.0
 40
0.1176246289515633
 50
90.0486291002553543
 51
180.0502814891040941
  0
ARC
  5
7E71
  8
0
 10
49.4533790231051213
 20
-83.2527964227446233
 30
0.0
 40
0.117634459977247
 50
359.9545143482159801
 51
90.045486147142995
  0
ARC
  5
7E72
  8
0
 10
49.5123596573511691
 20
-83.1938157887820466
 30
0.0
 40
0.1566357579355099
 50
359.9102024776120743
 51
90.089797497239843
  0
LINE
  5
7E73
  8
0
 10
43.4435601200013579
 20
-83.1351619997147537
 30
0.0
 11
49.4532856351132111
 21
-83.1351619998369529
 31
0.0
  0
ARC
  5
7E74
  8
0
 10
49.4533844033885188
 20
-89.2625142850464499
 30
0.0
 40
0.1176290842888905
 50
269.9518910987932827
 51
0.0482236136148617
  0
ARC
  5
7E75
  8
0
 10
43.3846859067562107
 20
-89.3214895393826538
 30
0.0
 40
0.156635758115449
 50
179.9102025300830121
 51
270.0897974675513069
  0
LINE
  5
7E76
  8
0
 10
43.3849313958440277
 20
-89.4781251051252724
 30
0.0
 11
45.9263784516136084
 21
-89.478125105119517
 31
0.0
  0
LINE
  5
7E77
  8
0
 10
45.9263784516136084
 20
-89.478125105119517
 30
0.0
 11
45.9367117584136011
 21
-89.4677917984195261
 31
0.0
  0
LINE
  5
7E78
  8
0
 10
45.9367117584136011
 20
-89.4677917984195261
 30
0.0
 11
46.2516723883136081
 21
-89.4677917984195261
 31
0.0
  0
LINE
  5
7E79
  8
0
 10
46.2516723883136081
 20
-89.4677917984195261
 30
0.0
 11
46.2620056950135989
 21
-89.478125105119517
 31
0.0
  0
LINE
  5
7E7A
  8
0
 10
46.2620056950135989
 20
-89.478125105119517
 30
0.0
 11
46.6350398690136103
 21
-89.478125105119517
 31
0.0
  0
LINE
  5
7E7B
  8
0
 10
46.6350398690136103
 20
-89.478125105119517
 30
0.0
 11
46.6453731757136083
 21
-89.4677917984195261
 31
0.0
  0
LINE
  5
7E7C
  8
0
 10
46.6453731757136083
 20
-89.4677917984195261
 30
0.0
 11
46.960333805613601
 21
-89.4677917984195261
 31
0.0
  0
LINE
  5
7E7D
  8
0
 10
46.960333805613601
 20
-89.4677917984195261
 30
0.0
 11
46.970667112313599
 21
-89.478125105119517
 31
0.0
  0
LINE
  5
7E7E
  8
0
 10
46.970667112313599
 20
-89.478125105119517
 30
0.0
 11
49.5121141681847874
 21
-89.4781251051252724
 31
0.0
  0
ARC
  5
7E7F
  8
0
 10
49.5121141681851498
 20
-89.3212440502902751
 30
0.0
 40
0.1568810548350195
 50
269.9999999998701128
 51
359.9978881869146221
  0
ARC
  5
7E80
  8
0
 10
43.4436652189293966
 20
-89.2625102274046753
 30
0.0
 40
0.1176331389417702
 50
180.0461299796043022
 51
270.0461305632713902
  0
ARC
  5
7E81
  8
0
 10
45.4308062466135993
 20
-88.3344243177195096
 30
0.0
 40
0.0314960629999996
 50
180.0
 51
270.0
  0
LINE
  5
7E82
  8
0
 10
45.4308062466135993
 20
-88.3659203807195155
 30
0.0
 11
47.4662393174136028
 21
-88.3659203807195155
 31
0.0
  0
ARC
  5
7E83
  8
0
 10
47.4662393174136028
 20
-88.3344243177195096
 30
0.0
 40
0.0314960630000005
 50
270.0
 51
359.9999999999992042
  0
ARC
  5
7E84
  8
0
 10
45.4308062466135993
 20
-84.1966290421195254
 30
0.0
 40
0.031496063
 50
90.0
 51
179.9999912514240066
  0
LINE
  5
7E85
  8
0
 10
45.4308062466135993
 20
-84.1651329791195053
 30
0.0
 11
47.4662393174136028
 21
-84.1651329791195337
 31
0.0
  0
ARC
  5
7E86
  8
0
 10
47.4662393174136028
 20
-84.1966290421195254
 30
0.0
 40
0.0314960630000005
 50
0.0000000000016284
 51
90.0
  0
ARC
  5
7E87
  8
0
 10
45.4208453618163475
 20
-86.2419131923773108
 30
0.0
 40
0.0511980156102971
 50
179.9880822869160113
 51
245.1014559157476924
  0
LINE
  5
7E88
  8
0
 10
45.3696473473136095
 20
-86.2419025430195063
 30
0.0
 11
45.36967538195929
 21
-84.1865117785925463
 31
0.0
  0
ARC
  5
7E89
  8
0
 10
45.4209087790842005
 20
-84.1865539695958347
 30
0.0
 40
0.0512334144971762
 50
90.031045210745944
 51
179.9528165998914915
  0
LINE
  5
7E8A
  8
0
 10
45.420881018713601
 20
-84.135320562619512
 30
0.0
 11
47.476168673613607
 21
-84.1353205453195159
 31
0.0
  0
ARC
  5
7E8B
  8
0
 10
47.4761579642090012
 20
-84.186533728777178
 30
0.0
 40
0.0512131689383994
 50
359.9198299555724248
 51
89.9811189533091635
  0
LINE
  5
7E8C
  8
0
 10
47.5273710830135983
 20
-84.1866053878195117
 30
0.0
 11
47.5274105425136071
 21
-86.241992441519514
 31
0.0
  0
ARC
  5
7E8D
  8
0
 10
47.4762545571253725
 20
-86.2419335666887861
 30
0.0
 40
0.0511560192674
 50
294.8530966660121067
 51
359.9340589804858155
  0
ENDSEC
  0
EOF
