  0
SECTION
  2
HEADER
  9
$ACADVER
  1
AC1009
  9
$INSBASE
 10
0.0
 20
4.8158750596250002
 30
0.0
  9
$EXTMIN
 10
-4.2648875085410083
 20
-10.0866663401596099
 30
-0.0000000349181948
  9
$EXTMAX
 10
20.0622246647233595
 20
17.1966373644664792
 30
0.0000000814935746
  9
$LIMMIN
 10
0.0
 20
0.0
  9
$LIMMAX
 10
11.6929133858000007
 20
8.2677165353999982
  9
$ORTHOMODE
 70
     1
  9
$REGENMODE
 70
     1
  9
$FILLMODE
 70
     1
  9
$QTEXTMODE
 70
     0
  9
$MIRRTEXT
 70
     0
  9
$DRAGMODE
 70
     2
  9
$LTSCALE
 40
0.6431102362
  9
$OSMODE
 70
  4095
  9
$ATTMODE
 70
     1
  9
$TEXTSIZE
 40
1.4799467947586891
  9
$TRACEWID
 40
0.05
  9
$TEXTSTYLE
  7
STANDARD
  9
$CLAYER
  8
DEFPOINTS
  9
$CELTYPE
  6
BYLAYER
  9
$CECOLOR
 62
   256
  9
$DIMSCALE
 40
1.0
  9
$DIMASZ
 40
0.1875
  9
$DIMEXO
 40
0.0625
  9
$DIMDLI
 40
0.4443307087
  9
$DIMRND
 40
0.0
  9
$DIMDLE
 40
0.0
  9
$DIMEXE
 40
0.125
  9
$DIMTP
 40
0.01
  9
$DIMTM
 40
0.01
  9
$DIMTXT
 40
2.0
  9
$DIMCEN
 40
0.1052362205
  9
$DIMTSZ
 40
0.0
  9
$DIMTOL
 70
     1
  9
$DIMLIM
 70
     0
  9
$DIMTIH
 70
     1
  9
$DIMTOH
 70
     1
  9
$DIMSE1
 70
     0
  9
$DIMSE2
 70
     0
  9
$DIMTAD
 70
     0
  9
$DIMZIN
 70
     0
  9
$DIMBLK
  1

  9
$DIMASO
 70
     1
  9
$DIMSHO
 70
     1
  9
$DIMPOST
  1
\X
  9
$DIMAPOST
  1

  9
$DIMALT
 70
     1
  9
$DIMALTD
 70
     2
  9
$DIMALTF
 40
25.3999999999999986
  9
$DIMLFAC
 40
1.0
  9
$DIMTOFL
 70
     0
  9
$DIMTVP
 40
0.0
  9
$DIMTIX
 70
     0
  9
$DIMSOXD
 70
     0
  9
$DIMSAH
 70
     0
  9
$DIMBLK1
  1

  9
$DIMBLK2
  1

  9
$DIMSTYLE
  2
STANDARD
  9
$DIMCLRD
 70
     0
  9
$DIMCLRE
 70
     0
  9
$DIMCLRT
 70
     0
  9
$DIMTFAC
 40
1.0
  9
$DIMGAP
 40
0.09
  9
$LUNITS
 70
     2
  9
$LUPREC
 70
     4
  9
$SKETCHINC
 40
0.1
  9
$FILLETRAD
 40
0.0
  9
$AUNITS
 70
     0
  9
$AUPREC
 70
     0
  9
$MENU
  1
.
  9
$ELEVATION
 40
0.0
  9
$PELEVATION
 40
0.0
  9
$THICKNESS
 40
0.0
  9
$LIMCHECK
 70
     0
  9
$BLIPMODE
 70
     0
  9
$CHAMFERA
 40
0.0
  9
$CHAMFERB
 40
0.0
  9
$SKPOLY
 70
     0
  9
$TDCREATE
 40
2458060.468368056230247
  9
$TDUPDATE
 40
2459776.7777893519960344
  9
$TDINDWG
 40
0.7863959491
  9
$TDUSRTIMER
 40
0.7863959491
  9
$USRTIMER
 70
     1
  9
$ANGBASE
 50
0.0
  9
$ANGDIR
 70
     0
  9
$PDMODE
 70
     0
  9
$PDSIZE
 40
0.3125
  9
$PLINEWID
 40
0.0
  9
$COORDS
 70
     1
  9
$SPLFRAME
 70
     0
  9
$SPLINETYPE
 70
     6
  9
$SPLINESEGS
 70
     8
  9
$ATTDIA
 70
     1
  9
$ATTREQ
 70
     1
  9
$HANDLING
 70
     1
  9
$HANDSEED
  5
137DD
  9
$SURFTAB1
 70
     6
  9
$SURFTAB2
 70
     6
  9
$SURFTYPE
 70
     6
  9
$SURFU
 70
     6
  9
$SURFV
 70
     6
  9
$UCSNAME
  2

  9
$UCSORG
 10
0.0
 20
0.0
 30
0.0
  9
$UCSXDIR
 10
1.0
 20
0.0
 30
0.0
  9
$UCSYDIR
 10
0.0
 20
1.0
 30
0.0
  9
$PUCSNAME
  2

  9
$PUCSORG
 10
0.0
 20
0.0
 30
0.0
  9
$PUCSXDIR
 10
1.0
 20
0.0
 30
0.0
  9
$PUCSYDIR
 10
0.0
 20
1.0
 30
0.0
  9
$USERI1
 70
     0
  9
$USERI2
 70
     0
  9
$USERI3
 70
     0
  9
$USERI4
 70
     0
  9
$USERI5
 70
     0
  9
$USERR1
 40
0.0
  9
$USERR2
 40
0.0
  9
$USERR3
 40
0.0
  9
$USERR4
 40
0.0
  9
$USERR5
 40
0.0
  9
$WORLDVIEW
 70
     1
  9
$SHADEDGE
 70
     3
  9
$SHADEDIF
 70
    70
  9
$TILEMODE
 70
     1
  9
$MAXACTVP
 70
    64
  9
$PLIMCHECK
 70
     0
  9
$PEXTMIN
 10
1.0000000000000000E+20
 20
1.0000000000000000E+20
 30
1.0000000000000000E+20
  9
$PEXTMAX
 10
-1.0000000000000000E+20
 20
-1.0000000000000000E+20
 30
-1.0000000000000000E+20
  9
$PLIMMIN
 10
0.0
 20
0.0
  9
$PLIMMAX
 10
12.0
 20
9.0
  9
$UNITMODE
 70
     0
  9
$VISRETAIN
 70
     1
  9
$PLINEGEN
 70
     0
  9
$PSLTSCALE
 70
     1
  0
ENDSEC
  0
SECTION
  2
TABLES
  0
TABLE
  2
VPORT
 70
     1
  0
VPORT
  2
*ACTIVE
 70
     0
 10
0.0
 20
0.0
 11
1.0
 21
1.0
 12
-3698.0260140390969354
 22
-147.5803294292527994
 13
0.0
 23
0.0
 14
1.0
 24
1.0
 15
0.0
 25
0.0
 16
0.0
 26
0.0
 36
53.6396422917490412
 17
3705.9246826171879547
 27
151.1353149414061932
 37
0.0
 40
27.4786495545398886
 41
2.2831541218637992
 42
50.0
 43
0.0
 44
0.0
 50
0.0
 51
0.0
 71
     0
 72
   100
 73
     1
 74
     1
 75
     0
 76
     0
 77
     0
 78
     0
  0
ENDTAB
  0
TABLE
  2
LTYPE
 70
     2
  0
LTYPE
  2
CONTINUOUS
 70
     0
  3
Solid line
 72
    65
 73
     0
 40
0.0
  0
LTYPE
  2
PHANTOM2
 70
     0
  3
___ _ _ ___ _ _ ___ _ _ ___ _ _
 72
    65
 73
     6
 40
1.25
 49
0.625
 49
-0.125
 49
0.125
 49
-0.125
 49
0.125
 49
-0.125
  0
ENDTAB
  0
TABLE
  2
LAYER
 70
     2
  0
LAYER
  2
0
 70
     0
 62
   255
  6
CONTINUOUS
  0
LAYER
  2
DEFPOINTS
 70
     0
 62
     7
  6
CONTINUOUS
  0
ENDTAB
  0
TABLE
  2
STYLE
 70
     1
  0
STYLE
  2
STANDARD
 70
     0
 40
0.0
 41
0.8
 50
0.0
 71
     0
 42
1.4799467947586891
  3
txt
  4

  0
ENDTAB
  0
TABLE
  2
VIEW
 70
     0
  0
ENDTAB
  0
TABLE
  2
UCS
 70
     0
  0
ENDTAB
  0
TABLE
  2
APPID
 70
    10
  0
APPID
  2
ACAD
 70
     0
  0
APPID
  2
ACAD_MLEADERVER
 70
     0
  0
APPID
  2
ACAD_EXEMPT_FROM_CAD_STANDARDS
 70
     0
  0
APPID
  2
ACAD_NAV_VCDISPLAY
 70
     0
  0
APPID
  2
ACAECLAYERSTANDARD
 70
     0
  0
APPID
  2
ACCMTRANSPARENCY
 70
     0
  0
APPID
  2
ACAD_DSTYLE_DIMJAG
 70
     0
  0
APPID
  2
ACAD_DSTYLE_DIMTALN
 70
     0
  0
APPID
  2
ACDBATTR
 70
     0
  0
APPID
  2
ACAD_PSEXT
 70
     0
  0
ENDTAB
  0
TABLE
  2
DIMSTYLE
 70
     1
  0
DIMSTYLE
  2
STANDARD
 70
     0
  3

  4

  5

  6

  7

 40
1.0
 41
0.1875
 42
0.0625
 43
0.38
 44
0.125
 45
0.0
 46
0.0
 47
0.01
 48
0.01
140
0.15625
141
0.09
142
0.0
143
25.3999999999999986
144
1.0
145
0.0
146
1.0
147
0.09
 71
     1
 72
     0
 73
     1
 74
     1
 75
     0
 76
     0
 77
     0
 78
     4
170
     0
171
     2
172
     0
173
     0
174
     0
175
     0
176
     0
177
     0
178
     0
  0
ENDTAB
  0
ENDSEC
  0
SECTION
  2
BLOCKS
  0
BLOCK
  8
0
  2
$MODEL_SPACE
 70
     0
 10
0.0
 20
0.0
 30
0.0
  3
$MODEL_SPACE
  1

  0
ENDBLK
  5
21
  8
0
  0
BLOCK
 67
     1
  8
0
  2
$PAPER_SPACE
 70
     0
 10
0.0
 20
0.0
 30
0.0
  3
$PAPER_SPACE
  1

  0
ENDBLK
  5
1D
 67
     1
  8
0
  0
ENDSEC
  0
SECTION
  2
ENTITIES
  0
ATTDEF
  5
1243E
  8
DEFPOINTS
 10
0.0002635995506353
 20
-0.001082181537214
 30
0.0
 40
0.001
  1
K-14590T-4
  3

  2
MODELNUMBER
 70
     0
1001
ACDBATTR
1070
     0
1070
     1
  0
ATTDEF
  5
1243F
  8
DEFPOINTS
 10
0.0002635995506353
 20
-0.0027488482038791
 30
0.0
 40
0.001
  1
PURIST
  3

  2
TRADENAME
 70
     0
1001
ACDBATTR
1070
     0
1070
     1
  0
ATTDEF
  5
12440
  8
DEFPOINTS
 10
0.0002635995506353
 20
-0.0044155148705443
 30
0.0
 40
0.001
  1
BATH AND SHOWER FAUCET
  3

  2
PRODUCT
 70
     0
1001
ACDBATTR
1070
     0
1070
     1
  0
LINE
  5
12441
  8
0
 10
-4.2639814490867129
 20
-0.8819172195958913
 30
0.0
 11
-4.2639560733000499
 21
0.881889917799981
 31
0.0
  0
LINE
  5
12442
  8
0
 10
-0.4047224034002284
 20
-2.2866623192000191
 30
0.0
 11
-0.4232283464002649
 21
-1.842519685000013
 31
0.0
  0
LINE
  5
12443
  8
0
 10
-0.4265091863003363
 20
-1.7637795275000201
 30
0.0
 11
-0.4527559054999984
 21
-1.13385826770002
 31
0.0
  0
LINE
  5
12444
  8
0
 10
-0.4625984252002127
 20
-0.9054088100097033
 30
0.0
 11
-0.4625984252002127
 21
-1.13385826770002
 31
0.0
  0
LINE
  5
12445
  8
0
 10
-0.393700787400121
 20
-1.7637795275000201
 30
0.0
 11
-0.393700787400121
 21
-1.7681102362000161
 31
0.0
  0
LINE
  5
12446
  8
0
 10
-0.393700787400121
 20
-1.838188976400005
 30
0.0
 11
-0.393700787400121
 21
-1.842519685000013
 31
0.0
  0
LINE
  5
12447
  8
0
 10
-0.2952755905002959
 20
-2.3149606299000141
 30
0.0
 11
-0.2952755905002959
 21
-5.9015748031000044
 31
0.0
  0
LINE
  5
12448
  8
0
 10
0.2952755905998856
 20
-2.3149606299000141
 30
0.0
 11
0.2952755905998856
 21
-5.9015748031000044
 31
0.0
  0
LINE
  5
12449
  8
0
 10
0.3937007873996663
 20
-1.7637795275000201
 30
0.0
 11
0.3937007873996663
 21
-1.7681102362000161
 31
0.0
  0
LINE
  5
1244A
  8
0
 10
0.3937007873996663
 20
-1.838188976400005
 30
0.0
 11
0.3937007873996663
 21
-1.842519685000013
 31
0.0
  0
LINE
  5
1244B
  8
0
 10
0.462598425199758
 20
-0.9054392138172886
 30
0.0
 11
0.462598425199758
 21
-1.13385826770002
 31
0.0
  0
LINE
  5
1244C
  8
0
 10
0.4047224033997737
 20
-2.2866623192000191
 30
0.0
 11
0.4232283464998546
 21
-1.842519685000013
 31
0.0
  0
LINE
  5
1244D
  8
0
 10
0.426509186399926
 20
-1.7637795275000201
 30
0.0
 11
0.4527559054999984
 21
-1.13385826770002
 31
0.0
  0
LINE
  5
1244E
  8
0
 10
-0.3752204424999945
 20
-2.3149606299000141
 30
0.0
 11
-0.0023378171999866
 21
-2.3149606299000141
 31
0.0
  0
LINE
  5
1244F
  8
0
 10
-0.0023378171999866
 20
-2.3149606299000141
 30
0.0
 11
0.3752204424999945
 21
-2.3149606299000141
 31
0.0
  0
LINE
  5
12450
  8
0
 10
-0.1633573065942073
 20
-2.1181102362000099
 30
0.0
 11
0.1633570954586503
 21
-2.1181102362000099
 31
0.0
  0
LINE
  5
12451
  8
0
 10
0.4232283464998546
 20
-1.842519685000013
 30
0.0
 11
-0.4232283464002649
 21
-1.842519685000013
 31
0.0
  0
LINE
  5
12452
  8
0
 10
-0.3980314960999749
 20
-1.838188976400005
 30
0.0
 11
0.3980314960999749
 21
-1.838188976400005
 31
0.0
  0
LINE
  5
12453
  8
0
 10
-0.3980314960999749
 20
-1.7681102362000161
 30
0.0
 11
0.3980314960999749
 21
-1.7681102362000161
 31
0.0
  0
LINE
  5
12454
  8
0
 10
-0.4265091863003363
 20
-1.7637795275000201
 30
0.0
 11
0.426509186399926
 21
-1.7637795275000201
 31
0.0
  0
LINE
  5
12455
  8
0
 10
4.3205514553997091
 20
-0.8788698300000135
 30
0.0
 11
4.3205514552996638
 21
0.8788698404999877
 31
0.0
  0
LINE
  5
12456
  8
0
 10
4.2601508593997996
 20
0.8861717295999937
 30
0.0
 11
4.2598418001389291
 21
-0.8858342365037685
 31
0.0
  0
LINE
  5
12457
  8
0
 10
5.0966663089998292
 20
-0.8828974625000114
 30
0.0
 11
4.3531490867999301
 21
-0.9088575886000285
 31
0.0
  0
LINE
  5
12458
  8
0
 10
5.6809002289001
 20
-0.2203430086000253
 30
0.0
 11
5.4558140713998
 21
-0.2242719021000141
 31
0.0
  0
LINE
  5
12459
  8
0
 10
-0.4625984252002127
 20
-1.13385826770002
 30
0.0
 11
0.462598425199758
 21
-1.13385826770002
 31
0.0
  0
LINE
  5
1245A
  8
0
 10
4.2598503847129896
 20
-0.8366141732000187
 30
0.0
 11
4.3188976378000907
 21
-0.8366141732000187
 31
0.0
  0
LINE
  5
1245B
  8
0
 10
5.1256193240997163
 20
-0.8529157377000161
 30
0.0
 11
5.1256193240997163
 21
0.8529157376999876
 31
0.0
  0
LINE
  5
1245C
  8
0
 10
18.1598264289000291
 20
14.6454962862000002
 30
0.0
 11
18.1672647863997483
 21
14.6508453683999793
 31
0.0
  0
LINE
  5
1245D
  8
0
 10
4.2601422159627873
 20
0.8366141731999903
 30
0.0
 11
4.3188976378000907
 21
0.8366141731999903
 31
0.0
  0
LINE
  5
1245E
  8
0
 10
5.6809002289001
 20
0.2203430086999845
 30
0.0
 11
5.4558140713998
 21
0.2242719020999857
 31
0.0
  0
LINE
  5
1245F
  8
0
 10
5.0966663089998292
 20
0.882897462499983
 30
0.0
 11
4.353145708199917
 21
0.908857690699989
 31
0.0
  0
LINE
  5
12460
  8
0
 10
5.7005530930000532
 20
0.1851000659999897
 30
0.0
 11
5.7005529963998924
 21
-0.1863492232000112
 31
0.0
  0
LINE
  5
12461
  8
0
 10
5.7005511813999874
 20
-0.2003449568000235
 30
0.0
 11
5.7005511806996756
 21
0.2003460546999918
 31
0.0
  0
LINE
  5
12462
  8
0
 10
17.4285201679999808
 20
14.7493012087999809
 30
0.0
 11
17.4424759945000005
 21
14.7995698602999806
 31
0.0
  0
LINE
  5
12463
  8
0
 10
17.6202714841997405
 20
14.3748575224999797
 30
0.0
 11
17.6302538029908611
 21
14.4077717213701497
 31
0.0
  0
LINE
  5
12464
  8
0
 10
17.6199122175999001
 20
15.0263974030999901
 30
0.0
 11
17.6376132039999902
 21
15.0799394301999996
 31
0.0
  0
LINE
  5
12465
  8
0
 10
17.4136744940997197
 20
14.5262039193999897
 30
0.0
 11
17.4326193751999199
 21
14.5826057342999906
 31
0.0
  0
LINE
  5
12466
  8
0
 10
17.4134538025000403
 20
14.8728423651999702
 30
0.0
 11
17.4315629099996805
 21
14.9243276469999806
 31
0.0
  0
LINE
  5
12467
  8
0
 10
17.3418334336997688
 20
14.6991459555999793
 30
0.0
 11
17.3542903442303214
 21
14.7344214295813192
 31
0.0
  0
LINE
  5
12468
  8
0
 10
18.0094806015999893
 20
9.0877838508999957
 30
0.0
 11
17.8343080285999314
 21
9.0877838508999957
 31
0.0
  0
LINE
  5
12469
  8
0
 10
18.1295836939998516
 20
9.2015957220999951
 30
0.0
 11
17.9209222766999083
 21
9.2015957220999951
 31
0.0
  0
LINE
  5
1246A
  8
0
 10
17.8343081033999589
 20
9.247171012099983
 30
0.0
 11
17.7837485951999916
 21
9.247171012099983
 31
0.0
  0
LINE
  5
1246B
  8
0
 10
17.4909355947997902
 20
14.6427833994999901
 30
0.0
 11
17.4985257041998885
 21
14.6815593954999901
 31
0.0
  0
LINE
  5
1246C
  8
0
 10
17.5536552691000907
 20
14.7948863563999797
 30
0.0
 11
17.5614139388999284
 21
14.8345234853000001
 31
0.0
  0
LINE
  5
1246D
  8
0
 10
17.5536552691000907
 20
14.4906804424999809
 30
0.0
 11
17.5617202572998394
 21
14.5318824766999892
 31
0.0
  0
LINE
  5
1246E
  8
0
 10
17.7342493738997291
 20
14.9286434519999904
 30
0.0
 11
17.7428092537997983
 21
14.9723737656999791
 31
0.0
  0
LINE
  5
1246F
  8
0
 10
18.14802719840009
 20
15.1177283667999802
 30
0.0
 11
18.1628706298997713
 21
15.1819032014999706
 31
0.0
  0
LINE
  5
12470
  8
0
 10
18.3243410888999314
 20
15.2039028015999804
 30
0.0
 11
18.3404360085000917
 21
15.2710113295000003
 31
0.0
  0
LINE
  5
12471
  8
0
 10
17.8114935087000887
 20
14.3013965072999802
 30
0.0
 11
17.8270208589897301
 21
14.3656360830430607
 31
0.0
  0
LINE
  5
12472
  8
0
 10
17.8113499904998207
 20
15.0336327843999999
 30
0.0
 11
17.8257424468997705
 21
15.0900944886999699
 31
0.0
  0
LINE
  5
12473
  8
0
 10
17.5615697589996707
 20
14.4277742542999707
 30
0.0
 11
17.5764062118000801
 21
14.4844635169999894
 31
0.0
  0
LINE
  5
12474
  8
0
 10
17.5614630191998913
 20
14.9056840509999802
 30
0.0
 11
17.5754926386998704
 21
14.9574566704999903
 31
0.0
  0
LINE
  5
12475
  8
0
 10
17.428559741600111
 20
14.5833291029999792
 30
0.0
 11
17.4380926082672012
 21
14.6180846260833093
 31
0.0
  0
LINE
  5
12476
  8
0
 10
17.9362819231000685
 20
15.1413590725999807
 30
0.0
 11
17.9534195893998003
 21
15.2001274663999801
 31
0.0
  0
LINE
  5
12477
  8
0
 10
18.1295836939998516
 20
9.8398287615999891
 30
0.0
 11
18.0611514454999416
 21
9.8398287615999891
 31
0.0
  0
LINE
  5
12478
  8
0
 10
18.1295836939998516
 20
10.0186190993999809
 30
0.0
 11
18.080491176399839
 21
10.0186190993999809
 31
0.0
  0
LINE
  5
12479
  8
0
 10
17.8343081037000886
 20
10.6110183067999895
 30
0.0
 11
17.769173718699669
 21
10.6110183061999805
 31
0.0
  0
LINE
  5
1247A
  8
0
 10
17.8343081047000815
 20
10.6145887327999695
 30
0.0
 11
17.8833606642997403
 21
10.6145887327999695
 31
0.0
  0
LINE
  5
1247B
  8
0
 10
17.7568786725000791
 20
10.62412672009998
 30
0.0
 11
17.8875929953346713
 21
10.6241267200002696
 31
0.0
  0
LINE
  5
1247C
  8
0
 10
18.0267272247074288
 20
10.6425406039999704
 30
0.0
 11
17.9209222766999083
 21
10.6425406039999704
 31
0.0
  0
LINE
  5
1247D
  8
0
 10
17.7342493738997291
 20
14.3569233469999897
 30
0.0
 11
17.7434047869996903
 21
14.40369609269999
 31
0.0
  0
LINE
  5
1247E
  8
0
 10
18.0109355947997685
 20
15.0279216062999996
 30
0.0
 11
18.0208836858000687
 21
15.0787439483999908
 31
0.0
  0
LINE
  5
1247F
  8
0
 10
18.0109355947997685
 20
14.2576451925999894
 30
0.0
 11
18.0217302052997184
 21
14.3127921935999893
 31
0.0
  0
LINE
  5
12480
  8
0
 10
18.3503414900001189
 20
15.0807464088999801
 30
0.0
 11
18.3621704685997393
 21
15.1411777412999893
 31
0.0
  0
LINE
  5
12481
  8
0
 10
18.3503414900001189
 20
14.2048203899999805
 30
0.0
 11
18.3631608159853386
 21
14.2703111627318702
 31
0.0
  0
LINE
  5
12482
  8
0
 10
18.14817219869974
 20
14.2194458464999798
 30
0.0
 11
18.1639587606768984
 21
14.2922763523970406
 31
0.0
  0
LINE
  5
12483
  8
0
 10
17.9425057158000492
 20
10.3994037892999796
 30
0.0
 11
17.9425234279997312
 21
10.3994638939999806
 31
0.0
  0
LINE
  5
12484
  8
0
 10
17.2487921103997905
 20
14.7128792490999807
 30
0.0
 11
17.2432822790551583
 21
14.8316161780270193
 31
0.0
  0
LINE
  5
12485
  8
0
 10
17.0649144026997384
 20
14.9207211788999796
 30
0.0
 11
17.0649144026997384
 21
15.2643828053999702
 31
0.0
  0
LINE
  5
12486
  8
0
 10
17.0649144026997384
 20
15.6858549719745994
 30
0.0
 11
17.0649144026997384
 21
15.7252465541999999
 31
0.0
  0
LINE
  5
12487
  8
0
 10
17.6029644805998906
 20
14.7015617100999805
 30
0.0
 11
17.6029644805998906
 21
14.6407901581999909
 31
0.0
  0
LINE
  5
12488
  8
0
 10
17.777281333700099
 20
14.8179867232999793
 30
0.0
 11
17.777281333700099
 21
14.70916066539999
 31
0.0
  0
LINE
  5
12489
  8
0
 10
17.9497193710999383
 20
15.9489634095999993
 30
0.0
 11
17.8829898382000501
 21
15.9330814748999803
 31
0.0
  0
LINE
  5
1248A
  8
0
 10
17.5266783657998495
 20
15.0373852781999897
 30
0.0
 11
17.5179871376999508
 21
15.1397942375999701
 31
0.0
  0
LINE
  5
1248B
  8
0
 10
17.5266523833997816
 20
14.3850304373999904
 30
0.0
 11
17.5249447378773695
 21
14.4068817884225702
 31
0.0
  0
LINE
  5
1248C
  8
0
 10
17.3204178053997495
 20
14.8860314202999806
 30
0.0
 11
17.3140781655997706
 21
14.9979803113999992
 31
0.0
  0
LINE
  5
1248D
  8
0
 10
17.3204114123000217
 20
14.5388664005999999
 30
0.0
 11
17.3140343309996716
 21
14.6565007424999791
 31
0.0
  0
LINE
  5
1248E
  8
0
 10
18.0576601843999889
 20
10.2781652739999991
 30
0.0
 11
18.0387229902171384
 21
10.6277250998595605
 31
0.0
  0
LINE
  5
1248F
  8
0
 10
17.979147173623911
 20
10.7540148210800002
 30
0.0
 11
17.8651651141999501
 21
12.9975988839999808
 31
0.0
  0
LINE
  5
12490
  8
0
 10
17.8239144026997494
 20
14.6029674904947306
 30
0.0
 11
17.8239144079998297
 21
14.5537129739999802
 31
0.0
  0
LINE
  5
12491
  8
0
 10
17.8736781821999102
 20
9.1638863767999794
 30
0.0
 11
17.8736781820421093
 21
10.5747051215736008
 31
0.0
  0
LINE
  5
12492
  8
0
 10
17.8749433252996788
 20
14.8903201161999696
 30
0.0
 11
17.8749433252996788
 21
14.7789994028999807
 31
0.0
  0
LINE
  5
12493
  8
0
 10
17.8815521978999605
 20
10.6031705248999799
 30
0.0
 11
17.8815521978999605
 21
9.2409658023999839
 31
0.0
  0
LINE
  5
12494
  8
0
 10
18.0388927404001116
 20
14.9867819210394106
 30
0.0
 11
18.0388927404001116
 21
14.9494177315871202
 31
0.0
  0
LINE
  5
12495
  8
0
 10
18.0494585858000391
 20
9.9010831232999976
 30
0.0
 11
18.0494585858000391
 21
10.0282882270999707
 31
0.0
  0
LINE
  5
12496
  8
0
 10
18.1295836939998516
 20
9.2015957220999951
 30
0.0
 11
18.1295836939998516
 21
10.0963072321999903
 31
0.0
  0
LINE
  5
12497
  8
0
 10
18.4839144079001017
 20
13.8744963556999892
 30
0.0
 11
18.483914391899809
 21
13.8680724945999696
 31
0.0
  0
LINE
  5
12498
  8
0
 10
18.4839143938997914
 20
13.7065591396999693
 30
0.0
 11
18.483914391899809
 21
13.71698348669997
 31
0.0
  0
LINE
  5
12499
  8
0
 10
18.4839154643000185
 20
13.3591082881999892
 30
0.0
 11
18.4839143840999895
 21
13.3693046356999901
 31
0.0
  0
LINE
  5
1249A
  8
0
 10
18.4839154995997887
 20
13.0298816916999805
 30
0.0
 11
18.4839143946996884
 21
13.0392901079999906
 31
0.0
  0
LINE
  5
1249B
  8
0
 10
18.4839154854998888
 20
13.2185070121999804
 30
0.0
 11
18.4839143988997385
 21
13.2120838878999791
 31
0.0
  0
LINE
  5
1249C
  8
0
 10
17.4676995129998396
 20
14.9120711175999894
 30
0.0
 11
17.453592868600019
 21
15.0211577256999895
 31
0.0
  0
LINE
  5
1249D
  8
0
 10
17.4676738717998887
 20
14.4339622075999898
 30
0.0
 11
17.4611748036731989
 21
14.4859526739732303
 31
0.0
  0
LINE
  5
1249E
  8
0
 10
17.33477167010005
 20
14.7564843029999793
 30
0.0
 11
17.3210273485997313
 21
14.8725576064999796
 31
0.0
  0
LINE
  5
1249F
  8
0
 10
17.3347640260999398
 20
14.5904337250999792
 30
0.0
 11
17.3238794948501891
 21
14.6834422889943408
 31
0.0
  0
LINE
  5
124A0
  8
0
 10
17.8426843965999105
 20
14.26995437789998
 30
0.0
 11
17.8312502754461093
 21
14.3693911718853506
 31
0.0
  0
LINE
  5
124A1
  8
0
 10
18.0165426625999316
 20
14.8289992478000006
 30
0.0
 11
18.0177106870000898
 21
14.8174340039999795
 31
0.0
  0
LINE
  5
124A2
  8
0
 10
18.05401404919985
 20
10.2426790267999692
 30
0.0
 11
18.0540180815996791
 21
10.2426706178999893
 31
0.0
  0
LINE
  5
124A3
  8
0
 10
18.1295836939998516
 20
10.0963072321999903
 30
0.0
 11
18.128943058599809
 21
10.0985771797999693
 31
0.0
  0
LINE
  5
124A4
  8
0
 10
17.3968932105999485
 20
14.6427833994999901
 30
0.0
 11
17.3802539843463784
 21
14.7277890994261593
 31
0.0
  0
LINE
  5
124A5
  8
0
 10
17.4596128849998387
 20
14.4906804424999809
 30
0.0
 11
17.4391250998996803
 21
14.5953474797999796
 31
0.0
  0
LINE
  5
124A6
  8
0
 10
17.4596128849998387
 20
14.7948863563999797
 30
0.0
 11
17.4395890012997405
 21
14.89718343609999
 31
0.0
  0
LINE
  5
124A7
  8
0
 10
17.640206989699891
 20
14.3569233469999897
 30
0.0
 11
17.6209080996000012
 21
14.4555166133999897
 31
0.0
  0
LINE
  5
124A8
  8
0
 10
17.640206989699891
 20
14.9286434519999904
 30
0.0
 11
17.6206409307401408
 21
15.0286016180409607
 31
0.0
  0
LINE
  5
124A9
  8
0
 10
17.916893210599941
 20
14.2576451925999894
 30
0.0
 11
17.8994804777999015
 21
14.3466025464999802
 31
0.0
  0
LINE
  5
124AA
  8
0
 10
17.916893210599941
 20
15.0279216062999996
 30
0.0
 11
17.8992680059436715
 21
15.11796442689967
 31
0.0
  0
LINE
  5
124AB
  8
0
 10
18.256299105799819
 20
14.2048203899999805
 30
0.0
 11
18.2413309455892012
 21
14.2812890260257408
 31
0.0
  0
LINE
  5
124AC
  8
0
 10
18.4368406038997783
 20
14.1918190147999894
 30
0.0
 11
18.4224176636998891
 21
14.2678391215999891
 31
0.0
  0
LINE
  5
124AD
  8
0
 10
18.230615767899959
 20
15.2064643153999803
 30
0.0
 11
18.216273411199829
 21
15.2849602090999692
 31
0.0
  0
LINE
  5
124AE
  8
0
 10
18.0541452879997415
 20
15.1202919139999796
 30
0.0
 11
18.0390711937998311
 21
15.2067067348999903
 31
0.0
  0
LINE
  5
124AF
  8
0
 10
18.0540610222997202
 20
14.2218607120999803
 30
0.0
 11
18.0389540351798097
 21
14.3142110597743795
 31
0.0
  0
LINE
  5
124B0
  8
0
 10
18.23044198039997
 20
14.2075225920999895
 30
0.0
 11
18.2181135467403692
 21
14.2842555517898102
 31
0.0
  0
LINE
  5
124B1
  8
0
 10
17.7175288940998108
 20
15.0384191810999805
 30
0.0
 11
17.7028671217999509
 21
15.1369993081999894
 31
0.0
  0
LINE
  5
124B2
  8
0
 10
17.7174780371997187
 20
14.3059557536999709
 30
0.0
 11
17.7132011958196891
 21
14.3362504219218998
 31
0.0
  0
LINE
  5
124B3
  8
0
 10
17.842762233799931
 20
15.1486601098999891
 30
0.0
 11
17.8311344389999213
 21
15.2390610925999894
 31
0.0
  0
LINE
  5
124B4
  8
0
 10
18.4369606582999914
 20
15.1478290552999795
 30
0.0
 11
18.4218024750998595
 21
15.2224181113999695
 31
0.0
  0
LINE
  5
124B5
  8
0
 10
18.2422544132000404
 20
15.15249727729997
 30
0.0
 11
18.2422516001997792
 21
15.15251165389998
 31
0.0
  0
LINE
  5
124B6
  8
0
 10
18.256299105799819
 20
15.0807464088999801
 30
0.0
 11
18.2422550014998706
 21
15.1524942716999895
 31
0.0
  0
ARC
  5
124B7
  8
0
 10
-4.2325326416003
 20
-0.8819377796212393
 30
0.0
 40
0.0314488142069042
 50
179.962542219984897
 51
239.1707905012553113
  0
ARC
  5
124B8
  8
0
 10
-14.7031934000797193
 20
-0.562085821691312
 30
0.0
 40
14.94776022068001
 50
353.3748449777032192
 51
354.0248280364834272
  0
ARC
  5
124B9
  8
0
 10
-4.2318485808450532
 20
0.8816361524814055
 30
0.0
 40
0.0321084951715507
 50
90.9281330635905078
 51
179.5471655151332868
  0
ARC
  5
124BA
  8
0
 10
1.381876337999983
 20
-1.814172330424213
 30
0.0
 40
0.9139490792
 50
82.079174456253341
 51
97.9208255437466732
  0
ARC
  5
124BB
  8
0
 10
1.38188976379979
 20
-0.7905865377242094
 30
0.0
 40
0.1892224409
 50
218.7179883513965137
 51
321.2820116486033726
  0
ARC
  5
124BC
  8
0
 10
4.4872709037999812
 20
-0.8917322834000174
 30
0.0
 40
0.1771653543
 50
160.2267245299493084
 51
161.8737960394026913
  0
ARC
  5
124BD
  8
0
 10
0.3980314960999749
 20
-1.8031496063000241
 30
0.0
 40
0.0350393701
 50
270.0
 51
90.0
  0
ARC
  5
124BE
  8
0
 10
-0.3980314960999749
 20
-1.8031496063000241
 30
0.0
 40
0.0350393701
 50
90.0
 51
270.0
  0
ARC
  5
124BF
  8
0
 10
5.0956193241186147
 20
-0.852915737707633
 30
0.0
 40
0.0299999999811087
 50
271.9999999631132255
 51
0.0000000145778307
  0
ARC
  5
124C0
  8
0
 10
0.3752204426000389
 20
-2.2854330709000119
 30
0.0
 40
0.0295275591
 50
270.0
 51
357.6140559695998036
  0
ARC
  5
124C1
  8
0
 10
-0.3752204424999945
 20
-2.2854330709000119
 30
0.0
 40
0.0295275591
 50
182.3859440304001112
 51
270.0
  0
ARC
  5
124C2
  8
0
 10
4.2322814205604109
 20
-0.8858254470067664
 30
0.0
 40
0.0275603809801437
 50
302.987365180069105
 51
359.9817273537926212
  0
ARC
  5
124C3
  8
0
 10
-2.9527559054999979
 20
0.0
 30
0.0
 40
1.2992125984
 50
224.3957664944576038
 51
315.6042335055423109
  0
ARC
  5
124C4
  8
0
 10
-2.9527559054999979
 20
0.0
 30
0.0
 40
1.2992125984
 50
44.6926281955836373
 51
135.3073718044163058
  0
ARC
  5
124C5
  8
0
 10
2.9527559054999979
 20
0.0
 30
0.0
 40
1.2992125984
 50
224.3957664944576038
 51
315.6042335055423109
  0
ARC
  5
124C6
  8
0
 10
2.9527559054999979
 20
0.0
 30
0.0
 40
1.2992125984
 50
44.6926281955836373
 51
135.3073718044163058
  0
ARC
  5
124C7
  8
0
 10
5.4619224040588961
 20
-0.5742185956393371
 30
0.0
 40
0.3500000000671033
 50
90.9999984289523809
 51
163.9179410199959932
  0
ARC
  5
124C8
  8
0
 10
5.4619224040575309
 20
0.5742185956379445
 30
0.0
 40
0.3500000000657051
 50
196.0820589800007951
 51
269.0000015712560071
  0
ARC
  5
124C9
  8
0
 10
6.365610920800008
 20
0.0
 30
0.0
 40
0.22
 50
90.1750733286010018
 51
270.0
  0
ARC
  5
124CA
  8
0
 10
4.4872709037999812
 20
0.8917322834999765
 30
0.0
 40
0.1771653543
 50
198.126203960597195
 51
199.7732753795675933
  0
ARC
  5
124CB
  8
0
 10
5.0956193241186147
 20
0.852915737707633
 30
0.0
 40
0.0299999999811083
 50
359.999999985422221
 51
88.0000000368868029
  0
ARC
  5
124CC
  8
0
 10
4.2325497123952109
 20
0.8861769655734975
 30
0.0
 40
0.0276011475014392
 50
359.9891309161710069
 51
87.0058894551033859
  0
ARC
  5
124CD
  8
0
 10
5.7205533027354241
 20
-0.1999948143434267
 30
0.0
 40
0.0200051857691448
 50
181.0028754368269119
 51
262.5045286057874137
  0
ARC
  5
124CE
  8
0
 10
5.720553316827135
 20
0.1999947797008588
 30
0.0
 40
0.0200052204131752
 50
90.5813063297952539
 51
178.9938821528338906
  0
ARC
  5
124CF
  8
0
 10
5.6805511801603643
 20
-0.2003460534376416
 30
0.0
 40
0.0200000012697067
 50
271.0000016868576722
 51
0.0031416352102284
  0
ARC
  5
124D0
  8
0
 10
5.6805511805287088
 20
0.2003460546300175
 30
0.0
 40
0.0200000001710574
 50
0.0000001000939387
 51
88.9999993143058248
  0
ARC
  5
124D1
  8
0
 10
14.8271795684518093
 20
-0.5485003149053398
 30
0.0
 40
15.0724872236518301
 50
185.9774718797060018
 51
186.622096816100111
  0
ARC
  5
124D2
  8
0
 10
15.2923632624997499
 20
9.8422388183999772
 30
0.0
 40
5.160563151299999
 50
63.1566531987432427
 51
63.7723898143483012
  0
ARC
  5
124D3
  8
0
 10
13.4289619506762392
 20
14.3420040222886698
 30
0.0
 40
4.493364994518612
 50
353.3676491237843038
 51
358.8020812603855916
  0
ARC
  5
124D4
  8
0
 10
13.94140034749989
 20
13.8285814825999793
 30
0.0
 40
3.493358484999999
 50
27.3172405272082486
 51
27.9666891896067611
  0
ARC
  5
124D5
  8
0
 10
13.9615321156170502
 20
13.6238661671633796
 30
0.0
 40
3.4706075607717022
 50
26.5954339474535715
 51
27.9680160057026015
  0
ARC
  5
124D6
  8
0
 10
13.9816944842000304
 20
17.0139030421999813
 30
0.0
 40
3.4479202326
 50
332.0275657284900035
 51
333.5435474935894717
  0
ARC
  5
124D7
  8
0
 10
14.0698994569997904
 20
17.1199216775999901
 30
0.0
 40
3.421957321899999
 50
333.7362646683295111
 51
335.1324005419023138
  0
ARC
  5
124D8
  8
0
 10
14.03988056566231
 20
17.1995833493524515
 30
0.0
 40
3.382632597911146
 50
332.0085833421335906
 51
335.1290553209731797
  0
ARC
  5
124D9
  8
0
 10
14.0796878756000297
 20
16.9654216135999683
 30
0.0
 40
3.3385900571999998
 50
333.539194529107192
 51
335.1352017567044754
  0
ARC
  5
124DA
  8
0
 10
18.4839144027000586
 20
9.4036542790999817
 30
0.0
 40
0.7642807607
 50
187.8308002508971981
 51
246.8701265348389029
  0
ARC
  5
124DB
  8
0
 10
18.4992143044996702
 20
8.7494172248999842
 30
0.0
 40
0.6565777571
 50
118.2420837464792953
 51
124.2611293794768983
  0
ARC
  5
124DC
  8
0
 10
17.9209222766999083
 20
9.2409658007999838
 30
0.0
 40
0.0393700787
 50
180.0
 51
270.0
  0
ARC
  5
124DD
  8
0
 10
18.2525023837997615
 20
10.2568124906999802
 30
0.0
 40
0.2016844651
 50
166.6237378344659987
 51
173.7193633898006055
  0
ARC
  5
124DE
  8
0
 10
18.2488706758999797
 20
10.25724590459998
 30
0.0
 40
0.1980271427
 50
173.7290588109987937
 51
182.3063035407514008
  0
ARC
  5
124DF
  8
0
 10
18.2256834668000884
 20
10.3249837572999699
 30
0.0
 40
0.1903797715
 50
201.0097945995966882
 51
205.6176058778048059
  0
ARC
  5
124E0
  8
0
 10
17.8340122501999687
 20
10.5746848363999693
 30
0.0
 40
0.0396659370000053
 50
0.0293009408467409
 51
22.6133644809107786
  0
ARC
  5
124E1
  8
0
 10
17.7691876894887208
 20
10.5716318170169306
 30
0.0
 40
0.0393864916608369
 50
90.0203233957316371
 51
173.0235235680981134
  0
ARC
  5
124E2
  8
0
 10
17.75688005652
 20
10.5847544632540007
 30
0.0
 40
0.0393722568702979
 50
90.0020140708176655
 51
170.159666803450591
  0
ARC
  5
124E3
  8
0
 10
17.9209222766999083
 20
10.6031705251999693
 30
0.0
 40
0.0393700787
 50
90.0
 51
180.0
  0
ARC
  5
124E4
  8
0
 10
17.8343082313222112
 20
10.5716484839167002
 30
0.0
 40
0.0393698228834864
 50
0.0018094266021495
 51
90.0001857313853861
  0
ARC
  5
124E5
  8
0
 10
17.8854892057997787
 20
9.6189185566999811
 30
0.0
 40
0.0118110236
 50
180.0
 51
250.5287791929432899
  0
ARC
  5
124E6
  8
0
 10
17.8854892057997787
 20
10.2252177693000004
 30
0.0
 40
0.0118110236
 50
109.4712208070566959
 51
180.0
  0
ARC
  5
124E7
  8
0
 10
18.4812828155727402
 20
12.3638854106044391
 30
0.0
 40
3.1078484388913892
 50
89.9514844012560246
 51
97.9093243650635969
  0
ARC
  5
124E8
  8
0
 10
18.481300223552811
 20
12.4011587739231004
 30
0.0
 40
3.0667364394067822
 50
89.951159244645055
 51
98.0003219632573348
  0
ARC
  5
124E9
  8
0
 10
18.4836534800997505
 20
12.37667978399997
 30
0.0
 40
3.0820202638
 50
89.9951492733763985
 51
92.7939928162076342
  0
ARC
  5
124EA
  8
0
 10
18.4724521365142209
 20
12.5580674403033701
 30
0.0
 40
2.9003031704298539
 50
92.7476418596599643
 51
99.0201981873508714
  0
ARC
  5
124EB
  8
0
 10
18.4837596560996609
 20
12.6871807909999994
 30
0.0
 40
3.3029970566000002
 50
89.9973155891734109
 51
92.907319307612525
  0
ARC
  5
124EC
  8
0
 10
18.5316546663921109
 20
10.8312917543268803
 30
0.0
 40
5.3743075155338538
 50
90.5089681442734104
 51
94.5148652195468344
  0
ARC
  5
124ED
  8
0
 10
18.4792376620998695
 20
12.7760178998999798
 30
0.0
 40
3.214044933399999
 50
92.9071355286911569
 51
94.7078266170096157
  0
ARC
  5
124EE
  8
0
 10
18.4830403504997705
 20
12.9710674072999801
 30
0.0
 40
2.0660195293000001
 50
89.9757602593164592
 51
95.7136424019912937
  0
ARC
  5
124EF
  8
0
 10
18.4445796776999487
 20
13.2867361368999699
 30
0.0
 40
1.7479024793999991
 50
98.6189939071988704
 51
101.6337483133873008
  0
ARC
  5
124F0
  8
0
 10
18.4123053835996906
 20
13.4482738975999894
 30
0.0
 40
1.5831752715
 50
101.6686215954980952
 51
103.6805562843028952
  0
ARC
  5
124F1
  8
0
 10
18.3506732469236304
 20
13.6933796629197104
 30
0.0
 40
1.330448151671344
 50
103.5981290122287959
 51
109.698192166143798
  0
ARC
  5
124F2
  8
0
 10
18.246727160899809
 20
13.9900752319999793
 30
0.0
 40
1.0160804710999991
 50
109.8190097907111067
 51
114.0927793388076026
  0
ARC
  5
124F3
  8
0
 10
18.4814135443480083
 20
13.1235291416315896
 30
0.0
 40
3.214215792011653
 50
89.9554202559957758
 51
96.7630825575600255
  0
ARC
  5
124F4
  8
0
 10
18.468786902456479
 20
13.1238972261755293
 30
0.0
 40
1.912530238146944
 50
95.7445769358704837
 51
98.6049225981709441
  0
ARC
  5
124F5
  8
0
 10
18.4610916579999902
 20
13.5172454667999808
 30
0.0
 40
1.3173972878999991
 50
97.2098419876908224
 51
100.3840698848974
  0
ARC
  5
124F6
  8
0
 10
18.4836019933059106
 20
13.5735213985626597
 30
0.0
 40
0.9585861542819543
 50
262.3098342495405859
 51
270.0186733493003999
  0
ARC
  5
124F7
  8
0
 10
17.4012812180326293
 20
14.9316817903435002
 30
0.0
 40
0.2453665432271173
 50
180.0000000000065086
 51
187.5473169887457914
  0
ARC
  5
124F8
  8
0
 10
17.375716972681861
 20
14.9201813619061401
 30
0.0
 40
0.2249635558723765
 50
176.8961520890987913
 51
197.5583927181666013
  0
ARC
  5
124F9
  8
0
 10
17.4026484819996803
 20
14.8916046657999992
 30
0.0
 40
0.244734043
 50
170.732051968296787
 51
179.9816758570005959
  0
ARC
  5
124FA
  8
0
 10
17.4076310213999896
 20
14.7551029188999792
 30
0.0
 40
0.0216798591
 50
337.5705153793996942
 51
344.4780042271942762
  0
ARC
  5
124FB
  8
0
 10
17.7665343932999313
 20
14.7054547435999705
 30
0.0
 40
0.1636200374000649
 50
168.4885814315360903
 51
179.9566851556928953
  0
ARC
  5
124FC
  8
0
 10
17.7640562504998307
 20
14.7055787711999795
 30
0.0
 40
0.1611418478
 50
180.0001184302994943
 51
181.428458804399412
  0
ARC
  5
124FD
  8
0
 10
17.9409504152999908
 20
14.5681853146999707
 30
0.0
 40
0.122036013
 50
180.0042081718003999
 51
187.0260540891000005
  0
ARC
  5
124FE
  8
0
 10
17.7878002440997989
 20
14.7771410880999898
 30
0.0
 40
0.2063318773
 50
199.351225860447812
 51
206.3863354680100031
  0
ARC
  5
124FF
  8
0
 10
17.7528935079999393
 20
14.8676998940999798
 30
0.0
 40
0.1091264986
 50
279.7482937655881869
 51
282.9136397978161881
  0
ARC
  5
12500
  8
0
 10
17.9901207310999816
 20
15.6089085406999803
 30
0.0
 40
1.2385246021
 50
241.8937790822213003
 51
244.6508862293065079
  0
ARC
  5
12501
  8
0
 10
17.3352058045998092
 20
15.7841308304999703
 30
0.0
 40
0.2762097363
 50
179.3452011710004115
 51
191.9022987025159921
  0
ARC
  5
12502
  8
0
 10
18.0026282758176386
 20
15.0546409948324005
 30
0.0
 40
0.0807709193448336
 50
262.4448887801838737
 51
277.0848665041349932
  0
ARC
  5
12503
  8
0
 10
18.1737273987000592
 20
15.1492490745999895
 30
0.0
 40
0.9037387314000001
 50
92.1870491842953328
 51
97.8493219959924829
  0
ARC
  5
12504
  8
0
 10
18.29376736039967
 20
15.1482215282999793
 30
0.0
 40
0.0703277251
 50
36.4743645188126209
 51
62.7391756667288334
  0
ARC
  5
12505
  8
0
 10
18.6071656772996903
 20
14.7095379311999697
 30
0.0
 40
0.4364157970000001
 50
108.6003948182320045
 51
114.354313040486403
  0
ARC
  5
12506
  8
0
 10
18.5895300633005682
 20
14.7456154588395805
 30
0.0
 40
0.3962779496854729
 50
114.1824467831752941
 51
124.6949641506837025
  0
ARC
  5
12507
  8
0
 10
18.4828340268268185
 20
15.2346439926582793
 30
0.0
 40
0.0622440557701697
 50
147.9565700079803889
 51
191.3275976989573053
  0
ARC
  5
12508
  8
0
 10
18.0073884220000693
 20
15.6800647589999702
 30
0.0
 40
1.3175466881999991
 50
242.485507588786902
 51
245.5387423364039989
  0
ARC
  5
12509
  8
0
 10
18.4839144841489507
 20
15.7704446902296205
 30
0.0
 40
1.4249999175921719
 50
0.6743001557800568
 51
179.3227800167649093
  0
ARC
  5
1250A
  8
0
 10
18.1792138645209889
 20
15.0002270463965601
 30
0.0
 40
0.700207650363839
 50
257.2737677828019969
 51
262.7081413965315733
  0
ARC
  5
1250B
  8
0
 10
18.4840350860999898
 20
16.3873380275999807
 30
0.0
 40
2.120409943899999
 50
252.1251672102858947
 51
254.0170344006947971
  0
ARC
  5
1250C
  8
0
 10
18.4838665791999084
 20
16.3868601456
 30
0.0
 40
2.1199016574999989
 50
239.949753833522891
 51
240.8354896753720027
  0
ARC
  5
1250D
  8
0
 10
22.8458299364456217
 20
13.2472913757427992
 30
0.0
 40
4.9869197318572276
 50
173.3704420358315019
 51
182.8699700464630098
  0
ARC
  5
1250E
  8
0
 10
22.6636277956904415
 20
9.9786761356048146
 30
0.0
 40
4.9833629094216016
 50
172.9364239565933872
 51
187.8328862583173873
  0
ARC
  5
1250F
  8
0
 10
16.8273370899996699
 20
49.7110162493999894
 30
0.0
 40
33.6842438043999977
 50
272.2320660530937744
 51
272.8189200767589
  0
ARC
  5
12510
  8
0
 10
12.0106778959043403
 20
39.4075741715656065
 30
0.0
 40
24.1260646731603892
 50
283.4414381300994137
 51
284.2946821779207198
  0
ARC
  5
12511
  8
0
 10
11.7523333209996892
 20
25.2135153307999893
 30
0.0
 40
10.9995593553000006
 50
299.7589517488870001
 51
300.1399325607955006
  0
ARC
  5
12512
  8
0
 10
11.9145331294998797
 20
25.1495564453
 30
0.0
 40
10.6766089989000008
 50
299.7471904486873768
 51
301.2115233190133949
  0
ARC
  5
12513
  8
0
 10
11.9091599530579497
 20
25.0931487328110805
 30
0.0
 40
10.7597014427559792
 50
299.7479961023358896
 51
301.2108311217240839
  0
ARC
  5
12514
  8
0
 10
11.9568326056996703
 20
24.8637295626999801
 30
0.0
 40
10.5943822360999995
 50
300.1333393034038863
 51
301.2134858132963018
  0
LINE
  5
12515
  8
0
 10
17.8735593924020613
 20
10.5747030501010997
 30
0.0
 11
17.8815521978999605
 21
10.5748424233482794
 31
0.0
  0
LINE
  5
12516
  8
0
 10
18.0249631475985517
 20
14.3172208458705299
 30
0.0
 11
17.9001769120695791
 21
14.34889549399551
 31
0.0
  0
LINE
  5
12517
  8
0
 10
17.4300872609565012
 20
14.5888982288586497
 30
0.0
 11
17.4321052271998305
 21
14.5856017183999995
 31
0.0
  0
LINE
  5
12518
  8
0
 10
17.6046122720999811
 20
14.7032414611999798
 30
0.0
 11
17.6029644805998906
 21
14.7015617100999805
 31
0.0
  0
ARC
  5
12519
  8
0
 10
3.349090867617178
 20
-5.926639807849539
 30
0.0
 40
3.6444526523901191
 50
179.6059407421350045
 51
200.7873099920186064
  0
ARC
  5
1251A
  8
0
 10
3.0806604628664891
 20
-5.9932097712357111
 30
0.0
 40
3.3700321009295102
 50
201.3488697425516136
 51
224.9284284531537139
  0
ARC
  5
1251B
  8
0
 10
3.9456252972181569
 20
-5.077183837984478
 30
0.0
 40
4.629489999187923
 50
225.3947556711084133
 51
245.144921387832909
  0
ARC
  5
1251C
  8
0
 10
5.1739520377950612
 20
-2.4300541876025932
 30
0.0
 40
7.5477222993932278
 50
245.1305133927033921
 51
257.6026096256641722
  0
ARC
  5
1251D
  8
0
 10
6.393207116602297
 20
4.2543413702254318
 30
0.0
 40
14.3400947406210406
 50
258.5785723308434854
 51
269.568166035967181
  0
ARC
  5
1251E
  8
0
 10
6.1940959049502453
 20
9.8433420292757603
 30
0.0
 40
19.928896016382069
 50
270.2617189073872055
 51
280.9873116631320045
  0
ARC
  5
1251F
  8
0
 10
6.1159714599184554
 20
10.8625985211835694
 30
0.0
 40
20.9446887837502516
 50
280.6656901193297244
 51
293.2725017706350741
  0
ARC
  5
12520
  8
0
 10
9.0776762689133648
 20
4.2008691856031808
 30
0.0
 40
13.6550880269484392
 50
292.90053564917838
 51
307.1679554854786147
  0
ARC
  5
12521
  8
0
 10
12.9341971111621206
 20
-0.7980153621087425
 30
0.0
 40
7.3418981392239751
 50
306.7539991327270172
 51
324.958079772446979
  0
ARC
  5
12522
  8
0
 10
13.7382242523585703
 20
-1.506951614930216
 30
0.0
 40
6.2776850911329927
 50
326.0422019569904251
 51
348.8681334305467772
  0
ARC
  5
12523
  8
0
 10
9.7249022770361062
 20
-0.8971802642966508
 30
0.0
 40
10.33473334704785
 50
349.8469418874452117
 51
7.2154809763145771
  0
ARC
  5
12524
  8
0
 10
-27.2908747976753183
 20
-5.6669846774812243
 30
0.0
 40
47.656540642055738
 50
7.3150308822353303
 51
12.0618790803552596
  0
ARC
  5
12525
  8
0
 10
41.0289046744355801
 20
9.1625022893752543
 30
0.0
 40
22.2549375965581291
 50
180.9334851690705079
 51
192.6422981801449055
  0
ARC
  5
12526
  8
0
 10
3.4486409568175982
 20
-5.9138690385173334
 30
0.0
 40
3.1533893323033859
 50
179.7766182630651031
 51
198.1095480884413007
  0
ARC
  5
12527
  8
0
 10
3.1047337457248432
 20
-5.9811124897589698
 30
0.0
 40
2.8059456028044649
 50
198.9873287535168913
 51
227.1969244153050056
  0
ARC
  5
12528
  8
0
 10
4.3617791367237251
 20
-4.4523320380883709
 30
0.0
 40
4.7831585288403851
 50
228.5924660400916082
 51
252.6796867582523021
  0
ARC
  5
12529
  8
0
 10
6.1144490712481447
 20
1.4432660901804859
 30
0.0
 40
10.9335233448253693
 50
253.1094153225539003
 51
269.3767973637109776
  0
ARC
  5
1252A
  8
0
 10
6.1806707045179792
 20
10.6474161987132998
 30
0.0
 40
20.1378777940920415
 50
269.4732297081781098
 51
277.2334373495726254
  0
ARC
  5
1252B
  8
0
 10
5.9340670992596642
 20
11.5235435242909094
 30
0.0
 40
21.0385115896583805
 50
277.5992596766076872
 51
291.8439772929671108
  0
ARC
  5
1252C
  8
0
 10
9.1551915237832873
 20
3.925004818148238
 30
0.0
 40
12.7880604130871998
 50
291.1155227150808855
 51
310.6342460209694991
  0
ARC
  5
1252D
  8
0
 10
13.7734644597380793
 20
-1.510257822145433
 30
0.0
 40
5.655895545332128
 50
310.987487592106902
 51
336.8943721523659178
  0
ARC
  5
1252E
  8
0
 10
13.0401798404454894
 20
-1.3072358366410981
 30
0.0
 40
6.4108256912342938
 50
337.7973038583928087
 51
356.4117647687527892
  0
ARC
  5
1252F
  8
0
 10
8.4851535204779793
 20
-0.9423453107589806
 30
0.0
 40
10.9800441217077491
 50
355.9990235387808752
 51
6.4452694471069112
  0
ARC
  5
12530
  8
0
 10
-15.3329625227606794
 20
-3.7968133078780961
 30
0.0
 40
34.9684230312733533
 50
6.7119296057072644
 51
11.8201433495847805
  0
ARC
  5
12531
  8
0
 10
67.3009935398549715
 20
13.5921333401427091
 30
0.0
 40
49.4753590646650423
 50
188.2399952065871105
 51
191.9283848779899131
  0
ARC
  5
12532
  8
0
 10
34.0043287285275326
 20
8.6941628134209168
 30
0.0
 40
15.8206379293103296
 50
178.6257456030240007
 51
187.967164659921508
  0
ARC
  5
12533
  8
0
 10
-0.123584890622169
 20
-2.2805615328143172
 30
0.0
 40
0.0220266397327366
 50
196.0822419797673035
 51
246.6623049803515926
  0
ARC
  5
12534
  8
0
 10
-0.0839136355612027
 20
-2.1983167646436348
 30
0.0
 40
0.1133236109296695
 50
244.7182493808618915
 51
263.4401835746987786
  0
ARC
  5
12535
  8
0
 10
-0.0234393472442207
 20
-1.717046426688938
 30
0.0
 40
0.5983734598064619
 50
262.9520466739808739
 51
267.7550485624132079
  0
ARC
  5
12536
  8
0
 10
0.1311449898607861
 20
-2.0445486081811728
 30
0.0
 40
1.2845897098709971
 50
104.9012776281267065
 51
117.8685727346105949
  0
ARC
  5
12537
  8
0
 10
0.0001969735244529
 20
-1.570970529109843
 30
0.0
 40
0.7932783379095235
 50
74.6852883869224797
 51
104.5573600171189952
  0
ARC
  5
12538
  8
0
 10
-0.1419652994486569
 20
-2.069861581464238
 30
0.0
 40
1.312012479909141
 50
62.2316151605279586
 51
74.4518017524688389
  0
ARC
  5
1253B
  8
0
 10
6.729932359618032
 20
0.1921929542074281
 30
0.0
 40
0.0278178717325421
 50
48.4039866485255317
 51
88.3271771828200514
  0
ARC
  5
1253C
  8
0
 10
6.7038438948356989
 20
0.1648558166721159
 30
0.0
 40
0.0655953870696072
 50
24.0725664148280991
 51
47.2145025709125008
  0
ARC
  5
1253D
  8
0
 10
6.5731100321550002
 20
0.1029987980216447
 30
0.0
 40
0.2102139669123884
 50
13.3147529180250892
 51
24.9316554120775002
  0
ARC
  5
1253E
  8
0
 10
6.1920181084174137
 20
0.0137474324055802
 30
0.0
 40
0.6016172999681747
 50
358.6895804750041066
 51
13.2277703130622992
  0
ARC
  5
1253F
  8
0
 10
6.2656517913283087
 20
-0.0177855308873234
 30
0.0
 40
0.5281254665173537
 50
341.3649772639849971
 51
1.9287002954582391
  0
ARC
  5
12540
  8
0
 10
6.6954633358427591
 20
-0.1587377657917841
 30
0.0
 40
0.0759019830000675
 50
315.5969799294155109
 51
338.5113099576186073
  0
ARC
  5
12541
  8
0
 10
6.7301277510605351
 20
-0.1924990167374005
 30
0.0
 40
0.027514031424715
 50
276.6297720083823037
 51
315.316935605450908
  0
ARC
  5
12542
  8
0
 10
6.6860433269152963
 20
-0.1462459487457579
 30
0.0
 40
0.0885595725899074
 50
319.6588153595284894
 51
341.8629090152087997
  0
ARC
  5
12543
  8
0
 10
6.7397390601904581
 20
-0.1918865067248134
 30
0.0
 40
0.0180876743727497
 50
270.156438103690391
 51
319.7478297544133738
  0
ARC
  5
12544
  8
0
 10
6.7428773628412273
 20
-0.1893217111578167
 30
0.0
 40
0.0208821248229391
 50
216.9886153282197085
 51
261.493501897009196
  0
ARC
  5
12545
  8
0
 10
6.833969675836669
 20
-0.1255587784743284
 30
0.0
 40
0.1320628150593795
 50
192.8987696793755049
 51
215.3070654514210105
  0
ARC
  5
12546
  8
0
 10
7.276507917383241
 20
-0.015728505473362
 30
0.0
 40
0.5880095418895258
 50
181.2807932980491898
 51
193.7047597623410979
  0
ARC
  5
12547
  8
0
 10
7.4091229425634992
 20
0.0018187905382092
 30
0.0
 40
0.7211310341928105
 50
169.5117738852136995
 51
182.43918670386239
  0
ARC
  5
12548
  8
0
 10
6.8962376896465676
 20
0.1008060689883052
 30
0.0
 40
0.1988355584777983
 50
151.8687155957912012
 51
170.656163095548294
  0
ARC
  5
12549
  8
0
 10
6.7587807742702353
 20
0.1725756509819121
 30
0.0
 40
0.0438039331515537
 50
129.9322308919086879
 51
149.8819436580558033
  0
ARC
  5
1254A
  8
0
 10
6.740997091188091
 20
0.1941538704706147
 30
0.0
 40
0.0158441000705868
 50
90.2608276352703456
 51
130.7063003637499037
  0
ARC
  5
1254B
  8
0
 10
6.7398162749882431
 20
0.1929134607054266
 30
0.0
 40
0.0171202820890473
 50
49.6705633910324025
 51
86.2869943936473476
  0
ARC
  5
1254C
  8
0
 10
6.7227500095564201
 20
0.1727850183211785
 30
0.0
 40
0.0435098918075538
 50
29.7640400771085893
 51
49.6923291764710413
  0
ARC
  5
1254D
  8
0
 10
4.8342733363651851
 20
-0.9216410981922251
 30
0.0
 40
2.2261939254491709
 50
29.6718418039969514
 51
30.0870763071146392
  0
ARC
  5
1254E
  8
0
 10
4.3506980712550103
 20
-0.8788107174714525
 30
0.0
 40
0.0301466738101567
 50
180.112347405018312
 51
274.6634671393397866
  0
ARC
  5
1254F
  8
0
 10
4.3507050303405768
 20
0.8788029797600813
 30
0.0
 40
0.030153649167139
 50
85.3573218945536354
 51
179.8729559619704901
  0
ARC
  5
12550
  8
0
 10
0.1293644182537719
 20
-2.2839161535808321
 30
0.0
 40
0.0156267485653333
 50
308.7799269473798063
 51
349.895535817939674
  0
ARC
  5
12551
  8
0
 10
0.105825788358743
 20
-2.2542470663036052
 30
0.0
 40
0.0534989809631115
 50
286.011212273245917
 51
308.5304467479937216
  0
ARC
  5
12552
  8
0
 10
0.0671346918725249
 20
-2.1201358856563379
 30
0.0
 40
0.1930797774928346
 50
273.923587932416126
 51
286.0702361187941847
  0
ARC
  5
12553
  8
0
 10
0.018427075737236
 20
-1.4742666426487281
 30
0.0
 40
0.8407796050580691
 50
270.8176779393605216
 51
274.2233768435223737
  0
ARC
  5
12554
  8
0
 10
18.4816755437996108
 20
11.8726639982514204
 30
0.0
 40
0.095085804828652
 50
88.6508049655782742
 51
131.2089426807403925
  0
ARC
  5
12555
  8
0
 10
18.4589790517166001
 20
11.9018341954956597
 30
0.0
 40
0.0582275443857564
 50
133.3178127787004996
 51
184.4560697404965879
  0
ARC
  5
12556
  8
0
 10
18.4747005869030509
 20
11.9044540803703303
 30
0.0
 40
0.0741181518390669
 50
185.5310239323983978
 51
231.714486845750713
  0
ARC
  5
12557
  8
0
 10
18.4838987308548894
 20
11.9134305712555602
 30
0.0
 40
0.0868789148686492
 50
230.6208093776286034
 51
270.0103385796344924
  0
ARC
  5
12558
  8
0
 10
18.48331165550508
 20
12.2165504111573302
 30
0.0
 40
0.0898425381667253
 50
200.527105173959086
 51
270.384399240774826
  0
ARC
  5
12559
  8
0
 10
18.4598500063707398
 20
12.20764170512677
 30
0.0
 40
0.0647468158206404
 50
146.9058724641627975
 51
200.4242576367427944
  0
ARC
  5
1255A
  8
0
 10
18.4754656814493501
 20
12.1916845414874295
 30
0.0
 40
0.0866774550088652
 50
99.8990533706997468
 51
143.7034680190973859
  0
ARC
  5
1255B
  8
0
 10
18.4838363771200385
 20
12.1616435984539297
 30
0.0
 40
0.1177505152981683
 50
89.9620314974566213
 51
101.3987134365481069
  0
ARC
  5
1255C
  8
0
 10
18.4839419891545695
 20
12.5232054726993702
 30
0.0
 40
0.0959162141059349
 50
209.8763664570454921
 51
269.9835240217780097
  0
ARC
  5
1255D
  8
0
 10
18.4663845146674213
 20
12.5142132068698899
 30
0.0
 40
0.0762186736972248
 50
170.1266247215446867
 51
210.5895444413071118
  0
ARC
  5
1255E
  8
0
 10
18.4599538845591304
 20
12.5140090787757003
 30
0.0
 40
0.0699304437744627
 50
126.8453261400316023
 51
169.0583483720645859
  0
ARC
  5
1255F
  8
0
 10
18.4821227765551086
 20
12.4815054916358594
 30
0.0
 40
0.1092494227903535
 50
89.0603383543593736
 51
125.9274048051893971
  0
ARC
  5
12560
  8
0
 10
18.4841263336393204
 20
12.8252658419161794
 30
0.0
 40
0.0998927639174325
 50
214.737299863623889
 51
269.8784448140385734
  0
ARC
  5
12561
  8
0
 10
18.4709835994367495
 20
12.8177010518867291
 30
0.0
 40
0.0847914355729563
 50
168.2231527319189013
 51
215.59711237739441
  0
ARC
  5
12562
  8
0
 10
18.4655719224260793
 20
12.8158133324754999
 30
0.0
 40
0.0799335062176595
 50
120.3190278215920017
 51
166.1063335615918106
  0
ARC
  5
12563
  8
0
 10
18.4828050065657408
 20
12.7869699221153894
 30
0.0
 40
0.1135318904304074
 50
89.4401132432778638
 51
120.4782570133891966
  0
ARC
  5
12564
  8
0
 10
18.4842348955594389
 20
13.1344622881998099
 30
0.0
 40
0.0951693943746425
 50
219.0048168902578141
 51
269.8070530024086224
  0
ARC
  5
12565
  8
0
 10
18.4731960781446105
 20
13.1289421051783695
 30
0.0
 40
0.0831593703050803
 50
156.3248863875446091
 51
220.8364431994029076
  0
ARC
  5
12566
  8
0
 10
18.4806757554329089
 20
13.1176546435219699
 30
0.0
 40
0.0948260546563982
 50
88.0427319431418454
 51
151.889101644137412
  0
ARC
  5
12567
  8
0
 10
18.4845544562599606
 20
13.4590828808734901
 30
0.0
 40
0.0897773616689568
 50
207.5275948725135891
 51
269.5915183557993942
  0
ARC
  5
12568
  8
0
 10
18.4776159735697512
 20
13.457560948467
 30
0.0
 40
0.0829417905407518
 50
150.927098127806488
 51
208.8106236317605919
  0
ARC
  5
12569
  8
0
 10
18.4834100333978313
 20
13.44772859389664
 30
0.0
 40
0.0929633070429447
 50
89.6891391989692153
 51
147.3636418773299965
  0
ARC
  5
1256A
  8
0
 10
18.48441108155885
 20
13.8009457744307404
 30
0.0
 40
0.0839603658413854
 50
209.8350427122871906
 51
269.6610603814618798
  0
ARC
  5
1256B
  8
0
 10
18.4705377455761592
 20
13.7959799857734406
 30
0.0
 40
0.0695037193690778
 50
143.0883063668651971
 51
211.9742633687721991
  0
ARC
  5
1256C
  8
0
 10
18.4814982438711013
 20
13.7800637681814901
 30
0.0
 40
0.0880409300235569
 50
88.4273977952723271
 51
139.0870760057605935
  0
ARC
  5
1256D
  8
0
 10
18.307461355566371
 20
12.0577306708342995
 30
0.0
 40
0.0507025619321959
 50
301.3623852770792269
 51
357.1602184154082806
  0
ARC
  5
1256E
  8
0
 10
18.3012722663934184
 20
12.0694232435313893
 30
0.0
 40
0.0639128843454766
 50
261.5739400391304912
 51
300.6446804030034059
  0
ARC
  5
1256F
  8
0
 10
18.3066871100950301
 20
12.0976182258157205
 30
0.0
 40
0.09260507842433
 50
221.4957331467277015
 51
260.8160586401972978
  0
ARC
  5
12570
  8
0
 10
18.3075224459203092
 20
12.1011339246437295
 30
0.0
 40
0.0955827559169691
 50
194.1877879979514034
 51
222.7425468197857867
  0
ARC
  5
12571
  8
0
 10
18.2726190768080414
 20
12.0931011557046304
 30
0.0
 40
0.059780106995431
 50
156.0156961701378862
 51
194.9230212995198883
  0
ARC
  5
12572
  8
0
 10
18.2568619580533813
 20
12.0922836090453494
 30
0.0
 40
0.0462718952606957
 50
95.9228423289676471
 51
147.1241332581435017
  0
ARC
  5
12573
  8
0
 10
18.2605809860442605
 20
12.0348749716825996
 30
0.0
 40
0.1037816834692049
 50
54.9111733881921822
 51
94.6944973719225089
  0
ARC
  5
12574
  8
0
 10
18.2732791483708716
 20
12.0460813089843306
 30
0.0
 40
0.0874017169255561
 50
23.3127452171003284
 51
57.5004795553942216
  0
ARC
  5
12575
  8
0
 10
18.2981581515732614
 20
12.0576213189063992
 30
0.0
 40
0.0599916329086775
 50
357.7047352447233948
 51
22.5945150969857309
  0
ARC
  5
12576
  8
0
 10
18.2780528873217882
 20
12.3596874178550706
 30
0.0
 40
0.0805648605337454
 50
0.256394842147229
 51
49.4812536924989317
  0
ARC
  5
12577
  8
0
 10
18.2496136143431613
 20
12.3322570866108094
 30
0.0
 40
0.1199542628783714
 50
47.6668714913064733
 51
83.7070282013394689
  0
ARC
  5
12578
  8
0
 10
18.2540891589078385
 20
12.3902221200621305
 30
0.0
 40
0.0618772626055392
 50
81.9426975823888171
 51
122.8763646776731946
  0
ARC
  5
12579
  8
0
 10
18.2465563331033991
 20
12.4060739561732607
 30
0.0
 40
0.0445334888264466
 50
125.8090135020910054
 51
171.8693662421522106
  0
ARC
  5
1257A
  8
0
 10
18.2896782247944394
 20
12.4026448517507504
 30
0.0
 40
0.0877485829851187
 50
173.6353093351733889
 51
217.0945949995675903
  0
ARC
  5
1257B
  8
0
 10
18.3048508634969913
 20
12.4072365775405693
 30
0.0
 40
0.1027669903180066
 50
214.0330921670031046
 51
253.825348660113491
  0
ARC
  5
1257C
  8
0
 10
18.2965044542079305
 20
12.3758095762863398
 30
0.0
 40
0.070262816385491
 50
253.2231544955834863
 51
294.2322990046895939
  0
ARC
  5
1257D
  8
0
 10
18.302482458475879
 20
12.3630969779227904
 30
0.0
 40
0.0562172292990022
 50
293.9942645234435759
 51
356.8909380739701191
  0
ARC
  5
1257E
  8
0
 10
18.0765472025695999
 20
12.3206311591533808
 30
0.0
 40
0.0351828942569956
 50
70.9132241535263006
 51
103.8042714842976011
  0
ARC
  5
1257F
  8
0
 10
18.0599041244795409
 20
12.2705441056985691
 30
0.0
 40
0.0879610696689563
 50
52.2923681127002808
 51
71.3368448780610436
  0
ARC
  5
12580
  8
0
 10
18.0352775429137218
 20
12.2368425502908398
 30
0.0
 40
0.1296911253583297
 50
22.0350823021663409
 51
52.7915221525899909
  0
ARC
  5
12581
  8
0
 10
18.1041947337348503
 20
12.2638670145480795
 30
0.0
 40
0.055674982983434
 50
341.4993498507762979
 51
22.8640721350046086
  0
ARC
  5
12582
  8
0
 10
18.1282738565132604
 20
12.2567014401208993
 30
0.0
 40
0.0305782099199252
 50
296.437672184510177
 51
339.9150480999358024
  0
ARC
  5
12583
  8
0
 10
18.1271740318025003
 20
12.2614549561844797
 30
0.0
 40
0.035342387687421
 50
256.0559800291605939
 51
294.6028902868055184
  0
ARC
  5
12584
  8
0
 10
18.1395574122102516
 20
12.3031495201775503
 30
0.0
 40
0.0788170033411533
 50
228.0732077579708061
 51
254.6228973464853027
  0
ARC
  5
12585
  8
0
 10
18.1828231766253303
 20
12.3355362153321302
 30
0.0
 40
0.1322434779639601
 50
191.6448505751745017
 51
223.4976572744728003
  0
ARC
  5
12586
  8
0
 10
18.1151562617010313
 20
12.3231786804475902
 30
0.0
 40
0.0634940563174122
 50
166.7573884991168995
 51
193.0482092664148865
  0
ARC
  5
12587
  8
0
 10
18.0794871523503389
 20
12.3314345510607897
 30
0.0
 40
0.0268825554467869
 50
138.1805442020499015
 51
166.4705959799676975
  0
ARC
  5
12588
  8
0
 10
18.0739015355070514
 20
12.3359241716184407
 30
0.0
 40
0.0197298937064539
 50
106.9414464058853014
 51
137.0812494575629898
  0
ARC
  5
12589
  8
0
 10
18.0649067176118514
 20
12.6286212789761407
 30
0.0
 40
0.0426797535026963
 50
57.3985825628496684
 51
109.6823071266182978
  0
ARC
  5
1258A
  8
0
 10
18.0247496357655983
 20
12.5466940037884402
 30
0.0
 40
0.1337329437708071
 50
41.6534060189251392
 51
61.8209160551625132
  0
ARC
  5
1258B
  8
0
 10
18.0261525448436188
 20
12.5458547696962608
 30
0.0
 40
0.1332516195632037
 50
23.6466094967936087
 51
42.3239623863906118
  0
ARC
  5
1258C
  8
0
 10
18.0792335211071986
 20
12.5677249189429503
 30
0.0
 40
0.0758659092688472
 50
354.8295063779685847
 51
24.5956824002807011
  0
ARC
  5
1258D
  8
0
 10
18.1129593877153603
 20
12.5651062941417706
 30
0.0
 40
0.0420434987833723
 50
323.6767902073835899
 51
354.241601347390997
  0
ARC
  5
1258E
  8
0
 10
18.120589116891999
 20
12.5600201163186398
 30
0.0
 40
0.0328862714333911
 50
284.5307200123730809
 51
322.9423875550385219
  0
ARC
  5
1258F
  8
0
 10
18.1187108951617084
 20
12.5745793954134193
 30
0.0
 40
0.0474865493586889
 50
241.6711979722234958
 51
282.3163979792191185
  0
ARC
  5
12590
  8
0
 10
18.1448145448462093
 20
12.6220433740642797
 30
0.0
 40
0.1016541907208861
 50
213.0160270048214954
 51
241.4151207469955125
  0
ARC
  5
12591
  8
0
 10
18.1765978789380789
 20
12.6458194567970796
 30
0.0
 40
0.1412843266979304
 50
190.4099065478426098
 51
214.0780946204627071
  0
ARC
  5
12592
  8
0
 10
18.1092532438515192
 20
12.6348752100041093
 30
0.0
 40
0.0730841543686548
 50
165.7960036713841987
 51
191.5109356928313105
  0
ARC
  5
12593
  8
0
 10
18.0635207133482183
 20
12.6463642507348499
 30
0.0
 40
0.0259307599868959
 50
120.0595916253525957
 51
165.6107988717392914
  0
ARC
  5
12594
  8
0
 10
18.2944318325376116
 20
12.70608623452509
 30
0.0
 40
0.0999776124477772
 50
204.6623257878935078
 51
268.5473459911593181
  0
ARC
  5
12595
  8
0
 10
18.2941720745366183
 20
12.6726133668182097
 30
0.0
 40
0.0665115244022474
 50
268.0400433660012141
 51
321.5111259764245801
  0
ARC
  5
12596
  8
0
 10
18.2937390701267688
 20
12.6695880921494108
 30
0.0
 40
0.0650211452037814
 50
323.8358554360464723
 51
26.6871993496314808
  0
ARC
  5
12597
  8
0
 10
18.2480252831378493
 20
12.6464121989205793
 30
0.0
 40
0.1162739989244665
 50
26.773954376222779
 51
69.8896732353897079
  0
ARC
  5
12598
  8
0
 10
18.2494704669102212
 20
12.6634467343527302
 30
0.0
 40
0.0998825396700079
 50
67.3075189793242004
 51
98.3009469046158983
  0
ARC
  5
12599
  8
0
 10
18.2414325600270786
 20
12.7125911953859791
 30
0.0
 40
0.0500998497282989
 50
97.3189931269641448
 51
150.2724294280534139
  0
ARC
  5
1259A
  8
0
 10
18.2537861532955503
 20
12.7089768755058703
 30
0.0
 40
0.0626910904093166
 50
153.0035866704158138
 51
189.7870121704951885
  0
ARC
  5
1259B
  8
0
 10
18.2930324220283183
 20
12.7137908835911997
 30
0.0
 40
0.1022026765832396
 50
188.7064442652921059
 51
208.9189016496079887
  0
ARC
  5
1259C
  8
0
 10
18.3694702964589816
 20
12.6495725335890299
 30
0.0
 40
0.0296115015420845
 50
218.3021398374804107
 51
241.4710038928496942
  0
ARC
  5
1259D
  8
0
 10
18.1877438160363383
 20
12.6982294857365599
 30
0.0
 40
0.0373784721733235
 50
278.3375334151497782
 51
295.0562703447960189
  0
ARC
  5
1259E
  8
0
 10
18.2641135149824514
 20
13.2937419710035201
 30
0.0
 40
0.0954625953557795
 50
7.8815790676020416
 51
62.4414939217680995
  0
ARC
  5
1259F
  8
0
 10
18.2598925222905493
 20
13.2961352319158497
 30
0.0
 40
0.095417043140969
 50
59.5283280974035023
 51
95.6811028419490839
  0
ARC
  5
125A0
  8
0
 10
18.2560363254415314
 20
13.3367784542523395
 30
0.0
 40
0.0545920354066611
 50
95.876398680042044
 51
138.8732958579313106
  0
ARC
  5
125A1
  8
0
 10
18.2647317203959609
 20
13.3328424653167001
 30
0.0
 40
0.063790198719947
 50
141.3480242941164988
 51
178.6097674562381883
  0
ARC
  5
125A2
  8
0
 10
18.3035075034663315
 20
13.3357091844811997
 30
0.0
 40
0.1025556876423827
 50
180.7369506882409098
 51
211.8498910278458993
  0
ARC
  5
125A3
  8
0
 10
18.3027682741640092
 20
13.3335081828100197
 30
0.0
 40
0.1007771635147623
 50
211.0086975087749011
 51
242.8439687094034127
  0
ARC
  5
125A4
  8
0
 10
18.2924929075020408
 20
13.3108619864453903
 30
0.0
 40
0.075946870468287
 50
241.9436164339456923
 51
287.7618502733952255
  0
ARC
  5
125A5
  8
0
 10
18.2954069467286899
 20
13.2985611333971292
 30
0.0
 40
0.0633509449996082
 50
288.6458451659012212
 51
335.289008540542909
  0
ARC
  5
125A6
  8
0
 10
18.2910739113185592
 20
13.3001060052553104
 30
0.0
 40
0.0679342410983184
 50
335.6331038244387059
 51
5.6823413982179547
  0
ARC
  5
125A7
  8
0
 10
18.2501537106495491
 20
13.0167775765347606
 30
0.0
 40
0.0597049073261497
 50
140.5378953323914004
 51
178.8378084063074027
  0
ARC
  5
125A8
  8
0
 10
18.2954375959111495
 20
13.01718929391199
 30
0.0
 40
0.1049795530174183
 50
179.5637764199875051
 51
217.4908597149581055
  0
ARC
  5
125A9
  8
0
 10
18.2960489869728917
 20
13.0131664334139696
 30
0.0
 40
0.103077842794279
 50
215.5093865682310081
 51
258.9745167613676813
  0
ARC
  5
125AA
  8
0
 10
18.2898399997952694
 20
12.9823695090906295
 30
0.0
 40
0.071662212091551
 50
259.1381060782778718
 51
303.731473595168211
  0
ARC
  5
125AB
  8
0
 10
18.2932781672043312
 20
12.9760197066050793
 30
0.0
 40
0.0644756319524735
 50
304.3239461984442755
 51
356.593997736677693
  0
ARC
  5
125AC
  8
0
 10
18.2684614263785114
 20
12.9745343448933603
 30
0.0
 40
0.0892093150495619
 50
358.4935950289165021
 51
49.5197236455499095
  0
ARC
  5
125AD
  8
0
 10
18.2467860108399691
 20
12.9572925187549703
 30
0.0
 40
0.1165156602598591
 50
46.9156353394393193
 51
87.1157780431912556
  0
ARC
  5
125AE
  8
0
 10
18.2487008676243896
 20
13.0119829566295895
 30
0.0
 40
0.0618038513638283
 50
86.3375094441589255
 51
136.2461982782540133
  0
ARC
  5
125AF
  8
0
 10
18.3733334012226805
 20
13.2314826045035794
 30
0.0
 40
0.598022385622286
 50
227.2312921973008031
 51
252.4657663181760086
  0
ARC
  5
125B0
  8
0
 10
18.1753239594399894
 20
13.0239932697276704
 30
0.0
 40
0.3112798947547356
 50
184.8641271402005088
 51
228.0532153966973112
  0
ARC
  5
125B1
  8
0
 10
18.0569453714974699
 20
12.9482623588496608
 30
0.0
 40
0.0377155223727466
 50
70.1549269332276566
 51
113.8300372236258937
  0
ARC
  5
125B2
  8
0
 10
18.026550353666611
 20
12.8677801132337208
 30
0.0
 40
0.1237431858678083
 50
37.5282041005965183
 51
69.5677916819274174
  0
ARC
  5
125B3
  8
0
 10
18.0281224980662884
 20
12.8625441772340992
 30
0.0
 40
0.1257897090829698
 50
11.2757088570863004
 51
39.8564154748528026
  0
ARC
  5
125B4
  8
0
 10
18.0908110755171911
 20
12.8744379026256901
 30
0.0
 40
0.0619884242239798
 50
335.2734624198225788
 51
11.8241709273083497
  0
ARC
  5
125B5
  8
0
 10
18.1126296960478612
 20
12.8648036651485995
 30
0.0
 40
0.0381422186484356
 50
285.9396554764066991
 51
334.7093235693952806
  0
ARC
  5
125B6
  8
0
 10
18.1112553826496914
 20
12.8752723227135597
 30
0.0
 40
0.0486106213196647
 50
245.0622013685579077
 51
284.1083068239116187
  0
ARC
  5
125B7
  8
0
 10
18.1322104298892484
 20
12.9194174278973701
 30
0.0
 40
0.0974760400401681
 50
215.8331515162971925
 51
244.8339937932126986
  0
ARC
  5
125B8
  8
0
 10
18.1731317421604217
 20
12.9516617288380207
 30
0.0
 40
0.1495446209741639
 50
193.9595006028771138
 51
216.6702672061832118
  0
ARC
  5
125B9
  8
0
 10
18.1218932775655013
 20
12.9419975498777209
 30
0.0
 40
0.097533651037066
 50
170.5038206814193131
 51
195.7114206427754084
  0
ARC
  5
125BA
  8
0
 10
18.0669229979912416
 20
12.9508607174636303
 30
0.0
 40
0.0418556696228364
 50
145.3750985394640054
 51
170.0556614878177015
  0
ARC
  5
125BB
  8
0
 10
18.0541891576235685
 20
12.9592756219598204
 30
0.0
 40
0.0265975818155246
 50
117.9877732607886003
 51
144.705459096381901
  0
ARC
  5
125BC
  8
0
 10
18.06660200399347
 20
13.2600144572296799
 30
0.0
 40
0.0357630569002007
 50
74.770124904881456
 51
108.3613020459668945
  0
ARC
  5
125BD
  8
0
 10
18.0492428650427392
 20
13.2039354077200208
 30
0.0
 40
0.0944542616162712
 50
42.5653360807096917
 51
73.5459505007561773
  0
ARC
  5
125BE
  8
0
 10
18.0277195064418301
 20
13.1782557037984702
 30
0.0
 40
0.1277511145229537
 50
21.9682705888475596
 51
44.518558237873961
  0
ARC
  5
125BF
  8
0
 10
18.0668187184928684
 20
13.1929766319245196
 30
0.0
 40
0.0859893776660088
 50
357.3124530598149136
 51
22.6177297034472211
  0
ARC
  5
125C0
  8
0
 10
18.1018585144092903
 20
13.1908379265855995
 30
0.0
 40
0.0508902314047667
 50
322.4936328399145964
 51
357.8679208326923913
  0
ARC
  5
125C1
  8
0
 10
18.1131032936091287
 20
13.18315435899299
 30
0.0
 40
0.0372993356167693
 50
277.8259506562187084
 51
321.3397616233164058
  0
ARC
  5
125C2
  8
0
 10
18.1129128081879607
 20
13.1987234270208909
 30
0.0
 40
0.0527846759538809
 50
237.1167489052353972
 51
275.7291945107195943
  0
ARC
  5
125C3
  8
0
 10
18.1395414220228304
 20
13.2392733290368501
 30
0.0
 40
0.1012956550407488
 50
208.5268459984143874
 51
236.9208014710619068
  0
ARC
  5
125C4
  8
0
 10
18.1627032174123997
 20
13.2549385467070202
 30
0.0
 40
0.1291549682529734
 50
183.4063301943764088
 51
209.7255815114143047
  0
ARC
  5
125C5
  8
0
 10
18.0963437840778205
 20
13.2525033474782692
 30
0.0
 40
0.0627862901580735
 50
152.8565013250457127
 51
184.786205478018104
  0
ARC
  5
125C6
  8
0
 10
18.0651339241958304
 20
13.2675585392902899
 30
0.0
 40
0.0281577621969638
 50
110.3621506090663047
 51
151.1440167939942114
  0
ARC
  5
125C7
  8
0
 10
18.4718871476807216
 20
14.2469287677083702
 30
0.0
 40
0.8301757070942962
 50
247.8764901106860918
 51
265.3025918208339817
  0
ARC
  5
125C8
  8
0
 10
18.1763549276788616
 20
13.4945790512333303
 30
0.0
 40
0.0239155841581206
 50
191.5863540109434098
 51
224.3020513485932952
  0
ARC
  5
125C9
  8
0
 10
18.0447504583789815
 20
13.6013568605781305
 30
0.0
 40
0.0659545296979413
 50
275.6746656959608117
 51
286.0432736499874977
  0
ARC
  5
125CA
  8
0
 10
18.2858838927586405
 20
13.8894708608652593
 30
0.0
 40
0.4244743501407994
 50
216.5082653288314134
 51
236.4467653232954092
  0
ARC
  5
125CB
  8
0
 10
18.1601992177134015
 20
13.7981064785824099
 30
0.0
 40
0.2690997663922142
 50
174.685832534841694
 51
216.7932845206422883
  0
ARC
  5
125CC
  8
0
 10
18.1685292956658486
 20
13.5725384050246607
 30
0.0
 40
0.111067573941286
 50
198.1332619805895092
 51
215.7893613694608064
  0
ARC
  5
125CD
  8
0
 10
18.1420110226727012
 20
13.5524444952107501
 30
0.0
 40
0.0778096481144606
 50
215.206485451612906
 51
240.2474151170227117
  0
ARC
  5
125CE
  8
0
 10
18.1262468013160287
 20
13.5236336234703405
 30
0.0
 40
0.0449778003080012
 50
239.468506031524214
 51
279.574972840512828
  0
ARC
  5
125CF
  8
0
 10
18.1268213911480416
 20
13.5147282914500906
 30
0.0
 40
0.0361125406120363
 50
281.0263981478270807
 51
316.2933340661305124
  0
ARC
  5
125D0
  8
0
 10
18.1171316578565893
 20
13.5223628885586606
 30
0.0
 40
0.0484066666723302
 50
317.685817873959877
 51
357.567159131019821
  0
ARC
  5
125D1
  8
0
 10
18.0781898937402694
 20
13.5239650850726605
 30
0.0
 40
0.0873813573472282
 50
357.6014260907307971
 51
29.9112121372573014
  0
ARC
  5
125D2
  8
0
 10
18.0556845995947697
 20
13.5141396214789307
 30
0.0
 40
0.1118212077027145
 50
28.5246963475532809
 51
57.5016799415448929
  0
ARC
  5
125D3
  8
0
 10
18.0856476409580793
 20
13.5626045773189805
 30
0.0
 40
0.0548525017321456
 50
56.6994882923166088
 51
87.6638008866131884
  0
ARC
  5
125D4
  8
0
 10
18.087604374914001
 20
13.5908249377116004
 30
0.0
 40
0.0265880163824833
 50
89.3982793922866534
 51
131.542631574796701
  0
ARC
  5
125D5
  8
0
 10
18.0984511046458501
 20
13.5820572947327793
 30
0.0
 40
0.0404093004935549
 50
134.8110286892438978
 51
169.7450449628707076
  0
ARC
  5
125D6
  8
0
 10
18.1455247828234789
 20
13.5724476609378009
 30
0.0
 40
0.0884483221518367
 50
169.0482281730479883
 51
185.5877077033983085
  0
ARC
  5
125D7
  8
0
 10
18.1751368579080008
 20
13.5752524941089199
 30
0.0
 40
0.1181928304340422
 50
185.5432043456796976
 51
198.3867149863376937
  0
ARC
  5
125D8
  8
0
 10
18.2704531353274398
 20
13.6714752013458298
 30
0.0
 40
0.0520460995033845
 50
139.7516657433654075
 51
175.2064576260345916
  0
ARC
  5
125D9
  8
0
 10
18.2668204406513688
 20
13.6729171368734193
 30
0.0
 40
0.0483578723368952
 50
101.6549067464123937
 51
138.2745763075168099
  0
ARC
  5
125DA
  8
0
 10
18.2722973750478488
 20
13.6363454225050607
 30
0.0
 40
0.0853060027742315
 50
58.5311609443175698
 51
100.2953055204070978
  0
ARC
  5
125DB
  8
0
 10
18.2714297850102412
 20
13.6260457552403995
 30
0.0
 40
0.09465738547822
 50
25.3651865787440087
 51
61.338920689082471
  0
ARC
  5
125DC
  8
0
 10
18.2965585436832008
 20
13.6381973416362108
 30
0.0
 40
0.0667459215153522
 50
345.0658108500825278
 51
25.1803616099070418
  0
ARC
  5
125DD
  8
0
 10
18.3044515990077308
 20
13.6366421637474105
 30
0.0
 40
0.0587210952472061
 50
303.5032274132415182
 51
344.5472371666464255
  0
ARC
  5
125DE
  8
0
 10
18.3034171263129792
 20
13.6361022695922998
 30
0.0
 40
0.0588533592810018
 50
258.7431605882525787
 51
304.6331973986340245
  0
ARC
  5
125DF
  8
0
 10
18.3057647049722583
 20
13.6586526237464891
 30
0.0
 40
0.0814552178723136
 50
220.9065000453230141
 51
260.2201733890582886
  0
ARC
  5
125E0
  8
0
 10
18.3134996660214711
 20
13.67115173455886
 30
0.0
 40
0.0955863632964599
 50
197.060254913003206
 51
223.5337578497388904
  0
ARC
  5
125E1
  8
0
 10
18.2998951885138013
 20
13.6680499178801202
 30
0.0
 40
0.0816769678887891
 50
174.5379467856627116
 51
197.7799471525129889
  0
LINE
  5
125E2
  8
0
 10
17.7430782152960091
 20
10.6011206468125394
 30
0.0
 11
17.7308128998010908
 21
10.6142617157801205
 31
0.0
  0
ARC
  5
125E3
  8
0
 10
18.3809018523124905
 20
13.7413957261663899
 30
0.0
 40
2.146974833316162
 50
87.249873875017272
 51
122.1003656298990023
  0
LINE
  5
125E4
  8
0
 10
17.7507297233787504
 20
14.6412545490521495
 30
0.0
 11
17.7501884567891395
 21
14.7539296101631408
 31
0.0
  0
LINE
  5
125E5
  8
0
 10
17.9036401436637789
 20
14.8023032626420008
 30
0.0
 11
17.9047794481830316
 21
14.9114919841842894
 31
0.0
  0
LINE
  5
125E6
  8
0
 10
18.0238883117176485
 20
14.8471737212531103
 30
0.0
 11
18.0246671599893489
 21
14.9585288343848504
 31
0.0
  0
LINE
  5
125E7
  8
0
 10
17.6236104917252305
 20
14.6437023605620293
 30
0.0
 11
17.6241646984021791
 21
14.7129983499273393
 31
0.0
  0
ARC
  5
125E8
  8
0
 10
18.230867794022739
 20
10.7955643285026195
 30
0.0
 40
0.2551266985264009
 50
189.3728428918541056
 51
221.1373384939871016
  0
ARC
  5
125E9
  8
0
 10
18.4098893257537384
 20
10.9750182859289396
 30
0.0
 40
0.5083079831420368
 50
223.0968619865826099
 51
257.1484494924708883
  0
ARC
  5
125EA
  8
0
 10
18.4826923905998193
 20
11.2138995534198802
 30
0.0
 40
0.7576086797646543
 50
255.7986849493404122
 51
270.0924176848491811
  0
ARC
  5
125EB
  8
0
 10
18.4718571365688113
 20
10.5748885744246195
 30
0.0
 40
0.5597840648180219
 50
236.8353810322603863
 51
271.234197625636682
  0
ARC
  5
125EC
  8
0
 10
18.3158512977870487
 20
10.3287225318378795
 30
0.0
 40
0.268406356468748
 50
205.8169680457752122
 51
235.9662389808302123
  0
ARC
  5
125ED
  8
0
 10
18.2417664495706013
 20
10.28893006962298
 30
0.0
 40
0.1844207084356171
 50
183.3463060779525904
 51
204.7118152067930055
  0
ARC
  5
125EE
  8
0
 10
18.4669319077893306
 20
10.4947189908305596
 30
0.0
 40
0.5269123029499515
 50
230.1905819376173952
 51
271.8469754689484148
  0
ARC
  5
125F1
  8
0
 10
-374.758162042022775
 20
9.6361239185780505
 30
0.0
 40
392.9468060310524038
 50
359.9179764038341887
 51
0.010062111902149
  0
ARC
  5
125F2
  8
0
 10
18.4689165293461883
 20
10.0958705084526592
 30
0.0
 40
0.4808665469841576
 50
225.1163460884901895
 51
271.787303576628176
  0
ARC
  5
125F3
  8
0
 10
18.7909894945773885
 20
9.5242868960850142
 30
0.0
 40
0.8496110388861811
 50
208.7306216450226088
 51
224.5404231130881954
  0
ARC
  5
125F4
  8
0
 10
18.0059224139281504
 20
9.1301518212983694
 30
0.0
 40
0.0425171214357788
 50
274.8006040147162139
 51
340.3944137815273052
  0
ARC
  5
125F5
  8
0
 10
17.7662265577696417
 20
9.1712394210038894
 30
0.0
 40
0.1077029194209823
 50
309.2069129855290157
 51
356.0852837699119959
  0
ARC
  5
125F6
  8
0
 10
18.2009822096365497
 20
9.1520943437205347
 30
0.0
 40
0.1591805344401277
 50
161.8819214968137032
 51
193.1481902507453867
  0
ARC
  5
125F7
  8
0
 10
17.7831639787264102
 20
9.2860049808563172
 30
0.0
 40
0.0388383689898221
 50
190.0951647224707983
 51
270.8624801322134772
  0
ARC
  5
125F8
  8
0
 10
17.8347033527784298
 20
9.2861459877445327
 30
0.0
 40
0.0389769798260213
 50
269.4189773172445257
 51
359.3981378860790983
  0
ARC
  5
125F9
  8
0
 10
17.8900800649776102
 20
9.3159978494396682
 30
0.0
 40
0.0164108654510204
 50
181.8958068191068946
 51
238.6913828787490957
  0
ARC
  5
125FA
  8
0
 10
23.3144739134531918
 20
9.99158081979445
 30
0.0
 40
5.614921568041872
 50
174.0213840167637898
 51
187.2889487827677897
  0
ARC
  5
125FB
  8
0
 10
17.8336655219472888
 20
10.5745597989627491
 30
0.0
 40
0.0400340911816262
 50
22.5877520589101692
 51
89.080312311669573
  0
ARC
  5
125FC
  8
0
 10
19.6239589161696095
 20
10.6702889768326408
 30
0.0
 40
1.769754604306718
 50
199.2794182134620939
 51
207.9857285369982947
  0
ARC
  5
125FD
  8
0
 10
18.7582139420837812
 20
10.3602238583616497
 30
0.0
 40
0.8502125086913578
 50
189.9995920710292125
 51
198.8192135114146026
  0
ARC
  5
125FE
  8
0
 10
18.5435024573862393
 20
10.2953622653186301
 30
0.0
 40
0.6280633314187245
 50
172.4236735428916063
 51
187.5728423059024976
  0
ARC
  5
125FF
  8
0
 10
18.1684183298225399
 20
10.3278591485456008
 30
0.0
 40
0.2525581721677244
 50
142.0254359305747016
 51
168.5094284650540999
  0
ARC
  5
12600
  8
0
 10
18.1841672064902014
 20
10.31019897692752
 30
0.0
 40
0.2758717111142099
 50
120.758222115869998
 51
141.1467142794093945
  0
ARC
  5
12601
  8
0
 10
17.406321741319509
 20
9.7465713705796873
 30
0.0
 40
0.6614369829822642
 50
8.1052590096587824
 51
13.5091184785528
  0
ARC
  5
12602
  8
0
 10
18.0788871859540414
 20
10.0681045225864203
 30
0.0
 40
0.0495114117481073
 50
233.5315432665516937
 51
271.8565006095006993
  0
ARC
  5
12603
  8
0
 10
17.9954329481820388
 20
10.0253483253638596
 30
0.0
 40
0.0541055684956203
 50
3.1147803001937779
 51
30.3759742135799513
  0
ARC
  5
12604
  8
0
 10
19.7263809899877707
 20
10.9789108267285407
 30
0.0
 40
1.9221384823942671
 50
202.9158553513721017
 51
208.8069922688659119
  0
ARC
  5
12605
  8
0
 10
18.1765918763339904
 20
10.3347729412419298
 30
0.0
 40
0.2440599571322077
 50
185.5437409218735922
 51
205.3003247126007977
  0
ARC
  5
12606
  8
0
 10
18.2058228125365495
 20
10.3281586910970304
 30
0.0
 40
0.2726775177941758
 50
126.6385564789144951
 51
183.5666836552674965
  0
ARC
  5
12607
  8
0
 10
18.2166317109076807
 20
10.3194142337265706
 30
0.0
 40
0.1799435654961029
 50
156.5527658421877106
 51
200.3876247096706891
  0
ARC
  5
12608
  8
0
 10
19.2220809943696587
 20
10.7585077880036106
 30
0.0
 40
1.2768942611913821
 50
203.8270982388507093
 51
211.1195046613671025
  0
ARC
  5
12609
  8
0
 10
17.3520365717217793
 20
15.7232145610794891
 30
0.0
 40
0.2871293592439561
 50
155.2851092747768007
 51
179.5945186450244933
  0
ARC
  5
1260A
  8
0
 10
17.7250884506988804
 20
15.5081779091191798
 30
0.0
 40
0.7169984586228803
 50
138.7780018499171035
 51
152.1378440924121946
  0
ARC
  5
1260B
  8
0
 10
17.8128366114156016
 20
15.3758160021977801
 30
0.0
 40
0.8712230456747395
 50
111.3751154885353998
 51
136.0323600720670925
  0
ARC
  5
1260C
  8
0
 10
18.4247642133027512
 20
13.8437132102635001
 30
0.0
 40
2.5209955248505729
 50
88.6555440177510974
 51
111.6348120868120048
  0
ARC
  5
1260D
  8
0
 10
18.35387910120971
 20
13.9879510978647108
 30
0.0
 40
2.3409217419819801
 50
96.1548713103875343
 51
111.0953765988964932
  0
ARC
  5
1260E
  8
0
 10
17.8243848109527789
 20
15.3037820952667403
 30
0.0
 40
0.9229237235239018
 50
109.8280160473950957
 51
137.7520712447337132
  0
ARC
  5
1260F
  8
0
 10
17.3473115839856291
 20
15.2634973950286508
 30
0.0
 40
0.2823985693123042
 50
154.4580149329480037
 51
179.8203590030433929
  0
ARC
  5
12610
  8
0
 10
17.4734894445855389
 20
15.2030183015742093
 30
0.0
 40
0.4223219599853293
 50
135.8995721663704046
 51
154.4357601532796025
  0
ARC
  5
12611
  8
0
 10
18.0146307544082411
 20
14.6349746388682096
 30
0.0
 40
1.2066457622126441
 50
129.9394634291878958
 51
134.4115528869901084
  0
ARC
  5
12612
  8
0
 10
18.2169994666633102
 20
14.7835545976456295
 30
0.0
 40
1.1956656507842249
 50
90.0744389267973133
 51
102.9170887245659998
  0
ARC
  5
12613
  8
0
 10
18.9692641433430182
 20
10.9353972491428504
 30
0.0
 40
5.1143757670311674
 50
102.2628165067829968
 51
105.7294557600530993
  0
ARC
  5
12614
  8
0
 10
17.7122843282827489
 20
15.3465014393052002
 30
0.0
 40
0.5278828180275936
 50
104.2011213751843002
 51
120.150681669949293
  0
ARC
  5
12618
  8
0
 10
17.3266299123692988
 20
15.4464635134805199
 30
0.0
 40
0.246394953853197
 50
117.7281059053995023
 51
152.1375262284421979
  0
ARC
  5
12619
  8
0
 10
17.1593375372744887
 20
15.3240871262048604
 30
0.0
 40
0.151104475894398
 50
151.2929315464290028
 51
208.7070662039002116
  0
ARC
  5
1261C
  8
0
 10
17.0906851746280992
 20
15.3735914843576893
 30
0.0
 40
0.0754035291108354
 50
252.1140807834350142
 51
252.1224219532657003
  0
ARC
  5
1261D
  8
0
 10
18.1533076167870604
 20
15.2922234594375297
 30
0.0
 40
0.7593155527227619
 50
97.7962997381338965
 51
104.1548383522367942
  0
ARC
  5
1261E
  8
0
 10
18.1677957077817993
 20
15.2828608236342802
 30
0.0
 40
0.9079932407615489
 50
93.7379082652788469
 51
102.8817957229821047
  0
ARC
  5
1261F
  8
0
 10
19.3292355776629812
 20
9.8069204818901312
 30
0.0
 40
6.5056507455781762
 50
102.1014689448905983
 51
105.522294570601801
  0
ARC
  5
12620
  8
0
 10
17.7115522680851392
 20
15.5669657863422799
 30
0.0
 40
0.5230648549809322
 50
103.636167089370602
 51
120.3647308224905998
  0
ARC
  5
12621
  8
0
 10
17.3208936017353992
 20
15.6675268607763698
 30
0.0
 40
0.2386485701835232
 50
117.1513300341330961
 51
152.7143021695540028
  0
ARC
  5
12622
  8
0
 10
17.1592782343391193
 20
15.5394007356097692
 30
0.0
 40
0.1510524846103239
 50
151.282140804877713
 51
208.7178869076263084
  0
ARC
  5
12625
  8
0
 10
17.3242088725228314
 20
15.5985727259925895
 30
0.0
 40
0.1707876802057918
 50
116.5109166787119932
 51
151.1769396613262018
  0
ARC
  5
12626
  8
0
 10
17.7238407957906894
 20
15.4696353370788398
 30
0.0
 40
0.4842610054765279
 50
102.5257514554403997
 51
119.5902556498212022
  0
ARC
  5
12629
  8
0
 10
18.4748334328437487
 20
14.9018641400429601
 30
0.0
 40
0.7834348196966954
 50
243.5689775312044958
 51
270.6641435372160913
  0
ARC
  5
1262A
  8
0
 10
18.3116646771227316
 20
14.5891679916990107
 30
0.0
 40
0.4293817503510279
 50
226.3081142479329912
 51
232.3896660835011971
  0
ARC
  5
1262B
  8
0
 10
17.3827810059142394
 20
14.9237803705297498
 30
0.0
 40
0.3178813239124243
 50
180.5514053881821042
 51
208.7477972806171067
  0
ARC
  5
1262C
  8
0
 10
17.6269712487187391
 20
15.0824062104479406
 30
0.0
 40
0.6086503175226321
 50
210.7843755131347905
 51
239.648576417052908
  0
ARC
  5
1262D
  8
0
 10
18.4030716163192594
 20
12.9253122789549995
 30
0.0
 40
2.5410000769638388
 50
97.9045525908812664
 51
104.0303194565266978
  0
ARC
  5
1262E
  8
0
 10
18.1727167154740492
 20
13.7736395597535708
 30
0.0
 40
1.662229800758712
 50
103.416122520518698
 51
117.1698397103668015
  0
ARC
  5
1262F
  8
0
 10
17.7684211249511392
 20
14.5511560019374997
 30
0.0
 40
0.785907335453479
 50
116.8310336034879953
 51
134.2227263562809014
  0
ARC
  5
12630
  8
0
 10
17.5006514462502309
 20
14.8251461053634408
 30
0.0
 40
0.4028016931199988
 50
134.109127289318792
 51
156.1677302860198893
  0
ARC
  5
12631
  8
0
 10
17.3724231705577914
 20
14.8843222797551906
 30
0.0
 40
0.2616066705471694
 50
156.6754940544410886
 51
184.5714013987019086
  0
ARC
  5
12632
  8
0
 10
17.4106320373994095
 20
14.8944858959405302
 30
0.0
 40
0.3005875743268595
 50
185.922204397227091
 51
214.8184968275787128
  0
ARC
  5
12633
  8
0
 10
17.6440785417175903
 20
15.0672195319076803
 30
0.0
 40
0.590927536523478
 50
215.6441600172069002
 51
236.5673170881655949
  0
ARC
  5
12634
  8
0
 10
18.3716538245430385
 20
13.1354683640831507
 30
0.0
 40
2.3243219879798298
 50
97.8430756799314452
 51
108.5344227135861956
  0
ARC
  5
12635
  8
0
 10
18.3537472655889289
 20
13.2568846325663401
 30
0.0
 40
2.191530732490433
 50
98.8195553154553892
 51
109.3321296686578989
  0
ARC
  5
12636
  8
0
 10
17.9832644435277906
 20
14.2727901681508307
 30
0.0
 40
1.110340067574846
 50
108.6466167943897005
 51
126.7915847867531056
  0
ARC
  5
12637
  8
0
 10
17.5959369418556015
 20
14.7884699914025308
 30
0.0
 40
0.465402847588454
 50
126.6271560007227066
 51
149.6468988960949957
  0
ARC
  5
12638
  8
0
 10
17.43996089191387
 20
14.88329181518918
 30
0.0
 40
0.2829066906112016
 50
150.2555731748024925
 51
170.287482881841413
  0
ARC
  5
12639
  8
0
 10
17.9940969739422982
 20
14.2286591838812306
 30
0.0
 40
1.167863217765212
 50
108.0204232595809941
 51
126.5558842880328996
  0
ARC
  5
1263A
  8
0
 10
17.4082513611433605
 20
14.9118768329174696
 30
0.0
 40
0.2579825486036604
 50
145.3507524897682117
 51
175.4455732503112131
  0
ARC
  5
1263B
  8
0
 10
17.5808811841138812
 20
14.7967302879441398
 30
0.0
 40
0.4654754052831747
 50
127.3462045439481045
 51
145.7721940379763907
  0
ARC
  5
1263C
  8
0
 10
17.4246270102416894
 20
14.9301191265880409
 30
0.0
 40
0.2687168791379599
 50
166.4295826000619911
 51
179.6668071506547051
  0
ARC
  5
1263D
  8
0
 10
17.4211935984908415
 20
14.8940619992408205
 30
0.0
 40
0.2632898956940867
 50
180.5177264706755977
 51
205.6112439454527134
  0
ARC
  5
1263E
  8
0
 10
17.5952562171369209
 20
14.9924268962298299
 30
0.0
 40
0.4629656343743488
 50
207.2772067374959022
 51
232.8756313486802014
  0
ARC
  5
1263F
  8
0
 10
18.4815221813259996
 20
13.3751496149636697
 30
0.0
 40
1.47739245320227
 50
89.907225380786997
 51
99.9977083998065552
  0
ARC
  5
12640
  8
0
 10
18.3930579042871614
 20
13.8470876283971904
 30
0.0
 40
0.9972762815152144
 50
99.6996255732954069
 51
111.7394357174570985
  0
ARC
  5
12641
  8
0
 10
18.1878189391536615
 20
14.3364995715575905
 30
0.0
 40
0.4667487584891074
 50
110.5890804104988945
 51
130.7936001038490872
  0
ARC
  5
12642
  8
0
 10
18.0269607059485715
 20
14.5250151108484697
 30
0.0
 40
0.2189395578225519
 50
131.1556259396436985
 51
151.4852720652826008
  0
ARC
  5
12643
  8
0
 10
17.9526385390645409
 20
14.5667130764487602
 30
0.0
 40
0.1337321420625
 50
151.9820546126181
 51
179.3730664733313063
  0
ARC
  5
12644
  8
0
 10
18.0586454301246704
 20
14.5970346461062395
 30
0.0
 40
0.2427938083944744
 50
190.3875066860632899
 51
204.6791509504986095
  0
ARC
  5
12645
  8
0
 10
18.0665025591920312
 20
14.6234136998764601
 30
0.0
 40
0.2617663519564096
 50
209.2123064187512114
 51
239.5525662608716004
  0
ARC
  5
12646
  8
0
 10
18.2908090020846394
 20
14.9807985358854108
 30
0.0
 40
0.6836427030227356
 50
238.5242171387722863
 51
252.4918665834291005
  0
ARC
  5
12647
  8
0
 10
18.4714304864323786
 20
15.6000056788244894
 30
0.0
 40
1.3285770647057471
 50
253.0968856843697949
 51
270.5383854147750071
  0
ARC
  5
12648
  8
0
 10
17.9862382136270718
 20
14.5561381051560392
 30
0.0
 40
0.1623419204467573
 50
180.855940031159605
 51
191.4574591251005131
  0
ARC
  5
12649
  8
0
 10
17.9686185372411309
 20
14.5495968222584793
 30
0.0
 40
0.1447626599803831
 50
141.7487098240914918
 51
178.3706439723468122
  0
ARC
  5
1264A
  8
0
 10
18.1230636412815294
 20
14.4198040438580808
 30
0.0
 40
0.3464625082991553
 50
117.1380800022275963
 51
140.7054921478830067
  0
ARC
  5
1264B
  8
0
 10
18.3663779534676905
 20
13.9423456492281996
 30
0.0
 40
0.882342859989539
 50
99.3099675597826348
 51
117.0563657943458935
  0
ARC
  5
1264C
  8
0
 10
18.4827271943481684
 20
13.3369801426474606
 30
0.0
 40
1.498953069817913
 50
89.9546201209116987
 51
97.1655218326994259
  0
ARC
  5
1264D
  8
0
 10
18.4838628426896285
 20
15.2339597179700892
 30
0.0
 40
0.0634791868985758
 50
89.9534580474769854
 51
147.9257263822296125
  0
ARC
  5
1264E
  8
0
 10
18.4792866939960696
 20
14.6412322306192593
 30
0.0
 40
0.3554734082662768
 50
258.9352251072028821
 51
270.7459234235760164
  0
ARC
  5
1264F
  8
0
 10
18.4810457112344011
 20
13.9491895183317602
 30
0.0
 40
0.3788525016667423
 50
89.5661484147855163
 51
99.3259384237770604
  0
ARC
  5
12650
  8
0
 10
18.4381186618788888
 20
14.2043757441504592
 30
0.0
 40
0.1200870773077618
 50
98.8456713465830461
 51
111.2967160144578997
  0
ARC
  5
12651
  8
0
 10
18.4245914043540289
 20
14.3671994352683896
 30
0.0
 40
0.0760453697689282
 50
243.941815484050295
 51
259.7539050532679994
  0
ARC
  5
12652
  8
0
 10
18.40528459794632
 20
14.2885992801057302
 30
0.0
 40
0.0296897336217137
 50
111.2926875051780939
 51
127.7736115752375952
  0
ARC
  5
12653
  8
0
 10
18.3987035298418888
 20
14.3150456796801908
 30
0.0
 40
0.0178243653644307
 50
220.4936562848413928
 51
245.0542137124213866
  0
ARC
  5
12654
  8
0
 10
18.393182365414301
 20
14.3041687000813909
 30
0.0
 40
0.0099699885326936
 50
127.6062947308106033
 51
148.947812102467509
  0
ARC
  5
12655
  8
0
 10
18.3888455769665597
 20
14.3067345357798406
 30
0.0
 40
0.0049313185426692
 50
148.4964148154896009
 51
221.4343212786405104
  0
ARC
  5
12656
  8
0
 10
18.4781448090980085
 20
14.6343704472445708
 30
0.0
 40
0.2390536755551343
 50
245.2835184274840117
 51
271.3829770157312851
  0
ARC
  5
12657
  8
0
 10
18.4050648632464799
 20
14.4735960627746199
 30
0.0
 40
0.0624570043484124
 50
212.916629728204299
 51
244.5134655878680974
  0
ARC
  5
12658
  8
0
 10
18.3748272041202583
 20
14.4530373430552004
 30
0.0
 40
0.025914837885737
 50
156.1179896742436881
 51
211.0888223492027009
  0
ARC
  5
12659
  8
0
 10
18.4034792271549996
 20
14.4347630812650607
 30
0.0
 40
0.0597310834968938
 50
117.4296553717108935
 51
151.2105825353538933
  0
ARC
  5
1265A
  8
0
 10
18.4768690104301605
 20
14.2796492267194992
 30
0.0
 40
0.2313005040125756
 50
88.2545046089612839
 51
115.8650290639349976
  0
ARC
  5
1265B
  8
0
 10
18.4718652653873505
 20
14.6348315870571906
 30
0.0
 40
0.1949646698128629
 50
234.8716168182484125
 51
273.5432328081673177
  0
ARC
  5
1265C
  8
0
 10
18.4853862313780084
 20
14.6036533644241597
 30
0.0
 40
0.1525188610191088
 50
90.5529191981035666
 51
113.7509920470932059
  0
ARC
  5
1265D
  8
0
 10
18.4581297429654114
 20
14.6683446524101306
 30
0.0
 40
0.0823361865148951
 50
114.5215175336665965
 51
138.1691139453442077
  0
ARC
  5
1265E
  8
0
 10
18.4321511255816404
 20
14.6903208787066699
 30
0.0
 40
0.0483317507510329
 50
137.0414487946765973
 51
173.9144124265881999
  0
ARC
  5
1265F
  8
0
 10
18.4280678284399109
 20
14.6918259449811295
 30
0.0
 40
0.0441247293796238
 50
175.295754055101412
 51
210.4824180954148005
  0
ARC
  5
12660
  8
0
 10
18.4526963608918813
 20
14.7084992934576295
 30
0.0
 40
0.0738310042867695
 50
211.9379799641473028
 51
239.8718219113135888
  0
ARC
  5
12661
  8
0
 10
18.4819408371567988
 20
14.7630828254793602
 30
0.0
 40
0.1357357203278318
 50
240.7598831796389902
 51
270.833098572132883
  0
ARC
  5
12662
  8
0
 10
18.48302635586424
 20
14.7913583006949807
 30
0.0
 40
0.120431718575283
 50
219.6542279935468116
 51
270.4224972575676134
  0
ARC
  5
12663
  8
0
 10
18.0730097372706915
 20
14.70034373362782
 30
0.0
 40
0.2014560744454392
 50
232.3936610366866944
 51
256.2758360459476989
  0
ARC
  5
12664
  8
0
 10
18.0734750759675116
 20
14.6583495994108208
 30
0.0
 40
0.1611083099830525
 50
252.5692856110057107
 51
286.2720822351345191
  0
ARC
  5
12665
  8
0
 10
17.9805342574850293
 20
14.4660245682583692
 30
0.0
 40
0.080691060578666
 50
94.5787610254563305
 51
112.1779559727558961
  0
ARC
  5
12666
  8
0
 10
17.9863285768524293
 20
14.3128656117564805
 30
0.0
 40
0.2339127387829492
 50
66.1470177834886783
 51
92.9984776137272604
  0
ARC
  5
12667
  8
0
 10
18.4745354606097791
 20
13.1532357366128796
 30
0.0
 40
1.8683232472781299
 50
89.7123750775675148
 51
103.0843595211379977
  0
ARC
  5
12668
  8
0
 10
18.0705912191606295
 20
14.9476298464793107
 30
0.0
 40
0.0317488596473629
 50
126.7968335464133958
 51
200.4410403126678943
  0
ARC
  5
12669
  8
0
 10
18.0899174412115791
 20
14.9538390879228906
 30
0.0
 40
0.0520350202175776
 50
199.4155356092711884
 51
222.9335483262591993
  0
ARC
  5
1266A
  8
0
 10
18.0128029621469103
 20
14.8812348293085108
 30
0.0
 40
0.0538819515295282
 50
16.594062665803321
 51
43.6037805435209407
  0
ARC
  5
1266B
  8
0
 10
18.0361833581246209
 20
14.8875463938524
 30
0.0
 40
0.0296794394820429
 50
319.0412368216552181
 51
17.8074330841559494
  0
ARC
  5
1266C
  8
0
 10
18.0314949185185398
 20
14.8927956371971906
 30
0.0
 40
0.0366718444755138
 50
291.522720020950203
 51
317.6493432360808811
  0
ARC
  5
1266D
  8
0
 10
18.061316557766979
 20
14.8001890706275905
 30
0.0
 40
0.0607387291380809
 50
105.6332885817039937
 51
120.6230159340498034
  0
ARC
  5
1266E
  8
0
 10
18.0439443962513906
 20
14.8286472458452998
 30
0.0
 40
0.0274039944622168
 50
119.675498295761102
 51
179.2640203948766953
  0
ARC
  5
1266F
  8
0
 10
17.9926229828020006
 20
14.8174565837682
 30
0.0
 40
0.0250877143590624
 50
303.1118707989958239
 51
359.9484319066219769
  0
ARC
  5
12670
  8
0
 10
17.9810567460094717
 20
14.8359231580569695
 30
0.0
 40
0.0468754772509766
 50
275.6024492773426005
 51
302.6230764860907243
  0
ARC
  5
12671
  8
0
 10
17.9775516134436586
 20
14.8736305405468805
 30
0.0
 40
0.0847451496185638
 50
252.966010857071808
 51
275.4720908667438266
  0
ARC
  5
12672
  8
0
 10
17.7236848760744614
 20
14.1531287398932193
 30
0.0
 40
0.6792550748879586
 50
70.2939148876583033
 51
72.0349938063199744
  0
ARC
  5
12673
  8
0
 10
17.9099441605808316
 20
14.7185390662303899
 30
0.0
 40
0.0840083910641868
 50
73.9349755802510344
 51
94.057204167050557
  0
ARC
  5
12674
  8
0
 10
17.906900015761039
 20
14.7585544669487607
 30
0.0
 40
0.0438783724658632
 50
93.7890861274594556
 51
115.9227209664497025
  0
ARC
  5
12675
  8
0
 10
17.8978589786306586
 20
14.7764758821213
 30
0.0
 40
0.0238096143792572
 50
115.208310471432398
 51
147.7608147157951066
  0
ARC
  5
12676
  8
0
 10
17.8943697957311088
 20
14.7791670221938904
 30
0.0
 40
0.0194271935608033
 50
148.9846175308674106
 51
180.4943584484722976
  0
ARC
  5
12677
  8
0
 10
17.9062909762551499
 20
14.7802202057622196
 30
0.0
 40
0.0313714134211527
 50
182.2301997232600002
 51
216.42043017371671
  0
ARC
  5
12678
  8
0
 10
17.8516243729577617
 20
14.7399159840359708
 30
0.0
 40
0.0365466864570365
 50
8.7104709432046388
 51
36.3831263719843605
  0
ARC
  5
12679
  8
0
 10
17.8691567600858399
 20
14.7427860917169298
 30
0.0
 40
0.0187827411505404
 50
314.4510588300445875
 51
8.1556648165498569
  0
ARC
  5
1267A
  8
0
 10
17.8591925112455101
 20
14.7562976242101307
 30
0.0
 40
0.035483741537204
 50
272.5236773988282835
 51
310.655089907622596
  0
ARC
  5
1267B
  8
0
 10
17.8544214931580392
 20
14.8067608971179503
 30
0.0
 40
0.0861457325578557
 50
253.7743166855536003
 51
274.2161980396625722
  0
ARC
  5
1267C
  8
0
 10
17.8055747352082108
 20
14.6344345821901207
 30
0.0
 40
0.0929738188596365
 50
74.5450090237005725
 51
90.0355142800314354
  0
ARC
  5
1267D
  8
0
 10
17.8036987691693795
 20
14.6903611555331395
 30
0.0
 40
0.037091824255846
 50
87.1900866351576269
 51
120.5941764029544032
  0
ARC
  5
1267E
  8
0
 10
17.7926358418708297
 20
14.7090724229093706
 30
0.0
 40
0.0153547617342194
 50
120.5951995798160965
 51
179.6707242870398886
  0
ARC
  5
1267F
  8
0
 10
17.8044358259748989
 20
14.7108054817511196
 30
0.0
 40
0.0272042620105624
 50
183.4663152354056876
 51
215.3522011067649942
  0
ARC
  5
12680
  8
0
 10
17.9121025729204995
 20
14.8011086025645895
 30
0.0
 40
0.1676529430546833
 50
219.236153864763196
 51
227.4146922557577
  0
ARC
  5
12681
  8
0
 10
17.7649339537260786
 20
14.6456103373741104
 30
0.0
 40
0.0465285320854628
 50
26.3926828571691097
 51
43.5546860345610867
  0
ARC
  5
12682
  8
0
 10
17.7885551667090986
 20
14.6569553506547496
 30
0.0
 40
0.0203291021288446
 50
356.272745400425606
 51
27.3442624414214386
  0
ARC
  5
12683
  8
0
 10
17.7952425072253391
 20
14.6571061255105501
 30
0.0
 40
0.0136782313045526
 50
306.0593689125233823
 51
353.8207783920983047
  0
ARC
  5
12684
  8
0
 10
17.7865854439705799
 20
14.6702991434621008
 30
0.0
 40
0.029449311762288
 50
274.524447637753326
 51
304.5663972512360829
  0
ARC
  5
12685
  8
0
 10
17.7811337115790593
 20
14.7133320410495703
 30
0.0
 40
0.0728067543674048
 50
264.9712983383632832
 51
276.1301415450445802
  0
ARC
  5
12686
  8
0
 10
17.7595459706644689
 20
14.5405742066566006
 30
0.0
 40
0.1013781843515649
 50
81.3735568248189622
 51
90.6604914658892511
  0
ARC
  5
12687
  8
0
 10
17.7586597875720109
 20
14.5961612420121298
 30
0.0
 40
0.0457852842943857
 50
90.3534649746993637
 51
106.5403497058938029
  0
ARC
  5
12688
  8
0
 10
17.7503613145040617
 20
14.6224653028200997
 30
0.0
 40
0.0182131794511787
 50
105.072460476848093
 51
140.724628450345989
  0
ARC
  5
12689
  8
0
 10
17.7522959925881914
 20
14.6237337868018606
 30
0.0
 40
0.0190361600803951
 50
147.381387004369202
 51
166.4289932968625862
  0
ARC
  5
1268A
  8
0
 10
17.7217815985795788
 20
14.6347585632184707
 30
0.0
 40
0.0136835688414964
 50
289.8745739654597742
 51
331.3631577368790886
  0
ARC
  5
1268B
  8
0
 10
17.7128297931240013
 20
14.6599641239705196
 30
0.0
 40
0.0404314186085883
 50
267.6770611752539821
 51
289.6615657362129923
  0
ARC
  5
1268C
  8
0
 10
17.7195032569420583
 20
14.7477683870279392
 30
0.0
 40
0.1284716429745061
 50
244.7076919147388026
 51
266.2903237201301181
  0
ARC
  5
1268D
  8
0
 10
17.5979098625875814
 20
14.4862798871208405
 30
0.0
 40
0.1599095885126998
 50
65.3454763701580532
 51
74.7451924675262376
  0
ARC
  5
1268E
  8
0
 10
17.6119605791172908
 20
14.5389289680225602
 30
0.0
 40
0.1054190886320134
 50
74.5837872693477664
 51
83.655257476964394
  0
ARC
  5
1268F
  8
0
 10
17.6175741635429404
 20
14.5939134593837991
 30
0.0
 40
0.0501534838118432
 50
83.0872873609242788
 51
98.3383349668511642
  0
ARC
  5
12690
  8
0
 10
17.612927148006289
 20
14.6253503742704503
 30
0.0
 40
0.0183750284255828
 50
98.2168335902078979
 51
122.8325152172623973
  0
ARC
  5
12691
  8
0
 10
18.055138693074241
 20
14.9147085535135808
 30
0.0
 40
0.0533735078872289
 50
107.7210072493891033
 51
124.8137905119278059
  0
ARC
  5
12692
  8
0
 10
18.0358274678728812
 20
14.9416624696856104
 30
0.0
 40
0.0202244092676866
 50
123.492214993904895
 51
155.9120384641832118
  0
ARC
  5
12693
  8
0
 10
18.0559339822330003
 20
14.9409164539828794
 30
0.0
 40
0.0396059949238692
 50
166.8649023427888949
 51
189.5730663069712989
  0
ARC
  5
12694
  8
0
 10
17.9937131215783701
 20
14.9461976238515906
 30
0.0
 40
0.0260293742792754
 50
293.9884406679142899
 51
332.8745161499012966
  0
ARC
  5
12695
  8
0
 10
17.963560981948369
 20
15.0086384116942195
 30
0.0
 40
0.0953599377020256
 50
274.5746047459311967
 51
295.2877876727594071
  0
ARC
  5
12696
  8
0
 10
17.9577064579925683
 20
15.0518195358336904
 30
0.0
 40
0.1388910378255006
 50
264.1460686903176907
 51
275.5613560984630794
  0
ARC
  5
12697
  8
0
 10
17.9310420065225991
 20
14.7891215893821997
 30
0.0
 40
0.1251568435785364
 50
84.2687001734934853
 51
102.1128103878401987
  0
ARC
  5
12698
  8
0
 10
17.9182879954032614
 20
14.8455763138257701
 30
0.0
 40
0.0672856332868609
 50
101.5816516840140054
 51
118.5559516169056025
  0
ARC
  5
12699
  8
0
 10
17.89787725759561
 20
14.8819690257266704
 30
0.0
 40
0.0255689179780887
 50
117.3649480385358004
 51
145.2950443108296099
  0
ARC
  5
1269A
  8
0
 10
17.8865888877176111
 20
14.8901274740840108
 30
0.0
 40
0.0116471556619836
 50
146.672468296329896
 51
179.0522936383754882
  0
ARC
  5
1269B
  8
0
 10
17.7899198473578508
 20
14.8175450391660206
 30
0.0
 40
0.0126462291752854
 50
138.5149510303673139
 51
177.9984717798947997
  0
ARC
  5
1269C
  8
0
 10
17.8070059664328184
 20
14.8011586848988603
 30
0.0
 40
0.0363132720939824
 50
110.5784335053018026
 51
137.0044539492944864
  0
ARC
  5
1269D
  8
0
 10
17.8270015018320009
 20
14.7528870424077905
 30
0.0
 40
0.0885503568509226
 50
97.8395749992535002
 51
111.7125733279490021
  0
ARC
  5
1269E
  8
0
 10
17.8540978522933109
 20
14.4651648630244196
 30
0.0
 40
0.377483174705129
 50
92.2147602721901762
 51
95.9567906185759796
  0
ARC
  5
1269F
  8
0
 10
17.8337469588582316
 20
14.9369619676662602
 30
0.0
 40
0.0947712952117628
 50
273.486262205939795
 51
295.7657255684986808
  0
ARC
  5
126A0
  8
0
 10
17.7845993226651409
 20
14.6759136560274595
 30
0.0
 40
0.0852677945652926
 50
98.9249522144068862
 51
113.8010637523858009
  0
ARC
  5
126A1
  8
0
 10
17.7655039727628683
 20
14.7183565274731905
 30
0.0
 40
0.0387299527700055
 50
113.2936496426385986
 51
132.863075632423687
  0
ARC
  5
126A2
  8
0
 10
17.7520701672810901
 20
14.73323440327664
 30
0.0
 40
0.0186884256934783
 50
133.702915872567786
 51
150.2101482532951024
  0
ARC
  5
126A3
  8
0
 10
17.7474777562829296
 20
14.7359405732631501
 30
0.0
 40
0.0133585736403917
 50
150.4973288854048974
 51
162.8335980742753861
  0
ARC
  5
126A4
  8
0
 10
17.7200426780518683
 20
14.7432101652072394
 30
0.0
 40
0.0150440660217196
 50
334.4555424864246902
 51
347.2240270434818967
  0
ARC
  5
126A5
  8
0
 10
17.7153257780305502
 20
14.7463571782105607
 30
0.0
 40
0.0206726168532491
 50
308.5414193039262045
 51
332.222706821979898
  0
ARC
  5
126A6
  8
0
 10
17.6948844518560691
 20
14.7743765246283392
 30
0.0
 40
0.0553442816601149
 50
285.6706995576852819
 51
307.0194529724731183
  0
ARC
  5
126A7
  8
0
 10
17.67613236409397
 20
14.83733288088081
 30
0.0
 40
0.1210301963006436
 50
270.7983742531284861
 51
286.167800629377723
  0
ARC
  5
126A8
  8
0
 10
17.6748621483188799
 20
14.8556023651816798
 30
0.0
 40
0.1393193071950458
 50
266.4040008399360886
 51
271.2160194469840917
  0
ARC
  5
126A9
  8
0
 10
17.6547496713414986
 20
14.6015347960963897
 30
0.0
 40
0.1155835818891502
 50
84.3525437387897341
 51
105.3439865278679974
  0
ARC
  5
126AA
  8
0
 10
17.6356010707327187
 20
14.6656107076114797
 30
0.0
 40
0.0487481205416238
 50
103.5681218003260966
 51
129.4713405021450967
  0
ARC
  5
126AB
  8
0
 10
18.2184036781955001
 20
14.6743159861208294
 30
0.0
 40
0.3426697827584999
 50
249.0664778441444867
 51
268.594919214683614
  0
ARC
  5
126AC
  8
0
 10
18.215933035777649
 20
14.4912745390157607
 30
0.0
 40
0.1596355514784098
 50
267.8704533705003996
 51
281.0750517837490747
  0
ARC
  5
126AD
  8
0
 10
18.2381706225842208
 20
14.3781396413247293
 30
0.0
 40
0.0443360040566253
 50
280.9576680311436121
 51
298.5578996914587719
  0
ARC
  5
126AE
  8
0
 10
18.2535326816887391
 20
14.3507643186747202
 30
0.0
 40
0.0129539091446145
 50
296.7603150216255017
 51
333.141459125332517
  0
ARC
  5
126AF
  8
0
 10
18.2579137963557514
 20
14.3479777381693303
 30
0.0
 40
0.0078029265007041
 50
336.8642381842406053
 51
20.2553717294452404
  0
ARC
  5
126B0
  8
0
 10
18.2473156569631101
 20
14.3432672207683005
 30
0.0
 40
0.0193909827228323
 50
22.4722482449655807
 51
46.5328787617252289
  0
ARC
  5
126B1
  8
0
 10
18.2048227517962005
 20
14.2913028509093696
 30
0.0
 40
0.0864770202738313
 50
49.7866003914497668
 51
66.7406248480867959
  0
ARC
  5
126B2
  8
0
 10
18.1358050195044598
 20
14.1277199510776601
 30
0.0
 40
0.2640223638990972
 50
66.9987625289321329
 51
77.284886242943486
  0
ARC
  5
126B3
  8
0
 10
18.1139170568831105
 20
14.0452222887247107
 30
0.0
 40
0.3493291085435668
 50
76.7611464864862114
 51
90.0584590521959854
  0
ARC
  5
126B4
  8
0
 10
18.1133069468537506
 20
14.2557219309867609
 30
0.0
 40
0.1388295162402848
 50
89.895301135175103
 51
102.9181263294258031
  0
ARC
  5
126B5
  8
0
 10
18.0914254358208311
 20
14.3520450866614606
 30
0.0
 40
0.0400529829492255
 50
103.2130357043646001
 51
119.2420775565444018
  0
ARC
  5
126B6
  8
0
 10
18.1340037759878214
 20
14.4497251822185397
 30
0.0
 40
0.1027579073672758
 50
234.7324489478575913
 51
248.2782132569236069
  0
ARC
  5
126B7
  8
0
 10
18.0870859371916595
 20
14.3850592093443801
 30
0.0
 40
0.022890796983915
 50
204.7177897543579093
 51
237.1584109044221975
  0
ARC
  5
126B8
  8
0
 10
18.0734295578981801
 20
14.3784135688828698
 30
0.0
 40
0.007713675148699
 50
158.0348825085519024
 51
202.2929752578536977
  0
ARC
  5
126B9
  8
0
 10
18.0775996140023416
 20
14.3757811707622807
 30
0.0
 40
0.0125965459086557
 50
117.1091556716224034
 51
154.0218873260851069
  0
ARC
  5
126BA
  8
0
 10
18.2210912518407895
 20
14.7344453098080805
 30
0.0
 40
0.356498006800384
 50
252.4444482961093001
 51
269.8289009956442897
  0
ARC
  5
126BB
  8
0
 10
18.0301242139726092
 20
14.4016137377906794
 30
0.0
 40
0.1350986106813457
 50
49.0782958234243978
 51
67.9140788592768416
  0
ARC
  5
126BC
  8
0
 10
18.0880432228777792
 20
14.4664952871275396
 30
0.0
 40
0.0481518547293094
 50
21.4094249050314609
 51
50.5833836068537934
  0
ARC
  5
126BD
  8
0
 10
18.1160652146331813
 20
14.4779214456785006
 30
0.0
 40
0.0178972789905386
 50
321.3038893912171261
 51
20.1004648265010211
  0
ARC
  5
126BE
  8
0
 10
18.1011300460981985
 20
14.4932456830025291
 30
0.0
 40
0.0392221221248577
 50
282.3877865774636007
 51
317.4695805305714771
  0
ARC
  5
126BF
  8
0
 10
18.0780649962071003
 20
14.5873908559242391
 30
0.0
 40
0.136143451773241
 50
265.2207543767690936
 51
283.3689825425341269
  0
ARC
  5
126C0
  8
0
 10
18.0850129369528112
 20
14.6949749000618795
 30
0.0
 40
0.2439408464406059
 50
250.2590752690695126
 51
265.6998554372523813
  0
ARC
  5
126C1
  8
0
 10
18.0546140498850001
 20
14.6229113937349098
 30
0.0
 40
0.1658997882825262
 50
231.2168434318325012
 51
251.7344976725561025
  0
ARC
  5
126C2
  8
0
 10
17.9816213021622389
 20
14.5332599371978404
 30
0.0
 40
0.0502991880321243
 50
202.458540202172486
 51
232.0644329973380025
  0
ARC
  5
126C3
  8
0
 10
17.9525755635531787
 20
14.5206943445676604
 30
0.0
 40
0.0186632990914863
 50
157.3133613397017996
 51
200.8721811858800947
  0
ARC
  5
126C4
  8
0
 10
17.95872917477163
 20
14.5159816404267605
 30
0.0
 40
0.0262328682678331
 50
109.2634505895356938
 51
152.9963334732044871
  0
ARC
  5
126C5
  8
0
 10
18.1170779535245785
 20
14.65407506546617
 30
0.0
 40
0.0514766648709971
 50
183.8319214144524949
 51
225.9395933855302019
  0
ARC
  5
126C6
  8
0
 10
18.1780845242242286
 20
14.7160244351455294
 30
0.0
 40
0.1384209674648977
 50
225.6253638083242095
 51
256.9765917812442808
  0
ARC
  5
126C7
  8
0
 10
18.1892997647082595
 20
14.7328331275642501
 30
0.0
 40
0.1574865414906871
 50
254.3784568306246001
 51
281.740915613968923
  0
ARC
  5
126C8
  8
0
 10
18.2091271752692592
 20
14.6444487801346099
 30
0.0
 40
0.066932008350915
 50
280.5187950548780123
 51
315.2215801364371259
  0
ARC
  5
126C9
  8
0
 10
18.2320995058144
 20
14.6202828241850096
 30
0.0
 40
0.0336178009976212
 50
316.879983933807182
 51
359.575513847010825
  0
ARC
  5
126CA
  8
0
 10
18.2198326464317688
 20
14.6181796681031209
 30
0.0
 40
0.0459211831195689
 50
2.3139798155286941
 51
38.9193983029479398
  0
ARC
  5
126CB
  8
0
 10
18.1565512070101214
 20
14.5610432268831307
 30
0.0
 40
0.131134910691339
 50
40.9728559052363224
 51
74.3099342104650731
  0
ARC
  5
126CC
  8
0
 10
18.1404085127646795
 20
14.5260791906304991
 30
0.0
 40
0.1692711002936293
 50
72.2495539045824984
 51
95.1744065688816505
  0
ARC
  5
126CD
  8
0
 10
18.1332411661855986
 20
14.5969846613837095
 30
0.0
 40
0.0980109968548418
 50
94.7398595458013375
 51
115.5492673465549984
  0
ARC
  5
126CE
  8
0
 10
18.1124873041621903
 20
14.6395012979174606
 30
0.0
 40
0.0507024690117664
 50
115.1112983282093012
 51
141.6739403206449026
  0
ARC
  5
126CF
  8
0
 10
18.0988438791541704
 20
14.6505836287680893
 30
0.0
 40
0.033127548415441
 50
142.0773593098867025
 51
179.9113405385643034
  0
ARC
  5
126D0
  8
0
 10
18.1674123742413904
 20
14.7433991287495303
 30
0.0
 40
0.1172835345865134
 50
217.1967261732368115
 51
252.4362452559088013
  0
ARC
  5
126D1
  8
0
 10
18.1930540426892513
 20
14.8000132807356106
 30
0.0
 40
0.1791475737628106
 50
250.0810262216537865
 51
267.4896980191675766
  0
ARC
  5
126D2
  8
0
 10
18.1923841372768003
 20
14.7468656846475294
 30
0.0
 40
0.1260325523795335
 50
266.7356812373113826
 51
286.7567627091976874
  0
ARC
  5
126D3
  8
0
 10
18.2120443857156715
 20
14.6859306228790008
 30
0.0
 40
0.0620294664977774
 50
285.5953528906090924
 51
317.5105613970476952
  0
ARC
  5
126D4
  8
0
 10
18.2067254772673515
 20
14.4979706535304391
 30
0.0
 40
0.1639758113407494
 50
76.267537102233149
 51
94.1587661219527661
  0
ARC
  5
126D5
  8
0
 10
18.2017178719956902
 20
14.5306435355461208
 30
0.0
 40
0.1310520973175897
 50
93.0110573291211153
 51
109.8838393920731988
  0
ARC
  5
126D6
  8
0
 10
18.1723931672590915
 20
14.6069529662026394
 30
0.0
 40
0.0493448539043581
 50
107.999502088974296
 51
138.252010201294496
  0
ARC
  5
126D7
  8
0
 10
18.148769949727459
 20
14.6292215245957795
 30
0.0
 40
0.0169155248909841
 50
141.2493075623015102
 51
171.9745648416742085
  0
ARC
  5
126D8
  8
0
 10
18.2042106342014414
 20
14.5606022435903206
 30
0.0
 40
0.097513164471194
 50
88.5074588353724039
 51
112.2643626480621037
  0
ARC
  5
126D9
  8
0
 10
18.2090241172700189
 20
14.5567710701670006
 30
0.0
 40
0.1013367620550457
 50
69.6062734044995182
 51
91.2855871949105051
  0
ARC
  5
126DA
  8
0
 10
18.2352488902242804
 20
14.6283837503588892
 30
0.0
 40
0.0250770089204013
 50
33.6570551227403385
 51
68.7521378623750081
  0
ARC
  5
126DB
  8
0
 10
18.16844288129505
 20
14.6363420321242703
 30
0.0
 40
0.0125715400633287
 50
133.2665650036857983
 51
170.3569131051166039
  0
ARC
  5
126DC
  8
0
 10
18.1667434139790203
 20
14.6373261382473991
 30
0.0
 40
0.0107531115189008
 50
174.012062340328896
 51
218.3964295296069054
  0
ARC
  5
126DD
  8
0
 10
18.1804502043442007
 20
14.6490245174081792
 30
0.0
 40
0.0287688750848998
 50
219.7012782088326901
 51
247.6292642004785023
  0
ARC
  5
126DE
  8
0
 10
18.4578378836386001
 20
14.1960665951604792
 30
0.0
 40
0.021422597772807
 50
191.4361441761332969
 51
228.9517865979281908
  0
ARC
  5
126DF
  8
0
 10
18.4707921131444017
 20
14.2128974069013605
 30
0.0
 40
0.0426419502309298
 50
230.67616899186919
 51
256.8928716634213743
  0
ARC
  5
126E0
  8
0
 10
18.4834399631527013
 20
14.26140679419583
 30
0.0
 40
0.0927651036782905
 50
256.0789436576278035
 51
270.2930388164623992
  0
ARC
  5
126E1
  8
0
 10
18.4832418422533884
 20
14.2088588513034306
 30
0.0
 40
0.0331391405296218
 50
251.0140345855643034
 51
271.1629087038771218
  0
ARC
  5
126E2
  8
0
 10
18.4831573631131505
 20
14.1548073644771595
 30
0.0
 40
0.032378774604063
 50
88.6602519482616174
 51
109.8904322517924044
  0
ARC
  5
126E3
  8
0
 10
18.4752647962600314
 20
14.1860591591857901
 30
0.0
 40
0.008985442578934
 50
225.3723970938987975
 51
251.8143647325885865
  0
ARC
  5
126E4
  8
0
 10
18.4752993672000194
 20
14.1766437377823706
 30
0.0
 40
0.0091716711533485
 50
110.1403103625789015
 51
131.6290079666059114
  0
ARC
  5
126E5
  8
0
 10
18.4706475407151594
 20
14.1814779083476008
 30
0.0
 40
0.0024823434611951
 50
125.484516640283104
 51
226.935971691027305
  0
ARC
  5
126E6
  8
0
 10
18.2500893659503092
 20
14.2109589244493808
 30
0.0
 40
0.0199456295710367
 50
189.9206991519752137
 51
230.269326201745713
  0
ARC
  5
126E7
  8
0
 10
18.2615980351647487
 20
14.2260641385031708
 30
0.0
 40
0.0389268205556505
 50
231.4529777357500961
 51
253.9789240679388058
  0
ARC
  5
126E8
  8
0
 10
18.2790142353419505
 20
14.2863327485494498
 30
0.0
 40
0.101661380962393
 50
253.9190876522119993
 51
268.3278808132099016
  0
ARC
  5
126E9
  8
0
 10
18.2811759272390191
 20
14.2105150481162603
 30
0.0
 40
0.0255202934149601
 50
192.8936653724456107
 51
241.0931821303992137
  0
ARC
  5
126EA
  8
0
 10
18.2985103793075687
 20
14.2407515220360992
 30
0.0
 40
0.0603713419584563
 50
240.5628459507190939
 51
263.0464370212797007
  0
ARC
  5
126EB
  8
0
 10
18.3032261002863414
 20
14.2661789655714397
 30
0.0
 40
0.0861975649591046
 50
261.9810794633909268
 51
284.3108345049051877
  0
ARC
  5
126EC
  8
0
 10
18.3131901765532312
 20
14.2283806099979397
 30
0.0
 40
0.0471102189569243
 50
283.931620059979025
 51
304.9680652142939152
  0
ARC
  5
126ED
  8
0
 10
18.3262202585378908
 20
14.2101483372061299
 30
0.0
 40
0.0247026482119991
 50
304.4380563914791082
 51
347.5443854219532227
  0
ARC
  5
126EE
  8
0
 10
18.3033208417191418
 20
14.1802975493401409
 30
0.0
 40
0.0217143087822821
 50
43.6982731784133875
 51
136.3058810201139011
  0
ARC
  5
126EF
  8
0
 10
18.3033197541376502
 20
14.2102979541214705
 30
0.0
 40
0.021713218234573
 50
223.6952613709842126
 51
316.3088928275328158
  0
ARC
  5
126F0
  8
0
 10
18.0776961358624213
 20
14.22677790336874
 30
0.0
 40
0.0241411963887848
 50
191.7525108613625946
 51
243.8121825101553952
  0
ARC
  5
126F1
  8
0
 10
18.1020429800082603
 20
14.2793034924485998
 30
0.0
 40
0.0820306051549857
 50
244.7430295320127982
 51
273.4611917311472098
  0
ARC
  5
126F2
  8
0
 10
18.1062704245960013
 20
14.2666844633466798
 30
0.0
 40
0.0692657394210797
 50
270.5996763159444072
 51
293.4986307980356059
  0
ARC
  5
126F3
  8
0
 10
18.1247795697531693
 20
14.22555990479378
 30
0.0
 40
0.0241784366299381
 50
292.1319008552662808
 51
345.3524511064462104
  0
ARC
  5
126F4
  8
0
 10
18.1003790184581703
 20
14.1918907173326492
 30
0.0
 40
0.0242578998431724
 50
48.0472432375356107
 51
129.0157911152651877
  0
ARC
  5
126F5
  8
0
 10
18.1013268056858507
 20
14.2288624244705808
 30
0.0
 40
0.0243214715768054
 50
228.174958187709592
 51
308.8880761650900126
  0
ARC
  5
126F6
  8
0
 10
17.9408009584112698
 20
14.2629305676561504
 30
0.0
 40
0.0244850075536476
 50
192.466085533325213
 51
230.5599337781997065
  0
ARC
  5
126F7
  8
0
 10
17.95869969593695
 20
14.2899235354350402
 30
0.0
 40
0.0567993333276708
 50
233.9157469188247092
 51
266.8163230675165778
  0
ARC
  5
126F8
  8
0
 10
17.9640650863480005
 20
14.3148485248481201
 30
0.0
 40
0.082080035734518
 50
264.0420009467179057
 51
287.2356107244589225
  0
ARC
  5
126F9
  8
0
 10
17.9773159989117595
 20
14.2741813423984905
 30
0.0
 40
0.0393174420077033
 50
286.3523063866890084
 51
312.6289476864188259
  0
ARC
  5
126FA
  8
0
 10
17.987847953820161
 20
14.2625036125545197
 30
0.0
 40
0.0235932916410986
 50
313.0169680049555154
 51
348.1164180192049002
  0
ARC
  5
126FB
  8
0
 10
17.9639150283146591
 20
14.2331393118044502
 30
0.0
 40
0.0217026176038359
 50
43.6661607924639696
 51
136.3386240262811953
  0
ARC
  5
126FC
  8
0
 10
17.9639137763006111
 20
14.2631237789993595
 30
0.0
 40
0.021713946236954
 50
223.6974721112046893
 51
316.3073127075605271
  0
ARC
  5
126FD
  8
0
 10
17.8628195853925718
 20
14.2725519922220805
 30
0.0
 40
0.0203020547700061
 50
187.3510511000667123
 51
226.3164153369872054
  0
ARC
  5
126FE
  8
0
 10
17.8757511343087501
 20
14.2877371148716694
 30
0.0
 40
0.0402309571430316
 50
227.9349794235531022
 51
252.8347861866785138
  0
ARC
  5
126FF
  8
0
 10
17.8943973432092207
 20
14.3435230633644704
 30
0.0
 40
0.0990443145249863
 50
252.0528404549203003
 51
285.7315154037794969
  0
ARC
  5
12700
  8
0
 10
17.8873973023473809
 20
14.2342073905560902
 30
0.0
 40
0.0266650726533392
 50
50.4502889493018998
 51
121.530887299842405
  0
ARC
  5
12701
  8
0
 10
17.8904324329350786
 20
14.2775095584962006
 30
0.0
 40
0.026675896567065
 50
230.4668946404175927
 51
301.5142816087737856
  0
ARC
  5
12702
  8
0
 10
17.7404716067699084
 20
14.3099111392824891
 30
0.0
 40
0.0233312947923482
 50
189.7605710822556091
 51
233.5488372754574016
  0
ARC
  5
12703
  8
0
 10
17.7622021352899502
 20
14.3450461113102392
 30
0.0
 40
0.0645928280955416
 50
236.5623630058638014
 51
264.9985468281187195
  0
ARC
  5
12704
  8
0
 10
17.7678875144524717
 20
14.3669795010150096
 30
0.0
 40
0.0870192690209705
 50
262.5276570607019835
 51
285.3404402517538188
  0
ARC
  5
12705
  8
0
 10
17.7814737956659883
 20
14.3176200412844405
 30
0.0
 40
0.0358241657092354
 50
285.2700957795254908
 51
309.9622634772210859
  0
ARC
  5
12706
  8
0
 10
17.7903680967419788
 20
14.3067744177099598
 30
0.0
 40
0.021799196103864
 50
310.3532721119682947
 51
345.7175471056390279
  0
ARC
  5
12707
  8
0
 10
17.7631291068032588
 20
14.27568589643613
 30
0.0
 40
0.0237931510515165
 50
45.7800077460014876
 51
128.6718235406436008
  0
ARC
  5
12708
  8
0
 10
17.764854648371049
 20
14.3112972803897396
 30
0.0
 40
0.0237806947724663
 50
225.7535009454786916
 51
308.6983303411636257
  0
ARC
  5
12709
  8
0
 10
17.664527246435231
 20
14.36238926158242
 30
0.0
 40
0.0249269153704539
 50
192.666607474407698
 51
235.4152058555442011
  0
ARC
  5
1270A
  8
0
 10
17.7106912784224697
 20
14.3620023116744999
 30
0.0
 40
0.024099372288251
 50
309.757531522701413
 51
347.8336388076289722
  0
ARC
  5
1270B
  8
0
 10
17.6813829161187606
 20
14.3889670297130294
 30
0.0
 40
0.0563887171657887
 50
236.6439088352626072
 51
263.5510949168929073
  0
ARC
  5
1270C
  8
0
 10
17.6871120114838014
 20
14.4153004755612493
 30
0.0
 40
0.0832439578596759
 50
261.6681883787451284
 51
288.2646328367846991
  0
ARC
  5
1270D
  8
0
 10
17.6999973719371084
 20
14.3749622093240195
 30
0.0
 40
0.0409016313732295
 50
288.83349222158472
 51
309.6631863073229169
  0
ARC
  5
1270E
  8
0
 10
17.6872289965708589
 20
14.3324419024146099
 30
0.0
 40
0.0216858244105057
 50
43.6200048864406114
 51
136.3862359349182043
  0
ARC
  5
1270F
  8
0
 10
17.6872273649123599
 20
14.3624015595473207
 30
0.0
 40
0.0217137589862437
 50
223.6973082795892083
 51
316.3089326383176854
  0
ARC
  5
12710
  8
0
 10
17.5493511623899394
 20
14.3876838808632499
 30
0.0
 40
0.0228533439533066
 50
186.6675051129143981
 51
233.6259620860026018
  0
ARC
  5
12711
  8
0
 10
17.5727235763311
 20
14.4228580202606
 30
0.0
 40
0.0650673882689331
 50
235.4239869889613885
 51
261.2987223329557196
  0
ARC
  5
12712
  8
0
 10
17.5811898487963809
 20
14.4480056463506497
 30
0.0
 40
0.0913205219870055
 50
258.4337440711473164
 51
281.9281200944515717
  0
ARC
  5
12713
  8
0
 10
17.5963089834249296
 20
14.3840436115165708
 30
0.0
 40
0.0256629241283639
 50
278.4146135382993066
 51
339.0255398588412277
  0
ARC
  5
12714
  8
0
 10
17.5701971959115291
 20
14.3499325752491096
 30
0.0
 40
0.0250128164822316
 50
45.4960213993842828
 51
122.0798288612428024
  0
ARC
  5
12715
  8
0
 10
17.5744465853440488
 20
14.3889722391010295
 30
0.0
 40
0.025018260807564
 50
225.5058647945386952
 51
302.0699854660891788
  0
ARC
  5
12716
  8
0
 10
17.49152099696175
 20
14.4376993279927603
 30
0.0
 40
0.0241381740675522
 50
188.9064730037079016
 51
235.7670845939823039
  0
ARC
  5
12717
  8
0
 10
17.5131598822585985
 20
14.4713513285908508
 30
0.0
 40
0.064141806095986
 50
236.6971106729218945
 51
264.6277016739305168
  0
ARC
  5
12718
  8
0
 10
17.5189944414346392
 20
14.4931430145562707
 30
0.0
 40
0.0864662082078947
 50
262.1296665464299736
 51
282.711234007417886
  0
ARC
  5
12719
  8
0
 10
17.534264721361069
 20
14.4375561145341393
 30
0.0
 40
0.0290043077850092
 50
277.4396407843589145
 51
340.2902521464890242
  0
ARC
  5
1271A
  8
0
 10
17.512861506730129
 20
14.4041390735397403
 30
0.0
 40
0.0230379196473816
 50
43.1043956369408292
 51
129.3628499702656995
  0
ARC
  5
1271B
  8
0
 10
17.5150613171385885
 20
14.4375553370421397
 30
0.0
 40
0.0229372661517722
 50
222.8684189839912904
 51
309.5988266231963166
  0
ARC
  5
1271C
  8
0
 10
17.5290523463840984
 20
14.4963000116525507
 30
0.0
 40
0.0252365481717564
 50
303.1641114800077048
 51
347.1337542216019756
  0
ARC
  5
1271D
  8
0
 10
17.4834724748839108
 20
14.4959410736511494
 30
0.0
 40
0.024432647616137
 50
192.4338057078547877
 51
230.2382590038170918
  0
ARC
  5
1271E
  8
0
 10
17.5002559962435917
 20
14.5205303770305001
 30
0.0
 40
0.0541431711739492
 50
233.2297019778816889
 51
263.6363774886544888
  0
ARC
  5
1271F
  8
0
 10
17.5065406300450306
 20
14.5400308064513997
 30
0.0
 40
0.0743323305746767
 50
260.4864174549417726
 51
299.2471169095456958
  0
ARC
  5
12720
  8
0
 10
17.5051005066961807
 20
14.6306292726735592
 30
0.0
 40
0.1083979920779061
 50
221.9090343159139991
 51
239.7883079913542872
  0
ARC
  5
12721
  8
0
 10
17.4737110854443891
 20
13.9368697788843008
 30
0.0
 40
0.5391303181322769
 50
59.984224632795673
 51
74.1555424816019979
  0
ARC
  5
12722
  8
0
 10
18.3063178737015697
 20
15.87073867981732
 30
0.0
 40
1.5795757199729969
 50
249.0601639138735948
 51
252.3360242621465943
  0
ARC
  5
12723
  8
0
 10
17.8319448090633088
 20
14.3643495335667204
 30
0.0
 40
0.0050892527822149
 50
75.728140745732361
 51
165.3568947305350889
  0
ARC
  5
12724
  8
0
 10
17.5170629013086909
 20
14.4338308481895901
 30
0.0
 40
0.078008305012486
 50
40.4713450508224994
 51
60.240508329314423
  0
ARC
  5
12725
  8
0
 10
17.5066345259865486
 20
14.46616546162943
 30
0.0
 40
0.0217090172621287
 50
43.6825664880593791
 51
136.3208647076831994
  0
ARC
  5
12726
  8
0
 10
17.5066336293239111
 20
14.4961112823452201
 30
0.0
 40
0.0216811053892829
 50
223.6052731255985009
 51
316.3981580701703251
  0
ARC
  5
12727
  8
0
 10
17.3433271711055603
 20
14.5406661014496894
 30
0.0
 40
0.0229863203836228
 50
184.4905362300993943
 51
225.5228375802589085
  0
ARC
  5
12728
  8
0
 10
17.3662507729427489
 20
14.5686661908335395
 30
0.0
 40
0.0591160692952065
 50
228.6849218171180098
 51
260.2369205281167979
  0
ARC
  5
12729
  8
0
 10
17.37564760536997
 20
14.5938922937062294
 30
0.0
 40
0.0857152614711844
 50
256.9041636465261718
 51
281.4803275358282235
  0
ARC
  5
1272A
  8
0
 10
17.3885331712076514
 20
14.5368886637984893
 30
0.0
 40
0.0273175745560974
 50
278.7899535170776062
 51
336.9751214995247892
  0
ARC
  5
1272B
  8
0
 10
17.3633613017927892
 20
14.5054508691787003
 30
0.0
 40
0.0231566935737579
 50
40.2362969517316387
 51
124.2711142001913061
  0
ARC
  5
1272C
  8
0
 10
17.3680041853731311
 20
14.5395826529299601
 30
0.0
 40
0.0231849253226423
 50
220.299123488574395
 51
304.2082876633623982
  0
ARC
  5
1272D
  8
0
 10
17.359131831984989
 20
14.5939709843532306
 30
0.0
 40
0.0246232038262869
 50
188.2594313217751107
 51
233.9561523482163921
  0
ARC
  5
1272E
  8
0
 10
17.3834901232812591
 20
14.6325733994579501
 30
0.0
 40
0.0702332568569219
 50
236.4193933321110137
 51
266.7153815561708257
  0
ARC
  5
1272F
  8
0
 10
17.3873604442392207
 20
14.6296228368209995
 30
0.0
 40
0.0676296546155553
 50
263.2965838127601046
 51
293.9057840735079026
  0
ARC
  5
12730
  8
0
 10
17.4044540696527292
 20
14.5908425735055705
 30
0.0
 40
0.025249468490633
 50
294.105157835323098
 51
342.6883228808055719
  0
ARC
  5
12731
  8
0
 10
17.4284304353150183
 20
14.5834289694375894
 30
0.0
 40
0.0042690670467559
 50
348.8815907882242868
 51
30.5940286959645107
  0
ARC
  5
12732
  8
0
 10
17.7267466003172487
 20
15.0362621049451608
 30
0.0
 40
0.571672474366075
 50
217.8655821451012002
 51
223.9166769122782057
  0
ARC
  5
12733
  8
0
 10
17.2717888936281305
 20
14.7141773660416906
 30
0.0
 40
0.0230333919872509
 50
183.2307899490091074
 51
215.7066060680946009
  0
ARC
  5
12734
  8
0
 10
17.3189105277901909
 20
14.7079324735040604
 30
0.0
 40
0.024549185571652
 50
300.2214641674834184
 51
339.0278054946612087
  0
ARC
  5
12735
  8
0
 10
17.3077220672394105
 20
14.7298262811677905
 30
0.0
 40
0.0491175854144939
 50
272.004542268567775
 51
298.643786885530119
  0
ARC
  5
12736
  8
0
 10
17.3046136051530084
 20
14.7695686149179704
 30
0.0
 40
0.0889608891693099
 50
254.0745141700141119
 51
273.1100835551384876
  0
ARC
  5
12737
  8
0
 10
17.2911930607811009
 20
14.7322123738018398
 30
0.0
 40
0.0494273613417991
 50
219.5577560115050062
 51
257.1541010375729002
  0
ARC
  5
12738
  8
0
 10
17.2918630023755213
 20
14.6812873033883893
 30
0.0
 40
0.0219729030808954
 50
37.5729068959143717
 51
127.1966836036128967
  0
ARC
  5
12739
  8
0
 10
17.2958273240810705
 20
14.7109384879977902
 30
0.0
 40
0.0210969041032127
 50
215.1581461004471976
 51
309.6114443991023109
  0
ARC
  5
1273A
  8
0
 10
17.1884100524784991
 20
14.6413943105207203
 30
0.0
 40
0.211631555863415
 50
48.098766747195377
 51
64.8174600777860945
  0
ARC
  5
1273B
  8
0
 10
17.2463636851248303
 20
14.7650024361132601
 30
0.0
 40
0.0751122212741417
 50
64.7029151837792256
 51
81.8127128087646724
  0
ARC
  5
1273C
  8
0
 10
17.2545044251587605
 20
14.8201949757393194
 30
0.0
 40
0.0193239076237068
 50
82.3993122285055932
 51
109.4726556265612061
  0
ARC
  5
1273D
  8
0
 10
17.2510053200139701
 20
14.8312644531129099
 30
0.0
 40
0.0077310459878259
 50
112.3725967942501001
 51
177.3924212123150994
  0
ARC
  5
1273E
  8
0
 10
17.3159475208717595
 20
14.6299060964989192
 30
0.0
 40
0.02896823737767
 50
67.5461528946799348
 51
88.0905110640339046
  0
ARC
  5
1273F
  8
0
 10
17.3167899056638817
 20
14.6553154565806594
 30
0.0
 40
0.0035449211452794
 50
88.0138891139131943
 51
127.1997211498834019
  0
ARC
  5
12740
  8
0
 10
17.3159405605697394
 20
14.6567219037250709
 30
0.0
 40
0.001919016273951
 50
132.3959608159763093
 51
186.617882547583207
  0
ARC
  5
12741
  8
0
 10
17.379903659652431
 20
14.5612026705665603
 30
0.0
 40
0.0226012865039761
 50
42.6865663276753295
 51
130.501153658787814
  0
ARC
  5
12742
  8
0
 10
17.3817465110732883
 20
14.5921653418538408
 30
0.0
 40
0.0215119154147507
 50
219.8236751650757128
 51
313.3640448213765808
  0
ARC
  5
12743
  8
0
 10
17.4228818284063891
 20
14.4138295489568709
 30
0.0
 40
0.1822432525126369
 50
40.374181516250971
 51
84.8864633548064518
  0
ARC
  5
12744
  8
0
 10
17.381716562596921
 20
14.6286085371143297
 30
0.0
 40
0.128250415070829
 50
24.3853053964602715
 51
68.7658558522418417
  0
ARC
  5
12745
  8
0
 10
17.4228371074627795
 20
14.6490033467483105
 30
0.0
 40
0.026679084096234
 50
193.4819756227342964
 51
247.8646267633556022
  0
ARC
  5
12746
  8
0
 10
17.4431893932191997
 20
14.6935756634446708
 30
0.0
 40
0.0756628967112921
 50
246.3063425428948108
 51
273.0745847349894007
  0
ARC
  5
12747
  8
0
 10
17.4463845839268288
 20
14.6857535219972402
 30
0.0
 40
0.0677373414942912
 50
270.7300368054609976
 51
297.0641858464070992
  0
ARC
  5
12748
  8
0
 10
17.4653666794511118
 20
14.6489109862284597
 30
0.0
 40
0.0262929030584029
 50
296.7578392363951139
 51
346.5232377004205091
  0
ARC
  5
12749
  8
0
 10
17.4439144027000985
 20
14.6182593987284104
 30
0.0
 40
0.0217153069924832
 50
43.6979129351365074
 51
136.3020870648635139
  0
ARC
  5
1274A
  8
0
 10
17.4439144027000985
 20
14.6482637022170898
 30
0.0
 40
0.0217153069548559
 50
223.6979128312331113
 51
316.3020871687371027
  0
ARC
  5
1274B
  8
0
 10
17.2722153145882587
 20
14.5144100649087306
 30
0.0
 40
0.2099916047423596
 50
56.6398166892832293
 51
69.4227884729197058
  0
ARC
  5
1274C
  8
0
 10
17.379801773328829
 20
14.7290463472192492
 30
0.0
 40
0.0214363629186162
 50
38.2721319567091882
 51
132.8312224826817953
  0
ARC
  5
1274D
  8
0
 10
17.3820524139682604
 20
14.7579770295268702
 30
0.0
 40
0.0213904872393325
 50
218.138894645364303
 51
312.9644597940026074
  0
ARC
  5
1274E
  8
0
 10
17.3612398517370785
 20
14.7608771526329008
 30
0.0
 40
0.026830239787733
 50
189.4233236874372892
 51
236.2409023127366936
  0
ARC
  5
1274F
  8
0
 10
17.3862707993580408
 20
14.8054793852298303
 30
0.0
 40
0.0779229271212197
 50
239.1651592619290057
 51
281.5209304841869198
  0
ARC
  5
12750
  8
0
 10
17.3950230240102393
 20
14.7698961413999506
 30
0.0
 40
0.0413346867313567
 50
279.4842744382002024
 51
308.3777597533850781
  0
ARC
  5
12751
  8
0
 10
17.4055411294971201
 20
14.7561024562880601
 30
0.0
 40
0.02399335352247
 50
309.1376732343105118
 51
337.2683571885090146
  0
ARC
  5
12752
  8
0
 10
17.4106817838087409
 20
14.8033793870314394
 30
0.0
 40
0.0320216228099347
 50
353.1674924077801734
 51
34.1072645997921882
  0
ARC
  5
12753
  8
0
 10
17.3165502037422812
 20
14.7447886123351299
 30
0.0
 40
0.1428798375785327
 50
32.3942351039619183
 51
53.3331215716562284
  0
ARC
  5
12754
  8
0
 10
17.3375523257704991
 20
14.8749034324829097
 30
0.0
 40
0.0166906491793547
 50
162.1770114622923131
 51
188.0795184266845865
  0
ARC
  5
12755
  8
0
 10
17.3471288594691906
 20
14.8884173297412907
 30
0.0
 40
0.0268174005705289
 50
185.1042803195248041
 51
229.0631227325094983
  0
ARC
  5
12756
  8
0
 10
17.373949826380791
 20
14.9262991485077503
 30
0.0
 40
0.0731506146124655
 50
232.6369244539534122
 51
269.5634453427794028
  0
ARC
  5
12757
  8
0
 10
17.3767769482442382
 20
14.9057804831750804
 30
0.0
 40
0.0527385366164569
 50
266.3205381396671783
 51
298.4146696136132277
  0
ARC
  5
12758
  8
0
 10
17.389433954981989
 20
14.8818190865859492
 30
0.0
 40
0.0256424375134539
 50
299.0176151613425759
 51
339.5082285021812254
  0
ARC
  5
12759
  8
0
 10
17.3631628630068917
 20
14.8598425317380798
 30
0.0
 40
0.0182074036025783
 50
21.3784305857386094
 51
134.7895211964890052
  0
ARC
  5
1275A
  8
0
 10
17.3684327848268296
 20
14.8848154863498205
 30
0.0
 40
0.0217425005426657
 50
213.6602965369478113
 51
302.5076552452853207
  0
ARC
  5
1275B
  8
0
 10
17.3027896052890284
 20
14.8812850677587907
 30
0.0
 40
0.1435851121825555
 50
39.2911860903355503
 51
67.4753766493517162
  0
ARC
  5
1275C
  8
0
 10
17.3445615852924711
 20
14.9124229094050502
 30
0.0
 40
0.0915680575128354
 50
20.190318653125761
 51
40.7641963148621613
  0
ARC
  5
1275D
  8
0
 10
17.400722819007111
 20
14.9325461809993403
 30
0.0
 40
0.031916383152359
 50
345.0781060685628177
 51
21.0820993672654105
  0
ARC
  5
1275E
  8
0
 10
17.3329338415191998
 20
14.9530731245850408
 30
0.0
 40
0.0657266416029449
 50
67.7753242332197487
 51
88.0238018334738115
  0
ARC
  5
1275F
  8
0
 10
17.3335581909027496
 20
14.9973513066411801
 30
0.0
 40
0.0214722569827677
 50
85.6137587687488093
 51
133.8707409796689092
  0
ARC
  5
12760
  8
0
 10
17.3329853512877889
 20
15.0002623216566899
 30
0.0
 40
0.0190444018401384
 50
138.7035725783219107
 51
186.8820478118981043
  0
ARC
  5
12761
  8
0
 10
17.4586270345389494
 20
14.9021246481559899
 30
0.0
 40
0.0196688150682662
 50
151.5390526907337119
 51
194.5497543621582111
  0
ARC
  5
12762
  8
0
 10
17.4561898545580299
 20
14.9015870774301806
 30
0.0
 40
0.0178572930101363
 50
97.6340191076686921
 51
146.2887577836683874
  0
ARC
  5
12763
  8
0
 10
17.4609154518184297
 20
14.8769942305826497
 30
0.0
 40
0.0428833478243386
 50
82.1918577852805328
 51
99.5271669678357682
  0
ARC
  5
12764
  8
0
 10
17.4846552359563212
 20
14.8006921336873898
 30
0.0
 40
0.0257065437453029
 50
193.0527618735613942
 51
241.2826466700751098
  0
ARC
  5
12765
  8
0
 10
17.5072592188280396
 20
14.8498168049150596
 30
0.0
 40
0.0797395342473662
 50
243.9998506058304883
 51
288.5271350823517196
  0
ARC
  5
12766
  8
0
 10
17.5213988838750083
 20
14.8091449532828907
 30
0.0
 40
0.0366858225839533
 50
287.7724230404584773
 51
316.8160789130761259
  0
ARC
  5
12767
  8
0
 10
17.5311691226561415
 20
14.7994802366405001
 30
0.0
 40
0.0229506103960477
 50
317.7172008361944222
 51
348.4534651553739764
  0
ARC
  5
12768
  8
0
 10
17.5066342916688917
 20
14.8003168201587396
 30
0.0
 40
0.0216808606755022
 50
223.6019783382799062
 51
316.3963768649492181
  0
ARC
  5
12769
  8
0
 10
17.5066338620386013
 20
14.7703848424850097
 30
0.0
 40
0.0216997333337018
 50
43.6542760733470203
 51
136.34407912989289
  0
ARC
  5
1276A
  8
0
 10
17.5130450742335597
 20
14.8862932415071594
 30
0.0
 40
0.0207977710773073
 50
36.8867795299752927
 51
135.3381689114295909
  0
ARC
  5
1276B
  8
0
 10
17.5148793944153987
 20
14.9132866250611702
 30
0.0
 40
0.0207263441059424
 50
216.6572876761995872
 51
315.5676605089748819
  0
ARC
  5
1276C
  8
0
 10
17.4936352079721509
 20
14.9160873957072493
 30
0.0
 40
0.0262448235566875
 50
188.8026329131529906
 51
236.2485463332643008
  0
ARC
  5
1276D
  8
0
 10
17.5183510292558786
 20
14.9578970015236301
 30
0.0
 40
0.0747875433521478
 50
238.3013652726561986
 51
275.9440661687686998
  0
ARC
  5
1276E
  8
0
 10
17.5224169969528702
 20
14.9381503631797408
 30
0.0
 40
0.0547625159749031
 50
273.8519266734604116
 51
299.0601578781838725
  0
ARC
  5
1276F
  8
0
 10
17.5366184436129515
 20
14.9130307615089102
 30
0.0
 40
0.0259080507061618
 50
298.5905529533118852
 51
343.5266921500830222
  0
ARC
  5
12770
  8
0
 10
17.4651576587107193
 20
14.8059573253160597
 30
0.0
 40
0.1043564371828517
 50
28.9214868478699607
 51
48.8857145490549385
  0
ARC
  5
12771
  8
0
 10
17.5266864624563787
 20
14.8382328093376792
 30
0.0
 40
0.0349250154609958
 50
353.9032177432688968
 51
31.3925664649834495
  0
ARC
  5
12772
  8
0
 10
17.5366824249558704
 20
14.96552607451369
 30
0.0
 40
0.0396402317349627
 50
348.2544321924880251
 51
20.8166273288317214
  0
ARC
  5
12773
  8
0
 10
17.4876562660911112
 20
14.9475808222172493
 30
0.0
 40
0.091845734737253
 50
20.41176246248288
 51
41.6420140331927797
  0
ARC
  5
12774
  8
0
 10
17.4812156716020617
 20
15.0258926189975206
 30
0.0
 40
0.0280256750181637
 50
154.7266353213636023
 51
189.7266831619791958
  0
ARC
  5
12775
  8
0
 10
17.4755570499246389
 20
15.02747569933282
 30
0.0
 40
0.0222545931078601
 50
103.0725039928104962
 51
152.1915962384611873
  0
ARC
  5
12776
  8
0
 10
17.4812639034216701
 20
15.0023944123052502
 30
0.0
 40
0.0479768228880047
 50
77.8673355269726102
 51
102.9363314760742014
  0
ARC
  5
12777
  8
0
 10
17.4682474597843793
 20
14.94548201697412
 30
0.0
 40
0.1063564870113762
 50
56.2432347912391606
 51
77.4557082456297366
  0
ARC
  5
12778
  8
0
 10
17.555843821858609
 20
15.0411839408731698
 30
0.0
 40
0.0294117946617697
 50
187.4207310331032943
 51
233.6174114285408052
  0
ARC
  5
12779
  8
0
 10
17.5789117676363311
 20
15.0765643653002108
 30
0.0
 40
0.0716197095370585
 50
235.5500596284805965
 51
272.5257048908670185
  0
ARC
  5
1277A
  8
0
 10
17.5827625385404609
 20
15.0538469714916499
 30
0.0
 40
0.0488376815559444
 50
269.1850024420032241
 51
303.2687526551715109
  0
ARC
  5
1277B
  8
0
 10
17.5949948619686403
 20
15.0349822174070997
 30
0.0
 40
0.026354765192458
 50
303.5319248881236831
 51
340.9895562079328215
  0
ARC
  5
1277C
  8
0
 10
17.573681577860949
 20
15.0351378851153505
 30
0.0
 40
0.0193535092684733
 50
210.0459528185423892
 51
316.4750593891379822
  0
ARC
  5
1277D
  8
0
 10
17.5709608528891295
 20
15.0121144278615493
 30
0.0
 40
0.0193565710192682
 50
30.0580720626516182
 51
136.4629401450069963
  0
ARC
  5
1277E
  8
0
 10
17.5529043225551504
 20
15.1440214270440396
 30
0.0
 40
0.0351721328443519
 50
150.0597031220030999
 51
186.9028233146129878
  0
ARC
  5
1277F
  8
0
 10
17.547852890690141
 20
15.1450355137671693
 30
0.0
 40
0.0303332040278101
 50
96.1840117525586038
 51
146.955882581129714
  0
ARC
  5
12780
  8
0
 10
17.5511316434622096
 20
15.1131039722856997
 30
0.0
 40
0.0624323910885445
 50
70.0704480143238868
 51
96.0187718337632248
  0
ARC
  5
12781
  8
0
 10
17.5350496373835085
 20
15.0696700420038798
 30
0.0
 40
0.108747406811419
 50
44.2964453687474631
 51
69.9051113421462276
  0
ARC
  5
12782
  8
0
 10
17.5443703441114813
 20
15.0758110721197909
 30
0.0
 40
0.0978103711290562
 50
20.9002295034537795
 51
45.5348625432572476
  0
ARC
  5
12783
  8
0
 10
17.5904238723219315
 20
15.0925130290883391
 30
0.0
 40
0.048835728859327
 50
345.0801717025441917
 51
21.8695986188650409
  0
ARC
  5
12784
  8
0
 10
17.7013885458386504
 20
14.9791352403707307
 30
0.0
 40
0.0419689478987017
 50
350.7288666978253104
 51
17.2843921564040599
  0
ARC
  5
12785
  8
0
 10
17.6619272025663996
 20
14.9661195311366004
 30
0.0
 40
0.0835184084343328
 50
17.7669446775182607
 51
40.7675415627779785
  0
ARC
  5
12786
  8
0
 10
17.635091781294701
 20
14.9452349704411898
 30
0.0
 40
0.1174924511472265
 50
39.9355393860190375
 51
67.9898766308004383
  0
ARC
  5
12787
  8
0
 10
17.6512403347437612
 20
14.9865388398266095
 30
0.0
 40
0.0731486677767658
 50
67.5920783788119621
 51
89.2578066641220573
  0
ARC
  5
12788
  8
0
 10
17.6504621242061113
 20
15.0274097349328297
 30
0.0
 40
0.0323177445726048
 50
86.9390139414514493
 51
134.290452876535511
  0
ARC
  5
12789
  8
0
 10
17.6639158325388017
 20
14.9337542523819806
 30
0.0
 40
0.0242534432465519
 50
192.1648268925412992
 51
233.4081577757044954
  0
ARC
  5
1278A
  8
0
 10
17.6824939310704394
 20
14.9626629582055308
 30
0.0
 40
0.0585847238841522
 50
235.6741706078383913
 51
267.0004772741060037
  0
ARC
  5
1278B
  8
0
 10
17.6875018841251404
 20
14.9820901327159692
 30
0.0
 40
0.078348721050791
 50
264.0853773443391219
 51
292.0768279543452763
  0
ARC
  5
1278C
  8
0
 10
17.7041153433397085
 20
14.9401112366812203
 30
0.0
 40
0.0332057288626561
 50
292.7366236161853976
 51
320.6625211160476852
  0
ARC
  5
1278D
  8
0
 10
17.711944685695471
 20
14.9331828164410201
 30
0.0
 40
0.022761918755325
 50
321.6586200257215751
 51
348.4964866654370894
  0
ARC
  5
1278E
  8
0
 10
17.6872280322036204
 20
14.9041236491458697
 30
0.0
 40
0.0217123105906524
 50
43.6895751529438883
 51
136.3092814763417095
  0
ARC
  5
1278F
  8
0
 10
17.6872283309589911
 20
14.9340656933713394
 30
0.0
 40
0.0216751390167627
 50
223.5866208458197946
 51
316.4122357834625063
  0
ARC
  5
12790
  8
0
 10
17.7633402465653489
 20
15.0144535836015507
 30
0.0
 40
0.020309714549856
 50
36.2402040165456967
 51
137.9308479169488919
  0
ARC
  5
12791
  8
0
 10
17.7646444115234807
 20
15.0400701058250093
 30
0.0
 40
0.0203109376786457
 50
216.2444412268004044
 51
317.9266107067049916
  0
ARC
  5
12792
  8
0
 10
17.7500910828362102
 20
15.0979766109033697
 30
0.0
 40
0.0760608751928927
 50
354.0518094671197105
 51
47.6330213054625773
  0
ARC
  5
12793
  8
0
 10
17.7377266198300205
 20
15.0955706857592098
 30
0.0
 40
0.0864975977231815
 50
42.6494128375450217
 51
87.679423634308165
  0
ARC
  5
12794
  8
0
 10
17.7385780061977094
 20
15.1453946259353192
 30
0.0
 40
0.0366985947380107
 50
85.8575808210182743
 51
149.8808254923551999
  0
ARC
  5
12795
  8
0
 10
17.7442542250219013
 20
15.1445740722673392
 30
0.0
 40
0.0420745690862488
 50
152.7943058091738067
 51
190.3716171380195874
  0
ARC
  5
12796
  8
0
 10
17.7444257220108703
 20
15.0430893896640008
 30
0.0
 40
0.0272992710471765
 50
189.8502973868313859
 51
241.9772295414541077
  0
ARC
  5
12797
  8
0
 10
17.7673761051373695
 20
15.0850826292262905
 30
0.0
 40
0.0751537388440184
 50
241.5729079516204081
 51
281.6505514530556979
  0
ARC
  5
12798
  8
0
 10
17.7781144500254413
 20
15.0470387866864996
 30
0.0
 40
0.0358374391933248
 50
277.1141771605895201
 51
338.0326528130136126
  0
ARC
  5
12799
  8
0
 10
17.8880932600022788
 20
15.1267433321902107
 30
0.0
 40
0.01872957798208
 50
29.6728637662758885
 51
141.368927998472401
  0
ARC
  5
1279A
  8
0
 10
17.8897427615388516
 20
15.1478004160658699
 30
0.0
 40
0.01878160762194
 50
209.9061403038537037
 51
321.1356514608856969
  0
ARC
  5
1279B
  8
0
 10
17.8743444829806286
 20
15.1544765473289509
 30
0.0
 40
0.0321133836224218
 50
190.4351147957301862
 51
246.028033439257598
  0
ARC
  5
1279C
  8
0
 10
17.8931685108650491
 20
15.1898024508365896
 30
0.0
 40
0.0720965014641539
 50
243.764269534449312
 51
283.1462983250355023
  0
ARC
  5
1279D
  8
0
 10
17.9039820462903592
 20
15.1537293458027005
 30
0.0
 40
0.0345876524358823
 50
279.2907188154575238
 51
339.0440567905811236
  0
ARC
  5
1279E
  8
0
 10
17.8765838618337511
 20
15.2468658243716408
 30
0.0
 40
0.0461146817615373
 50
142.091751190482114
 51
189.7439908031356879
  0
ARC
  5
1279F
  8
0
 10
17.8735010213517818
 20
15.2492493149547403
 30
0.0
 40
0.0422179224867708
 50
97.1904518820682739
 51
142.0733892971346108
  0
ARC
  5
127A0
  8
0
 10
17.8761331826735805
 20
15.2207292557242795
 30
0.0
 40
0.0708496315929376
 50
58.7012012717654272
 51
96.4154270022309134
  0
ARC
  5
127A1
  8
0
 10
17.868372489650941
 20
15.2042061573134504
 30
0.0
 40
0.0890212226866374
 50
25.4109781901011687
 51
59.9579637589858905
  0
ARC
  5
127A2
  8
0
 10
17.893391434492969
 20
15.2149353783347294
 30
0.0
 40
0.0618276122567599
 50
346.1427784032023283
 51
26.3790874725047217
  0
ARC
  5
127A3
  8
0
 10
17.9637127966998307
 20
15.0879115612710208
 30
0.0
 40
0.0579012580714013
 50
350.8899163592594164
 51
24.9961779759856491
  0
ARC
  5
127A4
  8
0
 10
17.9352351836505512
 20
15.07504489823725
 30
0.0
 40
0.0891492279772404
 50
24.7571473608362105
 51
56.2360754276332528
  0
ARC
  5
127A5
  8
0
 10
17.9401134369313695
 20
15.0851249361488104
 30
0.0
 40
0.0780734691297107
 50
55.1008912404912721
 51
88.1464921225683042
  0
ARC
  5
127A6
  8
0
 10
17.9467659702418096
 20
15.0367363082991705
 30
0.0
 40
0.0311461191795768
 50
196.4400078010104096
 51
261.107482808463601
  0
ARC
  5
127A7
  8
0
 10
17.9636270578598705
 20
15.0837940628534799
 30
0.0
 40
0.0807915020677971
 50
254.4373561193299054
 51
292.0721364572667085
  0
ARC
  5
127A8
  8
0
 10
17.9845853922897696
 20
15.0343705202154503
 30
0.0
 40
0.0271278761241392
 50
290.2760296768299213
 51
346.2478245876495748
  0
ARC
  5
127A9
  8
0
 10
17.9639147954335385
 20
15.0034341355195409
 30
0.0
 40
0.0216899392479657
 50
43.6300201812913002
 51
136.3729869736515923
  0
ARC
  5
127AA
  8
0
 10
17.9639140090857801
 20
15.0333989349651294
 30
0.0
 40
0.0217131057183556
 50
223.6941123805326015
 51
316.3088947744234929
  0
ARC
  5
127AB
  8
0
 10
18.0917470233262101
 20
15.2170978413397204
 30
0.0
 40
0.053690949975848
 50
147.0453269802584941
 51
191.1591859958492137
  0
ARC
  5
127AC
  8
0
 10
18.0887408883081591
 20
15.2161208319859593
 30
0.0
 40
0.0517582267292939
 50
81.8413361342758776
 51
144.3265682313210903
  0
ARC
  5
127AD
  8
0
 10
18.0857585236390115
 20
15.1884625121350005
 30
0.0
 40
0.0795658038705996
 50
32.7156859650348579
 51
82.5419772485116994
  0
ARC
  5
127AE
  8
0
 10
18.0990159916059383
 20
15.1946267746901604
 30
0.0
 40
0.0651099389215
 50
348.7309295315789086
 51
34.4573490971458867
  0
ARC
  5
127AF
  8
0
 10
18.2734067298897607
 20
15.2959769691069596
 30
0.0
 40
0.0581857809569345
 50
134.5976910974927137
 51
190.914133721995313
  0
ARC
  5
127B0
  8
0
 10
18.2737032481718416
 20
15.2926906059152792
 30
0.0
 40
0.060770210032427
 50
71.8052461321512112
 51
132.6208525943987979
  0
ARC
  5
127B1
  8
0
 10
18.2712378829405715
 20
15.2823888853045808
 30
0.0
 40
0.0713320183002836
 50
24.0955405440305306
 51
72.5077597011291743
  0
ARC
  5
127B2
  8
0
 10
18.278514463944699
 20
15.2852262890718809
 30
0.0
 40
0.0635322182498913
 50
347.0709617456597016
 51
24.4387491744719192
  0
ARC
  5
127B3
  8
0
 10
18.2592210167804296
 20
15.21241652869349
 30
0.0
 40
0.0292179586317515
 50
191.7544406398768047
 51
231.2213749589157032
  0
ARC
  5
127B4
  8
0
 10
18.2754328427495203
 20
15.2348227679649995
 30
0.0
 40
0.0568560230096818
 50
232.627345274947686
 51
264.2291680430690803
  0
ARC
  5
127B5
  8
0
 10
18.2784211546049811
 20
15.2643918652373696
 30
0.0
 40
0.0865757390454853
 50
264.2291680430690803
 51
278.3544666814436255
  0
ARC
  5
127B6
  8
0
 10
18.2842847632286905
 20
15.2267154182989106
 30
0.0
 40
0.0484482510443154
 50
277.9676087370698951
 51
311.4225117398074758
  0
ARC
  5
127B7
  8
0
 10
18.2972325288751492
 20
15.2108257465272896
 30
0.0
 40
0.0279785845437343
 50
313.0688227069381924
 51
345.6740845732251728
  0
ARC
  5
127B8
  8
0
 10
18.2769958186313488
 20
15.1875607166196591
 30
0.0
 40
0.018506968221199
 50
31.5510312842744192
 51
145.3068892207573128
  0
ARC
  5
127B9
  8
0
 10
18.2775501680716808
 20
15.2077727595934604
 30
0.0
 40
0.0185038637081615
 50
211.5362946545695877
 51
325.3216258504592133
  0
ARC
  5
127BA
  8
0
 10
18.2979870601789116
 20
15.1638745650438107
 30
0.0
 40
0.0568821012372999
 50
156.734855082440788
 51
191.5409407716128101
  0
ARC
  5
127BB
  8
0
 10
18.3004959988220399
 20
15.1520788743389403
 30
0.0
 40
0.0626304632258536
 50
349.9763417215111758
 51
37.2960377726071499
  0
ARC
  5
127BC
  8
0
 10
18.4848062900668992
 20
15.12186730872358
 30
0.0
 40
0.0257135829988738
 50
91.9877183131983145
 51
125.5223594280993069
  0
ARC
  5
127BD
  8
0
 10
18.4725190105823387
 20
15.1393644707858606
 30
0.0
 40
0.004336843252482
 50
127.7124480512544977
 51
204.7579153108644903
  0
ARC
  5
127BE
  8
0
 10
18.4762306958091287
 20
15.1420909170199103
 30
0.0
 40
0.0088970103920604
 50
210.7025938216116003
 51
241.9186680388739887
  0
ARC
  5
127BF
  8
0
 10
18.4814880461358406
 20
15.1519033037031097
 30
0.0
 40
0.0200290585195349
 50
241.862810503591902
 51
255.2608101501442945
  0
ARC
  5
127C0
  8
0
 10
18.4838256391558389
 20
15.1615731304881596
 30
0.0
 40
0.0299760828093553
 50
255.6421727014345038
 51
270.1696705306391095
  0
ARC
  5
127C1
  8
0
 10
18.462276514082081
 20
15.1533565693648899
 30
0.0
 40
0.0259122744219581
 50
192.3167751091799005
 51
226.6233145356250986
  0
ARC
  5
127C2
  8
0
 10
18.4740948344856406
 20
15.1667899615408999
 30
0.0
 40
0.0437977318010482
 50
227.4550230120777883
 51
253.8327621882529002
  0
ARC
  5
127C3
  8
0
 10
18.4835003926668797
 20
15.1958367895975908
 30
0.0
 40
0.0743207662452656
 50
253.1036462544304868
 51
270.3191762605698045
  0
ARC
  5
127C4
  8
0
 10
18.3157409566647402
 20
15.1393948670427907
 30
0.0
 40
0.0833334888029095
 50
266.7020472407571106
 51
305.3589319962999866
  0
ARC
  5
127C5
  8
0
 10
18.2842475112574903
 20
15.0884957406678897
 30
0.0
 40
0.0290028534882098
 50
195.4972453223647051
 51
250.7039192771611056
  0
ARC
  5
127C6
  8
0
 10
18.3035832679902306
 20
15.1381005503722292
 30
0.0
 40
0.0822315241352263
 50
249.4094755163905859
 51
280.9777985882419102
  0
ARC
  5
127C7
  8
0
 10
18.3136087522962008
 20
15.1017695647364292
 30
0.0
 40
0.0447518167817399
 50
277.2320834632814126
 51
311.0906433313181765
  0
ARC
  5
127C8
  8
0
 10
18.3272176699360898
 20
15.0856074288571396
 30
0.0
 40
0.0236292312481254
 50
311.9780431130026841
 51
348.1283136565335781
  0
ARC
  5
127C9
  8
0
 10
18.3033207885132505
 20
15.0562347750354704
 30
0.0
 40
0.0217065742552182
 50
43.6766687812072831
 51
136.3270817832514012
  0
ARC
  5
127CA
  8
0
 10
18.3033198073885615
 20
15.0862112308482192
 30
0.0
 40
0.0217044239436677
 50
223.6707231726969951
 51
316.3330273917770796
  0
ARC
  5
127CB
  8
0
 10
18.0799680958675708
 20
15.1253120333503492
 30
0.0
 40
0.0263062540939559
 50
191.0014409652895893
 51
228.0538729274618959
  0
ARC
  5
127CC
  8
0
 10
18.0981200326350518
 20
15.1498075026321395
 30
0.0
 40
0.0567314406599397
 50
230.9563020064088903
 51
265.6669190769966917
  0
ARC
  5
127CD
  8
0
 10
18.1025553004696995
 20
15.1678100672548304
 30
0.0
 40
0.0750801342942601
 50
263.3292538095972191
 51
287.5044625947833197
  0
ARC
  5
127CE
  8
0
 10
18.1146229276664599
 20
15.1322963156046892
 30
0.0
 40
0.0375902953553059
 50
286.2438501506621265
 51
317.8796685885977809
  0
ARC
  5
127CF
  8
0
 10
18.1239438570314597
 20
15.1234691977378493
 30
0.0
 40
0.024758119301178
 50
318.5645902684257749
 51
346.5924140134990239
  0
ARC
  5
127D0
  8
0
 10
18.1005141900873205
 20
15.0980479822273992
 30
0.0
 40
0.0200340949500062
 50
36.6130781810443935
 51
140.2618103974859025
  0
ARC
  5
127D1
  8
0
 10
18.1011892435449191
 20
15.12279469974027
 30
0.0
 40
0.0200284168008038
 50
216.59241340926161
 51
320.2824751692788823
  0
ARC
  5
127D2
  8
0
 10
18.4778864428480993
 20
16.2250197502824207
 30
0.0
 40
1.958072427593776
 50
258.5845338418490087
 51
270.1763864672536783
  0
ARC
  5
127D3
  8
0
 10
18.0268670308241816
 20
14.3115598828778392
 30
0.0
 40
0.0052825719289074
 50
92.1861901273373263
 51
166.509829086770111
  0
ARC
  5
127D4
  8
0
 10
17.8938539268801797
 20
14.3451363522506501
 30
0.0
 40
0.0058144475945635
 50
14.6056024269216707
 51
51.1299934614682527
  0
ARC
  5
127D5
  8
0
 10
18.1023596005002183
 20
14.2979259337033895
 30
0.0
 40
0.6761426382970015
 50
113.5740270191353005
 51
127.4963024190384004
  0
ARC
  5
127D6
  8
0
 10
17.8848254337581203
 20
14.5785989883634102
 30
0.0
 40
0.3210481573391314
 50
127.1855144729474034
 51
150.2091056966351914
  0
ARC
  5
127D7
  8
0
 10
17.7634107369726699
 20
14.6504273715896094
 30
0.0
 40
0.1800034122978989
 50
150.8497577534639049
 51
179.4918935238655138
  0
ARC
  5
127D8
  8
0
 10
17.7622512351986188
 20
14.6536192073024303
 30
0.0
 40
0.1788439500761126
 50
180.5111731610899142
 51
206.0605520222806888
  0
ARC
  5
127D9
  8
0
 10
17.8566865698830917
 20
14.7038045005188795
 30
0.0
 40
0.2857481331267743
 50
206.7815226773726067
 51
227.6579068387262055
  0
ARC
  5
127DA
  8
0
 10
18.0213805839921406
 20
14.8837084021529904
 30
0.0
 40
0.5296525514909475
 50
227.5977555292319892
 51
239.851137882455987
  0
ARC
  5
127DB
  8
0
 10
18.1952222681238709
 20
15.1880184846705806
 30
0.0
 40
0.8801118974231275
 50
240.0148181749441108
 51
250.2707823456593985
  0
ARC
  5
127DC
  8
0
 10
18.2145944762355612
 20
15.2066684884064198
 30
0.0
 40
0.9042855177706719
 50
249.5142861943353125
 51
259.6100348172441272
  0
ARC
  5
127DD
  8
0
 10
18.1214643842090517
 20
14.6614199970170507
 30
0.0
 40
0.3512462013983067
 50
258.5120268189895114
 51
264.4513373901251043
  0
ARC
  5
127DE
  8
0
 10
18.0939502497653812
 20
14.3777801807408991
 30
0.0
 40
0.0662750372608073
 50
264.4165498983385874
 51
274.1572403402570899
  0
ARC
  5
127DF
  8
0
 10
18.0883354327624986
 20
13.9316790945024405
 30
0.0
 40
0.3801432469962159
 50
81.2420657256233767
 51
88.4293824350097708
  0
ARC
  5
127E0
  8
0
 10
18.5284992385486511
 20
16.5312653497903383
 30
0.0
 40
2.2564932475781831
 50
260.24621047670189
 51
261.9038876720741769
  0
ARC
  5
127E1
  8
0
 10
18.1932077219644306
 20
15.1384515762123897
 30
0.0
 40
0.8295172086783216
 50
235.2109332127992047
 51
251.8315330282428874
  0
ARC
  5
127E2
  8
0
 10
18.4462642972807807
 20
15.8822352708885397
 30
0.0
 40
1.6151472349513629
 50
251.5293135196029084
 51
255.2052245799793013
  0
ARC
  5
127E3
  8
0
 10
17.9277563541322706
 20
14.7461440847388605
 30
0.0
 40
0.3559241489089138
 50
215.9590038716766003
 51
234.2724492463426031
  0
ARC
  5
127E4
  8
0
 10
17.7913388331949101
 20
14.6491606224736604
 30
0.0
 40
0.1885602327845389
 50
182.5442794720914037
 51
216.4461513611244072
  0
ARC
  5
127E5
  8
0
 10
18.0081980759928193
 20
15.0218860562117698
 30
0.0
 40
0.0476023442121445
 50
275.2944123499282796
 51
299.5200498687106005
  0
ARC
  5
127E6
  8
0
 10
18.0248732859886296
 20
14.99243729731492
 30
0.0
 40
0.0137601807362315
 50
299.5189726495145237
 51
333.8724966744881044
  0
ARC
  5
127E7
  8
0
 10
17.9522770768371593
 20
14.9082344016175607
 30
0.0
 40
0.0476375679903244
 50
42.3650690024290668
 51
136.8859586840736995
  0
ARC
  5
127E8
  8
0
 10
17.9527137610007195
 20
14.9750454247470106
 30
0.0
 40
0.0491237531855701
 50
224.2091645077979081
 51
315.041863178730523
  0
ARC
  5
127E9
  8
0
 10
17.8364250716799688
 20
14.9589830897164706
 30
0.0
 40
0.053520255037547
 50
246.3661036128341948
 51
314.1026387723578068
  0
ARC
  5
127EA
  8
0
 10
17.8609389342541292
 20
14.9185569115438206
 30
0.0
 40
0.012888455981973
 50
8.8982584105018603
 51
77.9992243711888307
  0
ARC
  5
127EB
  8
0
 10
17.8211284013300393
 20
14.8364924259122404
 30
0.0
 40
0.0476317668215088
 50
42.2692979571206919
 51
136.8012287377530072
  0
ARC
  5
127EC
  8
0
 10
17.8216703583375384
 20
14.9033069713994095
 30
0.0
 40
0.0491310811185452
 50
224.1294879564553924
 51
314.9410387383995271
  0
ARC
  5
127ED
  8
0
 10
17.723945010300671
 20
14.8043414878944493
 30
0.0
 40
0.0478409767488567
 50
41.607713010104213
 51
102.6915537421431992
  0
ARC
  5
127EE
  8
0
 10
17.7229339269028898
 20
14.8760237007520306
 30
0.0
 40
0.0542779781383779
 50
231.8669317406182131
 51
312.66132029321858
  0
ARC
  5
127EF
  8
0
 10
17.7420021244679411
 20
14.7504837303530891
 30
0.0
 40
0.049213616104242
 50
45.34823567960742
 51
135.9377778832325134
  0
ARC
  5
127F0
  8
0
 10
17.7412527684123198
 20
14.8172530678901602
 30
0.0
 40
0.0475111993098669
 50
223.2341019602858978
 51
318.0519116025537869
  0
ARC
  5
127F1
  8
0
 10
17.6699278478617998
 20
14.7081558958157306
 30
0.0
 40
0.0490380440022471
 50
45.0479364588679871
 51
136.0698419468980944
  0
ARC
  5
127F2
  8
0
 10
17.669278024667161
 20
14.7747718644686401
 30
0.0
 40
0.0475832768144454
 50
223.2352118910077081
 51
317.8825665143049264
  0
ARC
  5
127F3
  8
0
 10
18.0679279573009808
 20
14.5752515286382298
 30
0.0
 40
0.5321036925136081
 50
68.7172119915753683
 51
78.9959172920271868
  0
ARC
  5
127F4
  8
0
 10
18.1524948282244587
 20
15.0394248863298099
 30
0.0
 40
0.0605811392125607
 50
73.7025519240910256
 51
123.1598319496071952
  0
ARC
  5
127F5
  8
0
 10
18.2501191864548602
 20
14.8746518253592797
 30
0.0
 40
0.2520588392913315
 50
121.2498484904559035
 51
140.7260563768103054
  0
ARC
  5
127F6
  8
0
 10
18.0017253938103714
 20
15.0718311380982204
 30
0.0
 40
0.0652123219104748
 50
260.0701213016769202
 51
324.7695699117754202
  0
ARC
  5
127F7
  8
0
 10
17.8407299179416405
 20
14.5144985244848996
 30
0.0
 40
0.5133849122523105
 50
81.182421080629652
 51
87.7305735762807757
  0
ARC
  5
127F8
  8
0
 10
17.8568722028571685
 20
14.9851912117637802
 30
0.0
 40
0.0424963322605713
 50
84.3456364124783136
 51
135.0361921039566937
  0
ARC
  5
127F9
  8
0
 10
17.95364107847535
 20
14.9044083995371999
 30
0.0
 40
0.168425889630435
 50
138.8574345209410978
 51
164.7480121440694916
  0
ARC
  5
127FA
  8
0
 10
17.7424570580460497
 20
14.9576774323314492
 30
0.0
 40
0.0495083249815631
 50
330.1257762274889842
 51
349.5706673240591158
  0
ARC
  5
127FB
  8
0
 10
17.7535990702263007
 20
14.9539472019627002
 30
0.0
 40
0.0380593206622152
 50
280.8354073148190082
 51
326.6381682149345238
  0
ARC
  5
127FC
  8
0
 10
17.7431023859012384
 20
15.0156922180384793
 30
0.0
 40
0.1006851196656169
 50
260.9270634131913766
 51
280.0968624140211887
  0
ARC
  5
127FD
  8
0
 10
17.5762631173893098
 20
15.6487080272709704
 30
0.0
 40
0.7343621348335545
 50
274.4160854994518104
 51
275.4323808120298054
  0
ARC
  5
127FE
  8
0
 10
17.6338531408182391
 20
14.8918362781808202
 30
0.0
 40
0.0247119087497837
 50
92.4234107859969356
 51
161.2820714835247884
  0
ARC
  5
127FF
  8
0
 10
17.7445871194117899
 20
14.8688463748323105
 30
0.0
 40
0.1376564381468651
 50
167.0195528006487109
 51
189.4869829368444982
  0
ARC
  5
12800
  8
0
 10
17.8076341506566713
 20
14.8786107166679304
 30
0.0
 40
0.2014520097895784
 50
189.2705893027481068
 51
195.4987261621137975
  0
ARC
  5
12801
  8
0
 10
17.5925056221317391
 20
14.8156665843672499
 30
0.0
 40
0.0228938359974526
 50
287.9723422148845771
 51
23.4559187160925688
  0
ARC
  5
12802
  8
0
 10
17.5230415023911483
 20
15.2787215681121893
 30
0.0
 40
0.4908343599773625
 50
273.3162884215881263
 51
278.9698379861957847
  0
ARC
  5
12803
  8
0
 10
17.5146501343119816
 20
14.76624566243561
 30
0.0
 40
0.0164291573219142
 50
164.8895885406097079
 51
200.6930246918122975
  0
ARC
  5
12804
  8
0
 10
17.7224587494170009
 20
14.8450112187882102
 30
0.0
 40
0.2386642332736353
 50
200.7536917368391016
 51
220.488867399621796
  0
ARC
  5
12805
  8
0
 10
17.4859806167196403
 20
14.6418612816715896
 30
0.0
 40
0.0730965612020135
 50
26.1522538091045504
 51
41.2388140996464827
  0
ARC
  5
12806
  8
0
 10
17.5303218567037185
 20
14.6638344153156996
 30
0.0
 40
0.023610563509479
 50
2.2443030939631989
 51
25.7156865282848202
  0
ARC
  5
12807
  8
0
 10
17.5423491874630599
 20
14.6646980777388691
 30
0.0
 40
0.0115652824550525
 50
290.062909428086698
 51
0.3018962745882263
  0
ARC
  5
12808
  8
0
 10
17.5283613922783807
 20
14.6973283849151493
 30
0.0
 40
0.0470542253274989
 50
281.4353244206961904
 51
292.4320254278536027
  0
ARC
  5
12809
  8
0
 10
17.5527638237217616
 20
14.5772634994999297
 30
0.0
 40
0.075465419786882
 50
101.521692864344999
 51
134.6968264354478038
  0
ARC
  5
1280A
  8
0
 10
17.5047685991194086
 20
14.6266424886956905
 30
0.0
 40
0.0066357186334036
 50
140.0070572823393036
 51
204.8434833844472109
  0
ARC
  5
1280B
  8
0
 10
17.6613391003575089
 20
14.7439092116380799
 30
0.0
 40
0.2021121626942385
 50
216.4413895212902048
 51
233.4790582278766067
  0
ARC
  5
1280C
  8
0
 10
20.1143553273427607
 20
18.019971053385941
 30
0.0
 40
4.2947699344616801
 50
233.189536621168088
 51
234.1868019661390008
  0
ARC
  5
1280D
  8
0
 10
17.5653650522481186
 20
14.4921793287567802
 30
0.0
 40
0.0576137010203064
 50
34.0536650721521212
 51
51.418689186006489
  0
ARC
  5
1280E
  8
0
 10
17.6076724074437116
 20
14.5198884219523698
 30
0.0
 40
0.0070833265339014
 50
319.0622032826831855
 51
39.9971291829567619
  0
ARC
  5
1280F
  8
0
 10
17.6251885243245816
 20
14.5013571057456492
 30
0.0
 40
0.0184641779404943
 50
131.2126257821587956
 51
176.6068239407217959
  0
ARC
  5
12810
  8
0
 10
17.6216780663635291
 20
14.5005845822516903
 30
0.0
 40
0.0150374965182988
 50
172.8742163945767913
 51
221.6871169495306901
  0
ARC
  5
12811
  8
0
 10
17.7423009946201091
 20
14.6452052809767697
 30
0.0
 40
0.2032067360421338
 50
229.5442854619381023
 51
246.6968231609525901
  0
ARC
  5
12812
  8
0
 10
18.1813928201991111
 20
15.5112827061530805
 30
0.0
 40
1.1739046544967711
 50
243.7350372160904044
 51
247.1964023665317995
  0
ARC
  5
12813
  8
0
 10
17.5080178661373793
 20
13.8751597604516199
 30
0.0
 40
0.5954694759310059
 50
63.7748785404907323
 51
68.4834153308549816
  0
ARC
  5
12814
  8
0
 10
17.7279186809059901
 20
14.3188039079998308
 30
0.0
 40
0.1003253815771663
 50
52.5380327310372124
 51
64.47121377791116
  0
ARC
  5
12815
  8
0
 10
18.0013157647335902
 20
14.6101876332986897
 30
0.0
 40
0.299902297025946
 50
224.9154350104959974
 51
225.6833948158478904
  0
ARC
  5
12816
  8
0
 10
17.8484588461110398
 20
14.4602171041431102
 30
0.0
 40
0.0859334597532614
 50
228.7484398855283985
 51
241.5194335409208009
  0
ARC
  5
12817
  8
0
 10
17.9068450080717412
 20
14.5618906851453804
 30
0.0
 40
0.2031642521776087
 50
240.7195863562276941
 51
249.9347959567508042
  0
ARC
  5
12818
  8
0
 10
18.1622174357908115
 20
15.2875449569116597
 30
0.0
 40
0.9724313886546847
 50
250.4705170274770865
 51
253.4788371278779096
  0
ARC
  5
12819
  8
0
 10
18.3715475535609585
 20
15.9721983873823508
 30
0.0
 40
1.688356475059108
 50
253.2754478333035024
 51
256.2437331614190725
  0
ARC
  5
1281A
  8
0
 10
16.1969182944981185
 20
6.943373738507943
 30
0.0
 40
7.5986750729697237
 50
76.0442210196196839
 51
76.5056149309937013
  0
ARC
  5
1281B
  8
0
 10
20.2637633257927483
 20
23.12287308514545
 30
0.0
 40
9.0841634803052393
 50
255.7620162276998883
 51
255.9457310237785066
  0
LINE
  5
1281C
  8
0
 10
18.8080023860643415
 20
14.6454962862000002
 30
0.0
 11
18.8005640285641711
 21
14.6508453683999793
 31
0.0
  0
LINE
  5
1281D
  8
0
 10
19.5393086469644004
 20
14.7493012087999809
 30
0.0
 11
19.5253528204643807
 21
14.7995698602999806
 31
0.0
  0
LINE
  5
1281E
  8
0
 10
19.3475573307641717
 20
14.3748575224999797
 30
0.0
 11
19.3375750119735095
 21
14.4077717213701497
 31
0.0
  0
LINE
  5
1281F
  8
0
 10
19.3479165973644704
 20
15.0263974030999901
 30
0.0
 11
19.3302156109643803
 21
15.0799394301999996
 31
0.0
  0
LINE
  5
12820
  8
0
 10
19.5541543208641997
 20
14.5262039193999897
 30
0.0
 11
19.5352094397644613
 21
14.5826057342999906
 31
0.0
  0
LINE
  5
12821
  8
0
 10
19.5543750124643303
 20
14.8728423651999702
 30
0.0
 11
19.5362659049642389
 21
14.9243276469999806
 31
0.0
  0
LINE
  5
12822
  8
0
 10
19.6259953812641506
 20
14.6991459555999793
 30
0.0
 11
19.6135384707340492
 21
14.7344214295813192
 31
0.0
  0
LINE
  5
12823
  8
0
 10
18.9583482133643884
 20
9.0877838508999957
 30
0.0
 11
19.1335207863644392
 21
9.0877838508999957
 31
0.0
  0
LINE
  5
12824
  8
0
 10
18.8382451209645296
 20
9.2015957220999951
 30
0.0
 11
19.0469065382644587
 21
9.2015957220999951
 31
0.0
  0
LINE
  5
12825
  8
0
 10
19.1335207115644117
 20
9.247171012099983
 30
0.0
 11
19.1840802197643789
 21
9.247171012099983
 31
0.0
  0
LINE
  5
12826
  8
0
 10
19.4768932201645804
 20
14.6427833994999901
 30
0.0
 11
19.4693031107644785
 21
14.6815593954999901
 31
0.0
  0
LINE
  5
12827
  8
0
 10
19.4141735458642906
 20
14.7948863563999797
 30
0.0
 11
19.4064148760644386
 21
14.8345234853000001
 31
0.0
  0
LINE
  5
12828
  8
0
 10
19.4141735458642906
 20
14.4906804424999809
 30
0.0
 11
19.4061085576645382
 21
14.5318824766999892
 31
0.0
  0
LINE
  5
12829
  8
0
 10
19.2335794410641903
 20
14.9286434519999904
 30
0.0
 11
19.2250195611645687
 21
14.9723737656999791
 31
0.0
  0
LINE
  5
1282A
  8
0
 10
18.8198016165642912
 20
15.1177283667999802
 30
0.0
 11
18.8049581850641516
 21
15.1819032014999706
 31
0.0
  0
LINE
  5
1282B
  8
0
 10
18.6434877260644498
 20
15.2039028015999804
 30
0.0
 11
18.6273928064642789
 21
15.2710113295000003
 31
0.0
  0
LINE
  5
1282C
  8
0
 10
19.1563353062642783
 20
14.3013965072999802
 30
0.0
 11
19.1408079559746511
 21
14.3656360830430607
 31
0.0
  0
LINE
  5
1282D
  8
0
 10
19.1564788244645605
 20
15.0336327843999999
 30
0.0
 11
19.1420863680641489
 21
15.0900944886999699
 31
0.0
  0
LINE
  5
1282E
  8
0
 10
19.4062590559642487
 20
14.4277742542999707
 30
0.0
 11
19.3914226031643011
 21
14.4844635169999894
 31
0.0
  0
LINE
  5
1282F
  8
0
 10
19.4063657957644793
 20
14.9056840509999802
 30
0.0
 11
19.3923361762645108
 21
14.9574566704999903
 31
0.0
  0
LINE
  5
12830
  8
0
 10
19.5392690733642702
 20
14.5833291029999792
 30
0.0
 11
19.52973620669718
 21
14.6180846260833093
 31
0.0
  0
LINE
  5
12831
  8
0
 10
19.0315468918643091
 20
15.1413590725999807
 30
0.0
 11
19.0144092255645809
 21
15.2001274663999801
 31
0.0
  0
LINE
  5
12832
  8
0
 10
18.8382451209645296
 20
9.8398287615999891
 30
0.0
 11
18.906677369464429
 21
9.8398287615999891
 31
0.0
  0
LINE
  5
12833
  8
0
 10
18.8382451209645296
 20
10.0186190993999809
 30
0.0
 11
18.8873376385645315
 21
10.0186190993999809
 31
0.0
  0
LINE
  5
12834
  8
0
 10
19.1335207112642784
 20
10.6110183067999895
 30
0.0
 11
19.1986550962642504
 21
10.6110183061999805
 31
0.0
  0
LINE
  5
12835
  8
0
 10
19.133520710264289
 20
10.6145887327999695
 30
0.0
 11
19.0844681506641791
 21
10.6145887327999695
 31
0.0
  0
LINE
  5
12836
  8
0
 10
19.2109501424642986
 20
10.62412672009998
 30
0.0
 11
19.0802358196296993
 21
10.6241267200002696
 31
0.0
  0
LINE
  5
12837
  8
0
 10
18.9411015902569488
 20
10.6425406039999704
 30
0.0
 11
19.0469065382644587
 21
10.6425406039999704
 31
0.0
  0
LINE
  5
12838
  8
0
 10
19.2335794410641903
 20
14.3569233469999897
 30
0.0
 11
19.2244240279642291
 21
14.40369609269999
 31
0.0
  0
LINE
  5
12839
  8
0
 10
18.9568932201641509
 20
15.0279216062999996
 30
0.0
 11
18.9469451291642983
 21
15.0787439483999908
 31
0.0
  0
LINE
  5
1283A
  8
0
 10
18.9568932201641509
 20
14.2576451925999894
 30
0.0
 11
18.946098609664201
 21
14.3127921935999893
 31
0.0
  0
LINE
  5
1283B
  8
0
 10
18.6174873249642587
 20
15.0807464088999801
 30
0.0
 11
18.60565834636418
 21
15.1411777412999893
 31
0.0
  0
LINE
  5
1283C
  8
0
 10
18.6174873249642587
 20
14.2048203899999805
 30
0.0
 11
18.6046679989790391
 21
14.2703111627318702
 31
0.0
  0
LINE
  5
1283D
  8
0
 10
18.8196566162641794
 20
14.2194458464999798
 30
0.0
 11
18.8038700542874686
 21
14.2922763523970406
 31
0.0
  0
LINE
  5
1283E
  8
0
 10
19.0253230991643214
 20
10.3994037892999796
 30
0.0
 11
19.0253053869641917
 21
10.3994638939999806
 31
0.0
  0
LINE
  5
1283F
  8
0
 10
19.7190367045645907
 20
14.7128792490999807
 30
0.0
 11
19.7245465359092087
 21
14.8316161780270193
 31
0.0
  0
LINE
  5
12840
  8
0
 10
19.902914412264181
 20
14.9207211788999796
 30
0.0
 11
19.902914412264181
 21
15.2643828053999702
 31
0.0
  0
LINE
  5
12841
  8
0
 10
19.902914412264181
 20
15.6858549719745994
 30
0.0
 11
19.902914412264181
 21
15.7252465541999999
 31
0.0
  0
LINE
  5
12842
  8
0
 10
19.36486433436448
 20
14.7015617100999805
 30
0.0
 11
19.36486433436448
 21
14.6407901581999909
 31
0.0
  0
LINE
  5
12843
  8
0
 10
19.1905474812642716
 20
14.8179867232999793
 30
0.0
 11
19.1905474812642716
 21
14.70916066539999
 31
0.0
  0
LINE
  5
12844
  8
0
 10
19.0181094438644287
 20
15.9489634095999993
 30
0.0
 11
19.0848389767643312
 21
15.9330814748999803
 31
0.0
  0
LINE
  5
12845
  8
0
 10
19.4411504491645211
 20
15.0373852781999897
 30
0.0
 11
19.4498416772644305
 21
15.1397942375999701
 31
0.0
  0
LINE
  5
12846
  8
0
 10
19.4411764315641413
 20
14.3850304373999904
 30
0.0
 11
19.4428840770865392
 21
14.4068817884225702
 31
0.0
  0
LINE
  5
12847
  8
0
 10
19.6474110095641592
 20
14.8860314202999806
 30
0.0
 11
19.6537506493641487
 21
14.9979803113999992
 31
0.0
  0
LINE
  5
12848
  8
0
 10
19.6474174026643595
 20
14.5388664005999999
 30
0.0
 11
19.6537944839642513
 21
14.6565007424999791
 31
0.0
  0
LINE
  5
12849
  8
0
 10
18.9101686305643817
 20
10.2781652739999991
 30
0.0
 11
18.9291058247472392
 21
10.6277250998595605
 31
0.0
  0
LINE
  5
1284A
  8
0
 10
18.9886816413404595
 20
10.7540148210800002
 30
0.0
 11
19.1026637007644204
 21
12.9975988839999808
 31
0.0
  0
LINE
  5
1284B
  8
0
 10
19.14391441226417
 20
14.6029674904947306
 30
0.0
 11
19.1439144069645408
 21
14.5537129739999802
 31
0.0
  0
LINE
  5
1284C
  8
0
 10
19.094150632764471
 20
9.1638863767999794
 30
0.0
 11
19.0941506329222612
 21
10.5747051215736008
 31
0.0
  0
LINE
  5
1284D
  8
0
 10
19.0928854896642406
 20
14.8903201161999696
 30
0.0
 11
19.0928854896642406
 21
14.7789994028999807
 31
0.0
  0
LINE
  5
1284E
  8
0
 10
19.08627661706441
 20
10.6031705248999799
 30
0.0
 11
19.08627661706441
 21
9.2409658023999839
 31
0.0
  0
LINE
  5
1284F
  8
0
 10
18.928936074564259
 20
14.9867819210394106
 30
0.0
 11
18.928936074564259
 21
14.9494177315871202
 31
0.0
  0
LINE
  5
12850
  8
0
 10
18.9183702291643385
 20
9.9010831232999976
 30
0.0
 11
18.9183702291643385
 21
10.0282882270999707
 31
0.0
  0
LINE
  5
12851
  8
0
 10
18.8382451209645296
 20
9.2015957220999951
 30
0.0
 11
18.8382451209645296
 21
10.0963072321999903
 31
0.0
  0
LINE
  5
12852
  8
0
 10
18.4839144070642689
 20
13.8744963556999892
 30
0.0
 11
18.4839144230645616
 21
13.8680724945999696
 31
0.0
  0
LINE
  5
12853
  8
0
 10
18.4839144210641315
 20
13.7065591396999693
 30
0.0
 11
18.4839144230645616
 21
13.71698348669997
 31
0.0
  0
LINE
  5
12854
  8
0
 10
18.4839133506643485
 20
13.3591082881999892
 30
0.0
 11
18.4839144308643917
 21
13.3693046356999901
 31
0.0
  0
LINE
  5
12855
  8
0
 10
18.4839133153641306
 20
13.0298816916999805
 30
0.0
 11
18.4839144202642309
 21
13.0392901079999906
 31
0.0
  0
LINE
  5
12856
  8
0
 10
18.4839133294644817
 20
13.2185070121999804
 30
0.0
 11
18.4839144160641808
 21
13.2120838878999791
 31
0.0
  0
LINE
  5
12857
  8
0
 10
19.500129301964531
 20
14.9120711175999894
 30
0.0
 11
19.5142359463643515
 21
15.0211577256999895
 31
0.0
  0
LINE
  5
12858
  8
0
 10
19.5001549431644889
 20
14.4339622075999898
 30
0.0
 11
19.5066540112907205
 21
14.4859526739732303
 31
0.0
  0
LINE
  5
12859
  8
0
 10
19.6330571448643205
 20
14.7564843029999793
 30
0.0
 11
19.6468014663641917
 21
14.8725576064999796
 31
0.0
  0
LINE
  5
1285A
  8
0
 10
19.6330647888644307
 20
14.5904337250999792
 30
0.0
 11
19.6439493201137303
 21
14.6834422889943408
 31
0.0
  0
LINE
  5
1285B
  8
0
 10
19.1251444183644708
 20
14.26995437789998
 30
0.0
 11
19.1365785395182684
 21
14.3693911718853506
 31
0.0
  0
LINE
  5
1285C
  8
0
 10
18.9512861523644389
 20
14.8289992478000006
 30
0.0
 11
18.9501181279642914
 21
14.8174340039999795
 31
0.0
  0
LINE
  5
1285D
  8
0
 10
18.9138147657645312
 20
10.2426790267999692
 30
0.0
 11
18.9138107333642402
 21
10.2426706178999893
 31
0.0
  0
LINE
  5
1285E
  8
0
 10
18.8382451209645296
 20
10.0963072321999903
 30
0.0
 11
18.8388857563645615
 21
10.0985771797999693
 31
0.0
  0
LINE
  5
1285F
  8
0
 10
19.5709356043644185
 20
14.6427833994999901
 30
0.0
 11
19.587574830617541
 21
14.7277890994261593
 31
0.0
  0
LINE
  5
12860
  8
0
 10
19.5082159299645284
 20
14.4906804424999809
 30
0.0
 11
19.5287037150642391
 21
14.5953474797999796
 31
0.0
  0
LINE
  5
12861
  8
0
 10
19.5082159299645284
 20
14.7948863563999797
 30
0.0
 11
19.5282398136641788
 21
14.89718343609999
 31
0.0
  0
LINE
  5
12862
  8
0
 10
19.3276218252644902
 20
14.3569233469999897
 30
0.0
 11
19.3469207153643801
 21
14.4555166133999897
 31
0.0
  0
LINE
  5
12863
  8
0
 10
19.3276218252644902
 20
14.9286434519999904
 30
0.0
 11
19.3471878842242404
 21
15.0286016180409607
 31
0.0
  0
LINE
  5
12864
  8
0
 10
19.0509356043644402
 20
14.2576451925999894
 30
0.0
 11
19.0683483371644797
 21
14.3466025464999802
 31
0.0
  0
LINE
  5
12865
  8
0
 10
19.0509356043644402
 20
15.0279216062999996
 30
0.0
 11
19.0685608090207097
 21
15.11796442689967
 31
0.0
  0
LINE
  5
12866
  8
0
 10
18.7115297091645516
 20
14.2048203899999805
 30
0.0
 11
18.72649786937518
 21
14.2812890260257408
 31
0.0
  0
LINE
  5
12867
  8
0
 10
18.5309882110641411
 20
14.1918190147999894
 30
0.0
 11
18.5454111512644886
 21
14.2678391215999891
 31
0.0
  0
LINE
  5
12868
  8
0
 10
18.7372130470644116
 20
15.2064643153999803
 30
0.0
 11
18.7515554037645416
 21
15.2849602090999692
 31
0.0
  0
LINE
  5
12869
  8
0
 10
18.9136835269641708
 20
15.1202919139999796
 30
0.0
 11
18.9287576211645501
 21
15.2067067348999903
 31
0.0
  0
LINE
  5
1286A
  8
0
 10
18.9137677926641992
 20
14.2218607120999803
 30
0.0
 11
18.9288747797845609
 21
14.3142110597743795
 31
0.0
  0
LINE
  5
1286B
  8
0
 10
18.7373868345644006
 20
14.2075225920999895
 30
0.0
 11
18.7497152682240085
 21
14.2842555517898102
 31
0.0
  0
LINE
  5
1286C
  8
0
 10
19.2502999208645598
 20
15.0384191810999805
 30
0.0
 11
19.2649616931644196
 21
15.1369993081999894
 31
0.0
  0
LINE
  5
1286D
  8
0
 10
19.2503507777642007
 20
14.3059557536999709
 30
0.0
 11
19.2546276191442303
 21
14.3362504219218998
 31
0.0
  0
LINE
  5
1286E
  8
0
 10
19.1250665811644502
 20
15.1486601098999891
 30
0.0
 11
19.1366943759644492
 21
15.2390610925999894
 31
0.0
  0
LINE
  5
1286F
  8
0
 10
18.5308681566643791
 20
15.1478290552999795
 30
0.0
 11
18.5460263398645111
 21
15.2224181113999695
 31
0.0
  0
LINE
  5
12870
  8
0
 10
18.7255744017643302
 20
15.15249727729997
 30
0.0
 11
18.7255772147641402
 21
15.15251165389998
 31
0.0
  0
LINE
  5
12871
  8
0
 10
18.7115297091645516
 20
15.0807464088999801
 30
0.0
 11
18.7255738134645107
 21
15.1524942716999895
 31
0.0
  0
ARC
  5
12872
  8
0
 10
21.6754655524641713
 20
9.8422388183999772
 30
0.0
 40
5.160563151299999
 50
116.2276101856793957
 51
116.8433468012567005
  0
ARC
  5
12873
  8
0
 10
23.5388668642881385
 20
14.3420040222886698
 30
0.0
 40
4.493364994518612
 50
181.1979187396142947
 51
186.6323508762156962
  0
ARC
  5
12874
  8
0
 10
23.0264284674644912
 20
13.8285814825999793
 30
0.0
 40
3.493358484999999
 50
152.0333108103932034
 51
152.6827594727917017
  0
ARC
  5
12875
  8
0
 10
23.006296699347331
 20
13.6238661671633796
 30
0.0
 40
3.4706075607717022
 50
152.0319839942974056
 51
153.4045660525463859
  0
ARC
  5
12876
  8
0
 10
22.9861343307643402
 20
17.0139030421999813
 30
0.0
 40
3.4479202326
 50
206.4564525064104998
 51
207.9724342715099965
  0
ARC
  5
12877
  8
0
 10
22.8979293579645891
 20
17.1199216775999901
 30
0.0
 40
3.421957321899999
 50
204.867599458097601
 51
206.2637353316704036
  0
ARC
  5
12878
  8
0
 10
22.9279482493020588
 20
17.1995833493524515
 30
0.0
 40
3.382632597911146
 50
204.8709446790267066
 51
207.9914166578664094
  0
ARC
  5
12879
  8
0
 10
22.8881409393643516
 20
16.9654216135999683
 30
0.0
 40
3.3385900571999998
 50
204.8647982432954961
 51
206.460805470892808
  0
ARC
  5
1287A
  8
0
 10
18.4839144122643084
 20
9.4036542790999817
 30
0.0
 40
0.7642807607
 50
292.6958211651505053
 51
352.1691997491028019
  0
ARC
  5
1287B
  8
0
 10
18.4692436071045414
 20
8.7503950262957915
 30
0.0
 40
0.6554154644203686
 50
55.7362015097633829
 51
61.7772519499547883
  0
ARC
  5
1287C
  8
0
 10
19.0469065382644587
 20
9.2409658007999838
 30
0.0
 40
0.0393700787
 50
270.0
 51
0.0
  0
ARC
  5
1287D
  8
0
 10
18.7153264311641614
 20
10.2568124906999802
 30
0.0
 40
0.2016844651
 50
6.2806366101994051
 51
13.3762621655339409
  0
ARC
  5
1287E
  8
0
 10
18.7189581390644015
 20
10.25724590459998
 30
0.0
 40
0.1980271427
 50
357.6936964592484856
 51
6.2709411890011459
  0
ARC
  5
1287F
  8
0
 10
18.7421453481642786
 20
10.3249837572999699
 30
0.0
 40
0.1903797715
 50
334.3823941221950804
 51
338.9902054004016918
  0
ARC
  5
12880
  8
0
 10
19.1338165647643983
 20
10.5746848363999693
 30
0.0
 40
0.0396659370000053
 50
157.3866355190891966
 51
179.9706990591533042
  0
ARC
  5
12881
  8
0
 10
19.1986411254756604
 20
10.5716318170169306
 30
0.0
 40
0.0393864916608369
 50
6.9764764319018608
 51
89.9796766042683487
  0
ARC
  5
12882
  8
0
 10
19.2109487584443706
 20
10.5847544632540007
 30
0.0
 40
0.0393722568702979
 50
9.8403331965493717
 51
89.9979859291823487
  0
ARC
  5
12883
  8
0
 10
19.0469065382644587
 20
10.6031705251999693
 30
0.0
 40
0.0393700787
 50
0.0
 51
90.0
  0
ARC
  5
12884
  8
0
 10
19.13352058364217
 20
10.5716484839167002
 30
0.0
 40
0.0393698228834864
 50
89.9998142686146139
 51
179.9981905733978067
  0
ARC
  5
12885
  8
0
 10
19.0823396091641406
 20
9.6189185566999811
 30
0.0
 40
0.0118110236
 50
289.4712208070567954
 51
0.0
  0
ARC
  5
12886
  8
0
 10
19.0823396091641406
 20
10.2252177693000004
 30
0.0
 40
0.0118110236
 50
0.0
 51
70.5287791929432757
  0
ARC
  5
12887
  8
0
 10
18.486545999391641
 20
12.3638854106044391
 30
0.0
 40
3.1078484388913892
 50
82.0906756349364173
 51
90.0485155987439754
  0
ARC
  5
12888
  8
0
 10
18.4865285914115702
 20
12.4011587739231004
 30
0.0
 40
3.0667364394067822
 50
81.9996780367426652
 51
90.0488407553549308
  0
ARC
  5
12889
  8
0
 10
18.4841753348641689
 20
12.37667978399997
 30
0.0
 40
3.0820202638
 50
87.2060071837923658
 51
90.0048507266236157
  0
ARC
  5
1288A
  8
0
 10
18.4953766784501603
 20
12.5580674403033701
 30
0.0
 40
2.9003031704298539
 50
80.9798018126491286
 51
87.2523581403400215
  0
ARC
  5
1288B
  8
0
 10
18.4840691588642585
 20
12.6871807909999994
 30
0.0
 40
3.3029970566000002
 50
87.0926806923874892
 51
90.0026844108265749
  0
ARC
  5
1288C
  8
0
 10
18.4361741485722597
 20
10.8312917543268803
 30
0.0
 40
5.3743075155338538
 50
85.4851347804531656
 51
89.4910318557265754
  0
ARC
  5
1288D
  8
0
 10
18.4885911528645011
 20
12.7760178998999798
 30
0.0
 40
3.214044933399999
 50
85.2921733829903843
 51
87.0928644713088431
  0
ARC
  5
1288E
  8
0
 10
18.4847884644641383
 20
12.9710674072999801
 30
0.0
 40
2.0660195293000001
 50
84.2863575980087205
 51
90.0242397406835551
  0
ARC
  5
1288F
  8
0
 10
18.523249137264429
 20
13.2867361368999699
 30
0.0
 40
1.7479024793999991
 50
78.366251686612685
 51
81.3810060928011438
  0
ARC
  5
12890
  8
0
 10
18.5555234313642288
 20
13.4482738975999894
 30
0.0
 40
1.5831752715
 50
76.319443715697119
 51
78.3313784045018195
  0
ARC
  5
12891
  8
0
 10
18.6171555680402889
 20
13.6933796629197104
 30
0.0
 40
1.330448151671344
 50
70.3018078338561452
 51
76.4018709877711473
  0
ARC
  5
12892
  8
0
 10
18.7211016540645687
 20
13.9900752319999793
 30
0.0
 40
1.0160804710999991
 50
65.9072206611923832
 51
70.1809902092888933
  0
ARC
  5
12893
  8
0
 10
18.4864152706159111
 20
13.1235291416315896
 30
0.0
 40
3.214215792011653
 50
83.2369174424399603
 51
90.0445797440042242
  0
ARC
  5
12894
  8
0
 10
18.4990419125078915
 20
13.1238972261755293
 30
0.0
 40
1.912530238146944
 50
81.3950774018290701
 51
84.2554230641295021
  0
ARC
  5
12895
  8
0
 10
18.506737156964391
 20
13.5172454667999808
 30
0.0
 40
1.3173972878999991
 50
79.6159301151025858
 51
82.7901580123091918
  0
ARC
  5
12896
  8
0
 10
18.48422682165846
 20
13.5735213985626597
 30
0.0
 40
0.9585861542819543
 50
269.9813266506997138
 51
277.6901657504593004
  0
ARC
  5
12897
  8
0
 10
19.5665475969317413
 20
14.9316817903435002
 30
0.0
 40
0.2453665432271173
 50
352.4526830112541234
 51
359.9999999999935199
  0
ARC
  5
12898
  8
0
 10
19.5921118422825202
 20
14.9201813619061401
 30
0.0
 40
0.2249635558723765
 50
342.441607281833285
 51
3.1038479109011941
  0
ARC
  5
12899
  8
0
 10
19.5651803329642391
 20
14.8916046657999992
 30
0.0
 40
0.244734043
 50
0.0183241429993722
 51
9.2679480317032326
  0
ARC
  5
1289A
  8
0
 10
19.5601977935643809
 20
14.7551029188999792
 30
0.0
 40
0.0216798591
 50
195.5219957728056102
 51
202.4294846206003058
  0
ARC
  5
1289B
  8
0
 10
19.2012944216644392
 20
14.7054547435999705
 30
0.0
 40
0.1636200374000649
 50
0.0433148443070984
 51
11.5114185684638795
  0
ARC
  5
1289C
  8
0
 10
19.2037725644645398
 20
14.7055787711999795
 30
0.0
 40
0.1611418478
 50
358.5715411956005028
 51
359.999881569700392
  0
ARC
  5
1289D
  8
0
 10
19.0268783996643798
 20
14.5681853146999707
 30
0.0
 40
0.122036013
 50
352.9739459108982942
 51
359.9957918281995148
  0
ARC
  5
1289E
  8
0
 10
19.1800285708645788
 20
14.7771410880999898
 30
0.0
 40
0.2063318773
 50
333.6136645319900254
 51
340.648774139552188
  0
ARC
  5
1289F
  8
0
 10
19.2149353069644313
 20
14.8676998940999798
 30
0.0
 40
0.1091264986
 50
257.0863602021838119
 51
260.2517062344118131
  0
ARC
  5
128A0
  8
0
 10
18.9777080838643997
 20
15.6089085406999803
 30
0.0
 40
1.2385246021
 50
295.3491137706935206
 51
298.1062209177787281
  0
ARC
  5
128A1
  8
0
 10
19.6326230103645685
 20
15.7841308304999703
 30
0.0
 40
0.2762097363
 50
348.0977012974839795
 51
0.6547988289995456
  0
ARC
  5
128A2
  8
0
 10
18.9652005391462808
 20
15.0546409948324005
 30
0.0
 40
0.0807709193448336
 50
262.9151334958648931
 51
277.5551112198161263
  0
ARC
  5
128A3
  8
0
 10
18.7941014162643114
 20
15.1492490745999895
 30
0.0
 40
0.9037387314000001
 50
82.1506780040075171
 51
87.8129508157046672
  0
ARC
  5
128A4
  8
0
 10
18.6740614545642494
 20
15.1482215282999793
 30
0.0
 40
0.0703277251
 50
117.2608243332712021
 51
143.5256354811872939
  0
ARC
  5
128A5
  8
0
 10
18.3606631376642291
 20
14.7095379311999697
 30
0.0
 40
0.4364157970000001
 50
65.6456869595136254
 51
71.3996051817679955
  0
ARC
  5
128A6
  8
0
 10
18.3782987516637988
 20
14.7456154588395805
 30
0.0
 40
0.3962779496854729
 50
55.3050358493162619
 51
65.8175532168246349
  0
ARC
  5
128A7
  8
0
 10
18.4849947881375485
 20
15.2346439926582793
 30
0.0
 40
0.0622440557701697
 50
348.6724023010427231
 51
32.0434299920195471
  0
ARC
  5
128A8
  8
0
 10
18.9604403929643013
 20
15.6800647589999702
 30
0.0
 40
1.3175466881999991
 50
294.4612576635960863
 51
297.514492411213098
  0
ARC
  5
128A9
  8
0
 10
18.7886149504429305
 20
15.0002270463965601
 30
0.0
 40
0.700207650363839
 50
277.2918586034684267
 51
282.7262322171978894
  0
ARC
  5
128AA
  8
0
 10
18.4837937288643808
 20
16.3873380275999807
 30
0.0
 40
2.120409943899999
 50
285.9829655993050892
 51
287.8748327896868204
  0
ARC
  5
128AB
  8
0
 10
18.4839622357644586
 20
16.3868601456
 30
0.0
 40
2.1199016574999989
 50
299.1645103246279973
 51
300.050246166477109
  0
ARC
  5
128AC
  8
0
 10
14.1219988785187507
 20
13.2472913757427992
 30
0.0
 40
4.9869197318572276
 50
357.1300299535369049
 51
6.629557964168435
  0
ARC
  5
128AD
  8
0
 10
14.3042010192739308
 20
9.9786761356048146
 30
0.0
 40
4.9833629094216016
 50
352.1671137416826127
 51
7.0635760434065507
  0
ARC
  5
128AE
  8
0
 10
20.1404917249642494
 20
49.7110162493999894
 30
0.0
 40
33.6842438043999977
 50
267.1810799232411
 51
267.7679339469062256
  0
ARC
  5
128AF
  8
0
 10
24.9571509190600409
 20
39.4075741715656065
 30
0.0
 40
24.1260646731603892
 50
255.7053178220793086
 51
256.5585618699007
  0
ARC
  5
128B0
  8
0
 10
25.2154954939642302
 20
25.2135153307999893
 30
0.0
 40
10.9995593553000006
 50
239.8600674392044994
 51
240.2410482511129999
  0
ARC
  5
128B1
  8
0
 10
25.0532956854644908
 20
25.1495564453
 30
0.0
 40
10.6766089989000008
 50
238.7884766809866051
 51
240.2528095513125947
  0
ARC
  5
128B2
  8
0
 10
25.0586688619064297
 20
25.0931487328110805
 30
0.0
 40
10.7597014427559792
 50
238.7891688782758877
 51
240.2520038976641104
  0
ARC
  5
128B3
  8
0
 10
25.010996209264249
 20
24.8637295626999801
 30
0.0
 40
10.5943822360999995
 50
238.7865141867036982
 51
239.8666606965961137
  0
LINE
  5
128B4
  8
0
 10
19.09426942256232
 20
10.5747030501010997
 30
0.0
 11
19.08627661706441
 21
10.5748424233482794
 31
0.0
  0
LINE
  5
128B5
  8
0
 10
18.9428656673653713
 20
14.3172208458705299
 30
0.0
 11
19.0676519028947915
 21
14.34889549399551
 31
0.0
  0
LINE
  5
128B6
  8
0
 10
19.5377415540074217
 20
14.5888982288586497
 30
0.0
 11
19.5357235877645508
 21
14.5856017183999995
 31
0.0
  0
LINE
  5
128B7
  8
0
 10
19.3632165428643894
 20
14.7032414611999798
 30
0.0
 11
19.36486433436448
 21
14.7015617100999805
 31
0.0
  0
ARC
  5
128B8
  8
0
 10
18.4861532711643086
 20
11.8726639982514204
 30
0.0
 40
0.095085804828652
 50
48.7910573192595791
 51
91.3491950344217258
  0
ARC
  5
128B9
  8
0
 10
18.5088497632477811
 20
11.9018341954956597
 30
0.0
 40
0.0582275443857564
 50
355.5439302595033269
 51
46.6821872212994506
  0
ARC
  5
128BA
  8
0
 10
18.4931282280613196
 20
11.9044540803703303
 30
0.0
 40
0.0741181518390669
 50
308.2855131542493154
 51
354.4689760676014885
  0
ARC
  5
128BB
  8
0
 10
18.4839300841094882
 20
11.9134305712555904
 30
0.0
 40
0.0868789148686605
 50
269.9896614203915988
 51
309.379190622371425
  0
ARC
  5
128BC
  8
0
 10
18.4845171594593012
 20
12.2165504111573302
 30
0.0
 40
0.089842538166725
 50
269.615600759225174
 51
339.4728948260407719
  0
ARC
  5
128BD
  8
0
 10
18.5079788085936308
 20
12.20764170512677
 30
0.0
 40
0.0647468158206404
 50
339.5757423632571204
 51
33.0941275358372522
  0
ARC
  5
128BE
  8
0
 10
18.4923631335145693
 20
12.1916845414874295
 30
0.0
 40
0.0866774550088652
 50
36.2965319809025502
 51
80.1009466293002674
  0
ARC
  5
128BF
  8
0
 10
18.4839924378438809
 20
12.1616435984539297
 30
0.0
 40
0.1177505152981683
 50
78.6012865634518363
 51
90.0379685025433645
  0
ARC
  5
128C0
  8
0
 10
18.4838868258093498
 20
12.5232054726993702
 30
0.0
 40
0.0959162141059305
 50
270.0164759782219903
 51
330.1236335429545079
  0
ARC
  5
128C1
  8
0
 10
18.5014443002965017
 20
12.5142132068698899
 30
0.0
 40
0.0762186736972248
 50
329.4104555586927745
 51
9.8733752784552902
  0
ARC
  5
128C2
  8
0
 10
18.5078749304052508
 20
12.5140090787757003
 30
0.0
 40
0.0699304437744627
 50
10.9416516279353608
 51
53.1546738599683906
  0
ARC
  5
128C3
  8
0
 10
18.4857060384092584
 20
12.4815054916358594
 30
0.0
 40
0.1092494227903565
 50
54.0725951948114911
 51
90.9396616456406264
  0
ARC
  5
128C4
  8
0
 10
18.4837024813245989
 20
12.8252658419161794
 30
0.0
 40
0.0998927639174325
 50
270.1215551859613129
 51
325.2627001363762247
  0
ARC
  5
128C5
  8
0
 10
18.4968452155276317
 20
12.8177010518867291
 30
0.0
 40
0.0847914355729563
 50
324.4028876226054763
 51
11.7768472680811307
  0
ARC
  5
128C6
  8
0
 10
18.5022568925382984
 20
12.8158133324754999
 30
0.0
 40
0.0799335062176595
 50
13.8936664384082
 51
59.6809721784079912
  0
ARC
  5
128C7
  8
0
 10
18.4850238083981786
 20
12.7869699221153894
 30
0.0
 40
0.1135318904304074
 50
59.5217429866107466
 51
90.5598867567221362
  0
ARC
  5
128C8
  8
0
 10
18.4835939194049388
 20
13.1344622881998099
 30
0.0
 40
0.0951693943746469
 50
270.1929469976175255
 51
320.9951831097420722
  0
ARC
  5
128C9
  8
0
 10
18.4946327368197601
 20
13.1289421051783695
 30
0.0
 40
0.0831593703050803
 50
319.1635568005971209
 51
23.6751136124553803
  0
ARC
  5
128CA
  8
0
 10
18.4871530678265117
 20
13.1176546515496302
 30
0.0
 40
0.0948260435569273
 50
28.1108964392993208
 51
91.9572138270343373
  0
ARC
  5
128CB
  8
0
 10
18.4832743587044206
 20
13.4590828808734599
 30
0.0
 40
0.0897773616689486
 50
270.4084816442006058
 51
332.47240512748931
  0
ARC
  5
128CC
  8
0
 10
18.4902128413941718
 20
13.457560948467
 30
0.0
 40
0.0829417905407518
 50
331.1893763682393796
 51
29.0729018721934516
  0
ARC
  5
128CD
  8
0
 10
18.4844187815660916
 20
13.4477285938966098
 30
0.0
 40
0.092963307042964
 50
32.6363581226740891
 51
90.3108608010047362
  0
ARC
  5
128CE
  8
0
 10
18.4834177334055312
 20
13.8009457744307404
 30
0.0
 40
0.0839603658413854
 50
270.3389396185380065
 51
330.1649572877128094
  0
ARC
  5
128CF
  8
0
 10
18.4972910693882113
 20
13.7959799857734406
 30
0.0
 40
0.0695037193690778
 50
328.0257366312278009
 51
36.9116936331347389
  0
ARC
  5
128D0
  8
0
 10
18.4863305710928216
 20
13.7800637681814901
 30
0.0
 40
0.0880409300235569
 50
40.9129239942393781
 51
91.5726022047276729
  0
ARC
  5
128D1
  8
0
 10
18.6603674593979996
 20
12.0577306708342995
 30
0.0
 40
0.0507025619321959
 50
182.8397815845916057
 51
238.6376147229208016
  0
ARC
  5
128D2
  8
0
 10
18.666556548570501
 20
12.0694232435313893
 30
0.0
 40
0.0639128843454766
 50
239.3553195969967078
 51
278.4260599608695088
  0
ARC
  5
128D3
  8
0
 10
18.6611417048693511
 20
12.0976182258157205
 30
0.0
 40
0.09260507842433
 50
279.1839413598025885
 51
318.5042668532723269
  0
ARC
  5
128D4
  8
0
 10
18.6603063690440614
 20
12.1011339246437295
 30
0.0
 40
0.0955827559169691
 50
317.2574531802140996
 51
345.812212002048625
  0
ARC
  5
128D5
  8
0
 10
18.6952097381563291
 20
12.0931011557046304
 30
0.0
 40
0.059780106995431
 50
345.0769787004800833
 51
23.9843038298620996
  0
ARC
  5
128D6
  8
0
 10
18.7109668569105416
 20
12.0922836090453494
 30
0.0
 40
0.0462718952606957
 50
32.8758667418565196
 51
84.0771576710323956
  0
ARC
  5
128D7
  8
0
 10
18.7072478289201101
 20
12.0348749716825996
 30
0.0
 40
0.1037816834692049
 50
85.3055026280774769
 51
125.0888266118078036
  0
ARC
  5
128D8
  8
0
 10
18.6945496665934989
 20
12.0460813089843306
 30
0.0
 40
0.0874017169255561
 50
122.4995204446058068
 51
156.6872547828997142
  0
ARC
  5
128D9
  8
0
 10
18.6696706633911091
 20
12.0576213189063992
 30
0.0
 40
0.0599916329086775
 50
157.4054849030142123
 51
182.2952647552764915
  0
ARC
  5
128DA
  8
0
 10
18.6897759276421311
 20
12.3596874178550706
 30
0.0
 40
0.0805648605337454
 50
130.5187463075010044
 51
179.7436051578528122
  0
ARC
  5
128DB
  8
0
 10
18.7182152006212092
 20
12.3322570866108094
 30
0.0
 40
0.1199542628783714
 50
96.2929717986605311
 51
132.3331285086935054
  0
ARC
  5
128DC
  8
0
 10
18.7137396560560809
 20
12.3902221200621305
 30
0.0
 40
0.0618772626055392
 50
57.1236353223267486
 51
98.0573024176111971
  0
ARC
  5
128DD
  8
0
 10
18.7212724818605203
 20
12.4060739561732607
 30
0.0
 40
0.0445334888264466
 50
8.1306337578477716
 51
54.1909864979089519
  0
ARC
  5
128DE
  8
0
 10
18.6781505901699312
 20
12.4026448517507504
 30
0.0
 40
0.0877485829851187
 50
322.9054050004323244
 51
6.3646906648265453
  0
ARC
  5
128DF
  8
0
 10
18.6629779514673793
 20
12.4072365775405693
 30
0.0
 40
0.1027669903180066
 50
286.174651339886509
 51
325.9669078329968102
  0
ARC
  5
128E0
  8
0
 10
18.6713243607564401
 20
12.3758095762863398
 30
0.0
 40
0.070262816385491
 50
245.7677009953104061
 51
286.7768455044164284
  0
ARC
  5
128E1
  8
0
 10
18.6653463564880404
 20
12.3630969779227904
 30
0.0
 40
0.0562172292990022
 50
183.1090619260299093
 51
246.0057354765563105
  0
ARC
  5
128E2
  8
0
 10
18.8912816123947813
 20
12.3206311591533808
 30
0.0
 40
0.0351828942569956
 50
76.1957285157023421
 51
109.0867758464736994
  0
ARC
  5
128E3
  8
0
 10
18.9079246904848297
 20
12.2705441056985691
 30
0.0
 40
0.0879610696689563
 50
108.6631551219389991
 51
127.7076318872996978
  0
ARC
  5
128E4
  8
0
 10
18.9325512720506595
 20
12.2368425502908398
 30
0.0
 40
0.1296911253583297
 50
127.2084778474099949
 51
157.9649176978336129
  0
ARC
  5
128E5
  8
0
 10
18.8636340812290584
 20
12.2638670145480795
 30
0.0
 40
0.055674982983434
 50
157.1359278649954092
 51
198.5006501492235884
  0
ARC
  5
128E6
  8
0
 10
18.839554958450659
 20
12.2567014401208993
 30
0.0
 40
0.0305782099199252
 50
200.0849519000641976
 51
243.5623278154897946
  0
ARC
  5
128E7
  8
0
 10
18.8406547831614191
 20
12.2614549561844797
 30
0.0
 40
0.035342387687421
 50
245.3971097131945101
 51
283.9440199708394061
  0
ARC
  5
128E8
  8
0
 10
18.8282714027541189
 20
12.3031495201775503
 30
0.0
 40
0.0788170033411533
 50
285.377102653514612
 51
311.9267922420291939
  0
ARC
  5
128E9
  8
0
 10
18.7850056383390402
 20
12.3355362153321302
 30
0.0
 40
0.1322434779639601
 50
316.5023427255272281
 51
348.355149424825413
  0
ARC
  5
128EA
  8
0
 10
18.8526725532633392
 20
12.3231786804475902
 30
0.0
 40
0.0634940563174122
 50
346.9517907335850282
 51
13.2426115008831307
  0
ARC
  5
128EB
  8
0
 10
18.8883416626140388
 20
12.3314345510607897
 30
0.0
 40
0.0268825554467869
 50
13.5294040200323202
 51
41.8194557979500985
  0
ARC
  5
128EC
  8
0
 10
18.8939272794573299
 20
12.3359241716184407
 30
0.0
 40
0.0197298937064539
 50
42.9187505424370173
 51
73.0585535941146844
  0
ARC
  5
128ED
  8
0
 10
18.9029220973525298
 20
12.6286212789761407
 30
0.0
 40
0.0426797535026963
 50
70.3176928733817164
 51
122.6014174371503032
  0
ARC
  5
128EE
  8
0
 10
18.9430791791987687
 20
12.5466940037884402
 30
0.0
 40
0.1337329437708071
 50
118.179083944837501
 51
138.3465939810747898
  0
ARC
  5
128EF
  8
0
 10
18.9416762701207517
 20
12.5458547696962608
 30
0.0
 40
0.1332516195632037
 50
137.6760376136093953
 51
156.3533905032064126
  0
ARC
  5
128F0
  8
0
 10
18.8885952938571791
 20
12.5677249189429503
 30
0.0
 40
0.0758659092688472
 50
155.4043175997192918
 51
185.1704936220313868
  0
ARC
  5
128F1
  8
0
 10
18.8548694272485591
 20
12.5651062941417706
 30
0.0
 40
0.0420434987833723
 50
185.7583986526088893
 51
216.3232097926162965
  0
ARC
  5
128F2
  8
0
 10
18.8472396980723715
 20
12.5600201163186398
 30
0.0
 40
0.0328862714333911
 50
217.0576124449615918
 51
255.4692799876268907
  0
ARC
  5
128F3
  8
0
 10
18.8491179198026586
 20
12.5745793954134193
 30
0.0
 40
0.0474865493586889
 50
257.6836020207808815
 51
298.3288020277764758
  0
ARC
  5
128F4
  8
0
 10
18.8230142701177101
 20
12.6220433740642797
 30
0.0
 40
0.1016541907208861
 50
298.5848792530043738
 51
326.9839729951784193
  0
ARC
  5
128F5
  8
0
 10
18.7912309360262917
 20
12.6458194567970796
 30
0.0
 40
0.1412843266979304
 50
325.9219053795372929
 51
349.5900934521573049
  0
ARC
  5
128F6
  8
0
 10
18.8585755711124001
 20
12.6348752100041093
 30
0.0
 40
0.0730841543686548
 50
348.4890643071685759
 51
14.2039963286158404
  0
ARC
  5
128F7
  8
0
 10
18.9043081016161487
 20
12.6463642507348499
 30
0.0
 40
0.0259307599868959
 50
14.3892011282606607
 51
59.940408374647383
  0
ARC
  5
128F8
  8
0
 10
18.6733969824267589
 20
12.70608623452509
 30
0.0
 40
0.0999776124477772
 50
271.4526540088406819
 51
335.3376742121064922
  0
ARC
  5
128F9
  8
0
 10
18.6736567404277594
 20
12.6726133668182097
 30
0.0
 40
0.0665115244022474
 50
218.4888740235753062
 51
271.9599566339987859
  0
ARC
  5
128FA
  8
0
 10
18.6740897448376018
 20
12.6695880921494108
 30
0.0
 40
0.0650211452037814
 50
153.3128006503685015
 51
216.164144563953414
  0
ARC
  5
128FB
  8
0
 10
18.71980353182607
 20
12.6464121989205793
 30
0.0
 40
0.1162739989244665
 50
110.1103267646103063
 51
153.2260456237771962
  0
ARC
  5
128FC
  8
0
 10
18.7183583480541493
 20
12.6634467343527302
 30
0.0
 40
0.0998825396700079
 50
81.6990530953841159
 51
112.6924810206757996
  0
ARC
  5
128FD
  8
0
 10
18.7263962549372991
 20
12.7125911953859791
 30
0.0
 40
0.0500998497282989
 50
29.727570571946611
 51
82.6810068730358552
  0
ARC
  5
128FE
  8
0
 10
18.7140426616688309
 20
12.7089768755058703
 30
0.0
 40
0.0626910904093166
 50
350.2129878295046979
 51
26.99641332958414
  0
ARC
  5
128FF
  8
0
 10
18.6747963929360594
 20
12.7137908835911997
 30
0.0
 40
0.1022026765832396
 50
331.0810983503919829
 51
351.2935557347079225
  0
ARC
  5
12900
  8
0
 10
18.598358518505389
 20
12.6495725335890299
 30
0.0
 40
0.0296115015420845
 50
298.5289961071503058
 51
321.6978601625194756
  0
ARC
  5
12901
  8
0
 10
18.7800849989280287
 20
12.6982294857365599
 30
0.0
 40
0.0373784721733235
 50
244.9437296552040095
 51
261.6624665848501081
  0
ARC
  5
12902
  8
0
 10
18.7037152999814715
 20
13.2937419710035201
 30
0.0
 40
0.0954625953557795
 50
117.5585060782319005
 51
172.1184209323978962
  0
ARC
  5
12903
  8
0
 10
18.7079362926738213
 20
13.2961352319158497
 30
0.0
 40
0.095417043140969
 50
84.3188971580508877
 51
120.4716719025964977
  0
ARC
  5
12904
  8
0
 10
18.7117924895228498
 20
13.3367784542523395
 30
0.0
 40
0.0545920354066611
 50
41.126704142068661
 51
84.123601319957956
  0
ARC
  5
12905
  8
0
 10
18.7030970945684203
 20
13.3328424653167001
 30
0.0
 40
0.063790198719947
 50
1.3902325437617951
 51
38.6519757058834585
  0
ARC
  5
12906
  8
0
 10
18.6643213114980391
 20
13.3357091844811997
 30
0.0
 40
0.1025556876423827
 50
328.1501089721542144
 51
359.2630493117590049
  0
ARC
  5
12907
  8
0
 10
18.6650605408003685
 20
13.3335081828100197
 30
0.0
 40
0.1007771635147623
 50
297.1560312905966157
 51
328.9913024912250989
  0
ARC
  5
12908
  8
0
 10
18.6753359074623404
 20
13.3108619864453903
 30
0.0
 40
0.075946870468287
 50
252.2381497266048029
 51
298.0563835660543077
  0
ARC
  5
12909
  8
0
 10
18.6724218682356913
 20
13.2985611333971292
 30
0.0
 40
0.0633509449996082
 50
204.710991459457091
 51
251.3541548340988072
  0
ARC
  5
1290A
  8
0
 10
18.6767549036453602
 20
13.3001060052553104
 30
0.0
 40
0.0679342410983184
 50
174.317658601782
 51
204.3668961755612941
  0
ARC
  5
1290B
  8
0
 10
18.7176751043148215
 20
13.0167775765347606
 30
0.0
 40
0.0597049073261497
 50
1.1621915936925331
 51
39.4621046676086209
  0
ARC
  5
1290C
  8
0
 10
18.6723912190532211
 20
13.01718929391199
 30
0.0
 40
0.1049795530174183
 50
322.5091402850417808
 51
0.4362235800124809
  0
ARC
  5
1290D
  8
0
 10
18.6717798279914788
 20
13.0131664334139696
 30
0.0
 40
0.103077842794279
 50
281.0254832386323187
 51
324.4906134317689066
  0
ARC
  5
1290E
  8
0
 10
18.6779888151691011
 20
12.9823695090906295
 30
0.0
 40
0.071662212091551
 50
236.268526404831789
 51
280.8618939217221282
  0
ARC
  5
1290F
  8
0
 10
18.6745506477600394
 20
12.9760197066050793
 30
0.0
 40
0.0644756319524735
 50
183.4060022633221934
 51
235.6760538015556108
  0
ARC
  5
12910
  8
0
 10
18.6993673885858698
 20
12.9745343448933603
 30
0.0
 40
0.0892093150495619
 50
130.4802763544500976
 51
181.5064049710834126
  0
ARC
  5
12911
  8
0
 10
18.7210428041239503
 20
12.9572925187549703
 30
0.0
 40
0.1165156602598591
 50
92.884221956808716
 51
133.0843646605607091
  0
ARC
  5
12912
  8
0
 10
18.719127947339981
 20
13.0119829566295895
 30
0.0
 40
0.0618038513638283
 50
43.7538017217459867
 51
93.6624905558411029
  0
ARC
  5
12913
  8
0
 10
18.5944954137417007
 20
13.2314826045035794
 30
0.0
 40
0.598022385622286
 50
287.5342336818239914
 51
312.7687078026980885
  0
ARC
  5
12914
  8
0
 10
18.7925048555243812
 20
13.0239932697276704
 30
0.0
 40
0.3112798947547356
 50
311.9467846033026035
 51
355.1358728597994059
  0
ARC
  5
12915
  8
0
 10
18.9108834434664388
 20
12.9482623588496608
 30
0.0
 40
0.0377155223727466
 50
66.1699627763740637
 51
109.8450730667723008
  0
ARC
  5
12916
  8
0
 10
18.9412784612973084
 20
12.8677801132337208
 30
0.0
 40
0.1237431858678083
 50
110.4322083180725969
 51
142.471795899403503
  0
ARC
  5
12917
  8
0
 10
18.9397063168980786
 20
12.8625441772340992
 30
0.0
 40
0.1257897090829698
 50
140.1435845251471903
 51
168.7242911429136996
  0
ARC
  5
12918
  8
0
 10
18.8770177394471794
 20
12.8744379026256901
 30
0.0
 40
0.0619884242239798
 50
168.175829072691613
 51
204.7265375801773928
  0
ARC
  5
12919
  8
0
 10
18.8551991189160617
 20
12.8648036651485995
 30
0.0
 40
0.0381422186484356
 50
205.2906764306046909
 51
254.0603445235931872
  0
ARC
  5
1291A
  8
0
 10
18.8565734323146899
 20
12.8752723227135597
 30
0.0
 40
0.0486106213196647
 50
255.891693176088296
 51
294.9377986314419786
  0
ARC
  5
1291B
  8
0
 10
18.835618385074671
 20
12.9194174278973701
 30
0.0
 40
0.0974760400401681
 50
295.1660062067873014
 51
324.166848483702779
  0
ARC
  5
1291C
  8
0
 10
18.7946970728035012
 20
12.9516617288380207
 30
0.0
 40
0.1495446209741639
 50
323.3297327938167882
 51
346.0404993971228009
  0
ARC
  5
1291D
  8
0
 10
18.8459355373988693
 20
12.9419975498777209
 30
0.0
 40
0.097533651037066
 50
344.2885793572244779
 51
9.4961793185807082
  0
ARC
  5
1291E
  8
0
 10
18.9009058169726814
 20
12.9508607174636303
 30
0.0
 40
0.0418556696228364
 50
9.9443385121822505
 51
34.6249014605360088
  0
ARC
  5
1291F
  8
0
 10
18.9136396573408092
 20
12.9592756219598204
 30
0.0
 40
0.0265975818155246
 50
35.2945409036180422
 51
62.0122267392113713
  0
ARC
  5
12920
  8
0
 10
18.9012268109709112
 20
13.2600144572296799
 30
0.0
 40
0.0357630569002007
 50
71.6386979540331197
 51
105.2298750951185013
  0
ARC
  5
12921
  8
0
 10
18.9185859499211801
 20
13.2039354077200208
 30
0.0
 40
0.0944542616162712
 50
106.4540494992437942
 51
137.4346639192903012
  0
ARC
  5
12922
  8
0
 10
18.9401093085225511
 20
13.1782557037984702
 30
0.0
 40
0.1277511145229537
 50
135.4814417621259963
 51
158.031729411152412
  0
ARC
  5
12923
  8
0
 10
18.9010100964715093
 20
13.1929766319245196
 30
0.0
 40
0.0859893776660088
 50
157.3822702965528038
 51
182.6875469401834096
  0
ARC
  5
12924
  8
0
 10
18.8659703005546291
 20
13.1908379265855995
 30
0.0
 40
0.0508902314047667
 50
182.132079167307495
 51
217.5063671600854036
  0
ARC
  5
12925
  8
0
 10
18.8547255213552489
 20
13.18315435899299
 30
0.0
 40
0.0372993356167693
 50
218.6602383766835942
 51
262.1740493437814052
  0
ARC
  5
12926
  8
0
 10
18.8549160067759587
 20
13.1987234270208909
 30
0.0
 40
0.0527846759538809
 50
264.270805489280292
 51
302.8832510947644892
  0
ARC
  5
12927
  8
0
 10
18.8282873929415402
 20
13.2392733290368501
 30
0.0
 40
0.1012956550407488
 50
303.0791985289379795
 51
331.4731540015856126
  0
ARC
  5
12928
  8
0
 10
18.8051255975519815
 20
13.2549385467070202
 30
0.0
 40
0.1291549682529734
 50
330.2744184885855816
 51
356.5936698056235059
  0
ARC
  5
12929
  8
0
 10
18.8714850308865607
 20
13.2525033474782692
 30
0.0
 40
0.0627862901580735
 50
355.2137945219818107
 51
27.1434986749543405
  0
ARC
  5
1292A
  8
0
 10
18.9026948907685401
 20
13.2675585392902899
 30
0.0
 40
0.0281577621969638
 50
28.8559832060057886
 51
69.6378493909337237
  0
ARC
  5
1292B
  8
0
 10
18.4959416672836596
 20
14.2469287677083702
 30
0.0
 40
0.8301757070942962
 50
274.6974081791659046
 51
292.1235098893138797
  0
ARC
  5
1292C
  8
0
 10
18.7914738872855196
 20
13.4945790512333303
 30
0.0
 40
0.0239155841581206
 50
315.6979486514067048
 51
348.4136459890564765
  0
ARC
  5
1292D
  8
0
 10
18.9230783565853891
 20
13.6013568605781305
 30
0.0
 40
0.0659545296979413
 50
253.9567263500125023
 51
264.325334304039302
  0
ARC
  5
1292E
  8
0
 10
18.6819449222057301
 20
13.8894708608652593
 30
0.0
 40
0.4244743501407994
 50
303.5532346767046761
 51
323.491734671168615
  0
ARC
  5
1292F
  8
0
 10
18.8076295972505214
 20
13.7981064785824099
 30
0.0
 40
0.2690997663922142
 50
323.2067154793576833
 51
5.3141674651582953
  0
ARC
  5
12930
  8
0
 10
18.7992995192980707
 20
13.5725384050246607
 30
0.0
 40
0.111067573941286
 50
324.210638630539222
 51
341.8667380194104908
  0
ARC
  5
12931
  8
0
 10
18.8258177922916694
 20
13.5524444952107501
 30
0.0
 40
0.0778096481144606
 50
299.7525848829773167
 51
324.7935145483871224
  0
ARC
  5
12932
  8
0
 10
18.8415820136483489
 20
13.5236336234703405
 30
0.0
 40
0.0449778003080012
 50
260.425027159487172
 51
300.5314939684756723
  0
ARC
  5
12933
  8
0
 10
18.841007423816329
 20
13.5147282914500906
 30
0.0
 40
0.0361125406120363
 50
223.7066659338694876
 51
258.9736018521729193
  0
ARC
  5
12934
  8
0
 10
18.8506971571077884
 20
13.5223628885586606
 30
0.0
 40
0.0484066666723302
 50
182.4328408689800938
 51
222.3141821260400945
  0
ARC
  5
12935
  8
0
 10
18.8896389212241012
 20
13.5239650850726605
 30
0.0
 40
0.0873813573472282
 50
150.0887878627426915
 51
182.3985739092690892
  0
ARC
  5
12936
  8
0
 10
18.9121442153696115
 20
13.5141396214789307
 30
0.0
 40
0.1118212077027145
 50
122.4983200584551071
 51
151.475303652446712
  0
ARC
  5
12937
  8
0
 10
18.8821811740062913
 20
13.5626045773189805
 30
0.0
 40
0.0548525017321456
 50
92.3361991133868116
 51
123.3005117076833983
  0
ARC
  5
12938
  8
0
 10
18.8802244400503696
 20
13.5908249377116004
 30
0.0
 40
0.0265880163824833
 50
48.4573684252032706
 51
90.6017206077133466
  0
ARC
  5
12939
  8
0
 10
18.8693777103180693
 20
13.5820572947327793
 30
0.0
 40
0.0404093004935549
 50
10.2549550371292302
 51
45.1889713107560809
  0
ARC
  5
1293A
  8
0
 10
18.8223040321404405
 20
13.5724476609378009
 30
0.0
 40
0.0884483221518367
 50
354.4122922966016063
 51
10.9517718269519104
  0
ARC
  5
1293B
  8
0
 10
18.7926919570559186
 20
13.5752524941089199
 30
0.0
 40
0.1181928304340422
 50
341.613285013662221
 51
354.4567956543202172
  0
ARC
  5
1293C
  8
0
 10
18.6973756796364796
 20
13.6714752013458298
 30
0.0
 40
0.0520460995033845
 50
4.7935423739637351
 51
40.2483342566346067
  0
ARC
  5
1293D
  8
0
 10
18.7010083743129982
 20
13.6729171368734193
 30
0.0
 40
0.0483578723368952
 50
41.7254236924831616
 51
78.3450932535875921
  0
ARC
  5
1293E
  8
0
 10
18.6955314399165182
 20
13.6363454225050607
 30
0.0
 40
0.0853060027742315
 50
79.7046944795929306
 51
121.4688390556823947
  0
ARC
  5
1293F
  8
0
 10
18.6963990299536817
 20
13.6260457552403995
 30
0.0
 40
0.09465738547822
 50
118.6610793109175006
 51
154.6348134212560126
  0
ARC
  5
12940
  8
0
 10
18.6712702712811698
 20
13.6381973416362108
 30
0.0
 40
0.0667459215153522
 50
154.8196383900929902
 51
194.9341891499175006
  0
ARC
  5
12941
  8
0
 10
18.6633772159566398
 20
13.6366421637474105
 30
0.0
 40
0.0587210952472061
 50
195.4527628333534892
 51
236.4967725867583965
  0
ARC
  5
12942
  8
0
 10
18.6644116886513984
 20
13.6361022695922998
 30
0.0
 40
0.0588533592810018
 50
235.366802601337298
 51
281.2568394117473076
  0
ARC
  5
12943
  8
0
 10
18.6620641099921087
 20
13.6586526237464891
 30
0.0
 40
0.0814552178723136
 50
279.7798266109415977
 51
319.0934999546769859
  0
ARC
  5
12944
  8
0
 10
18.6543291489429102
 20
13.67115173455886
 30
0.0
 40
0.0955863632964599
 50
316.4662421502609959
 51
342.9397450869968225
  0
ARC
  5
12945
  8
0
 10
18.6679336264505693
 20
13.6680499178801202
 30
0.0
 40
0.0816769678887891
 50
342.2200528474868975
 51
5.4620532143373302
  0
LINE
  5
12946
  8
0
 10
19.2247505996683685
 20
10.6011206468125394
 30
0.0
 11
19.2370159151632798
 21
10.6142617157801205
 31
0.0
  0
ARC
  5
12947
  8
0
 10
18.5869269626518907
 20
13.7413957261663899
 30
0.0
 40
2.146974833316162
 50
57.899634370101019
 51
92.7501261249827138
  0
LINE
  5
12948
  8
0
 10
19.2170990915856201
 20
14.6412545490521495
 30
0.0
 11
19.2176403581747692
 21
14.7539296101631408
 31
0.0
  0
LINE
  5
12949
  8
0
 10
19.0641886713001405
 20
14.8023032626420008
 30
0.0
 11
19.0630493667808913
 21
14.9114919841842894
 31
0.0
  0
LINE
  5
1294A
  8
0
 10
18.9439405032467185
 20
14.8471737212531103
 30
0.0
 11
18.9431616549750288
 21
14.9585288343848504
 31
0.0
  0
LINE
  5
1294B
  8
0
 10
19.3442183232386888
 20
14.6437023605620293
 30
0.0
 11
19.3436641165621914
 21
14.7129983499273393
 31
0.0
  0
ARC
  5
1294C
  8
0
 10
18.7369610209416315
 20
10.7955643285026195
 30
0.0
 40
0.2551266985264009
 50
318.8626615060127847
 51
350.6271571081458092
  0
ARC
  5
1294D
  8
0
 10
18.5579394892106393
 20
10.9750182859289396
 30
0.0
 40
0.5083079831420368
 50
282.8515505075291117
 51
316.9031380134172764
  0
ARC
  5
1294E
  8
0
 10
18.4851364243645513
 20
11.2138995534198802
 30
0.0
 40
0.7576086797646543
 50
269.9075823151507052
 51
284.2013150506596162
  0
ARC
  5
1294F
  8
0
 10
18.4959716783955592
 20
10.5748885744246195
 30
0.0
 40
0.5597840648180219
 50
268.765802374363318
 51
303.1646189677396137
  0
ARC
  5
12950
  8
0
 10
18.651977517177329
 20
10.3287225318378795
 30
0.0
 40
0.268406356468748
 50
304.0337610191697877
 51
334.1830319542248162
  0
ARC
  5
12951
  8
0
 10
18.7260623653937692
 20
10.28893006962298
 30
0.0
 40
0.1844207084356171
 50
335.2881847932071082
 51
356.6536939220457043
  0
ARC
  5
12952
  8
0
 10
18.5008969071745888
 20
10.4947189908305596
 30
0.0
 40
0.5269123029499515
 50
268.1530245310515852
 51
309.8094180623825764
  0
ARC
  5
12955
  8
0
 10
18.4989122856181893
 20
10.0958705084526592
 30
0.0
 40
0.4808665469841595
 50
268.2126964233717104
 51
314.8836539115097253
  0
ARC
  5
12956
  8
0
 10
18.1768393203869891
 20
9.5242868960850142
 30
0.0
 40
0.8496110388861811
 50
315.0348254530891836
 51
331.2693783549775048
  0
ARC
  5
12957
  8
0
 10
18.9619064010362308
 20
9.1301518212983694
 30
0.0
 40
0.0425171214357788
 50
199.6055862184726948
 51
265.1993959852837861
  0
ARC
  5
12958
  8
0
 10
19.2016022571947289
 20
9.1712394210038894
 30
0.0
 40
0.1077029194209823
 50
183.9147162300880041
 51
230.7930870144710127
  0
ARC
  5
12959
  8
0
 10
18.7668466053278316
 20
9.1520943437205347
 30
0.0
 40
0.1591805344401277
 50
346.851809749254528
 51
18.1180785031863003
  0
ARC
  5
1295A
  8
0
 10
19.184664836237971
 20
9.2860049808563172
 30
0.0
 40
0.0388383689898221
 50
269.1375198677865228
 51
349.9048352775291733
  0
ARC
  5
1295B
  8
0
 10
19.1331254621859408
 20
9.2861459877445327
 30
0.0
 40
0.0389769798260213
 50
180.6018621139209017
 51
270.5810226827554743
  0
ARC
  5
1295C
  8
0
 10
19.0777487499863092
 20
9.3159978494396682
 30
0.0
 40
0.0164108654510204
 50
301.3086171212509043
 51
358.1041931808929917
  0
ARC
  5
1295D
  8
0
 10
13.6533549015111895
 20
9.99158081979445
 30
0.0
 40
5.614921568041872
 50
352.7110512172321251
 51
5.9786159832361943
  0
ARC
  5
1295E
  8
0
 10
19.1341632930170817
 20
10.5745597989627491
 30
0.0
 40
0.0400340911816262
 50
90.9196876883303844
 51
157.4122479410897881
  0
ARC
  5
1295F
  8
0
 10
17.343869898794761
 20
10.6702889768326408
 30
0.0
 40
1.769754604306718
 50
332.0142714630017053
 51
340.7205817865378776
  0
ARC
  5
12960
  8
0
 10
18.2096148728805893
 20
10.3602238583616497
 30
0.0
 40
0.8502125086913578
 50
341.1807864885853974
 51
350.0004079289706738
  0
ARC
  5
12961
  8
0
 10
18.4243263575781384
 20
10.2953622653186301
 30
0.0
 40
0.6280633314187245
 50
352.4271576940975024
 51
7.5763264571084266
  0
ARC
  5
12962
  8
0
 10
18.7994104851418307
 20
10.3278591485456008
 30
0.0
 40
0.2525581721677244
 50
11.4905715349458699
 51
37.9745640694265134
  0
ARC
  5
12963
  8
0
 10
18.7836616084741692
 20
10.31019897692752
 30
0.0
 40
0.2758717111142099
 50
38.8532857205905415
 51
59.2417778841299878
  0
ARC
  5
12964
  8
0
 10
19.5615070736444103
 20
9.7465713705796873
 30
0.0
 40
0.6614369829822642
 50
166.4908815214471929
 51
171.8947409903412051
  0
ARC
  5
12965
  8
0
 10
18.8889416290103291
 20
10.0681045225864203
 30
0.0
 40
0.0495114117481073
 50
268.143499390499187
 51
306.4684567334483063
  0
ARC
  5
12966
  8
0
 10
18.9723958667823283
 20
10.0253483253638596
 30
0.0
 40
0.0541055684956203
 50
149.6240257864199918
 51
176.8852196998062141
  0
ARC
  5
12967
  8
0
 10
17.2414478249765999
 20
10.9789108267285407
 30
0.0
 40
1.9221384823942671
 50
331.1930077311341165
 51
337.0841446486278983
  0
ARC
  5
12968
  8
0
 10
18.7912369386303908
 20
10.3347729412419298
 30
0.0
 40
0.2440599571322077
 50
334.6996752873990886
 51
354.4562590781263225
  0
ARC
  5
12969
  8
0
 10
18.762006002427821
 20
10.3281586910970304
 30
0.0
 40
0.2726775177941758
 50
356.4333163447324182
 51
53.361443521085441
  0
ARC
  5
1296A
  8
0
 10
18.7511971040567005
 20
10.3194142337265706
 30
0.0
 40
0.1799435654961029
 50
339.6123752903292825
 51
23.4472341578122609
  0
ARC
  5
1296B
  8
0
 10
17.7457478205942607
 20
10.7585077880036106
 30
0.0
 40
1.2768942611913821
 50
328.8804953386328975
 51
336.1729017611492054
  0
ARC
  5
1296C
  8
0
 10
19.6157922432425913
 20
15.7232145610794891
 30
0.0
 40
0.2871293592439561
 50
0.4054813549754623
 51
24.71489072522321
  0
ARC
  5
1296D
  8
0
 10
19.242740364265039
 20
15.5081779091191798
 30
0.0
 40
0.7169984586228803
 50
27.8621559075877805
 51
41.2219981500828396
  0
ARC
  5
1296E
  8
0
 10
19.154992203548769
 20
15.3758160021977801
 30
0.0
 40
0.8712230456747395
 50
43.967639927932872
 51
68.6248845114645434
  0
ARC
  5
1296F
  8
0
 10
18.5430646016611718
 20
13.8437132102635001
 30
0.0
 40
2.5209955248505729
 50
68.3651879131879809
 51
91.344455982248931
  0
ARC
  5
12970
  8
0
 10
18.6139497137546606
 20
13.9879510978647108
 30
0.0
 40
2.3409217419819801
 50
68.9046234011035494
 51
83.8451286896124657
  0
ARC
  5
12971
  8
0
 10
19.1434440040111404
 20
15.3037820952667403
 30
0.0
 40
0.9229237235239018
 50
42.2479287552662726
 51
70.1719839526048617
  0
ARC
  5
12972
  8
0
 10
19.6205172309787486
 20
15.2634973950286508
 30
0.0
 40
0.2823985693123042
 50
0.179640996956511
 51
25.5419850670519502
  0
ARC
  5
12973
  8
0
 10
19.4943393703788388
 20
15.2030183015742093
 30
0.0
 40
0.4223219599853293
 50
25.5642398467204117
 51
44.1004278336296309
  0
ARC
  5
12974
  8
0
 10
18.9531980605561294
 20
14.6349746388682096
 30
0.0
 40
1.2066457622126441
 50
45.5884471130098419
 51
50.0605365708120331
  0
ARC
  5
12975
  8
0
 10
18.7508293483010711
 20
14.7835545976456295
 30
0.0
 40
1.1956656507842249
 50
77.0829112754339576
 51
89.9255610732026867
  0
ARC
  5
12976
  8
0
 10
17.9985646716213488
 20
10.9353972491428504
 30
0.0
 40
5.1143757670311674
 50
74.2705442399468581
 51
77.7371834932169889
  0
ARC
  5
12977
  8
0
 10
19.2555444866811705
 20
15.3465014393052002
 30
0.0
 40
0.5278828180275936
 50
59.8493183300507212
 51
75.7988786248156856
  0
ARC
  5
1297B
  8
0
 10
19.6411989025950788
 20
15.4464635134805199
 30
0.0
 40
0.246394953853197
 50
27.8624737715577204
 51
62.2718940946004267
  0
ARC
  5
1297C
  8
0
 10
19.8084912776898783
 20
15.3240871262048604
 30
0.0
 40
0.151104475894398
 50
331.2929337960998168
 51
28.7070684535710008
  0
ARC
  5
1297F
  8
0
 10
19.8771436403362713
 20
15.3735914843576893
 30
0.0
 40
0.0754035291108354
 50
287.877578046734186
 51
287.8859192165649006
  0
ARC
  5
12980
  8
0
 10
18.814521198176859
 20
15.2922234594375297
 30
0.0
 40
0.7593155527227619
 50
75.8451616477632058
 51
82.2037002618661035
  0
ARC
  5
12981
  8
0
 10
18.8000331071821201
 20
15.2828608236342802
 30
0.0
 40
0.9079932407615489
 50
77.1182042770179237
 51
86.2620917347211673
  0
ARC
  5
12982
  8
0
 10
17.6385932373013894
 20
9.8069204818901312
 30
0.0
 40
6.5056507455781762
 50
74.4777054293982417
 51
77.8985310551093306
  0
ARC
  5
12983
  8
0
 10
19.2562765468792314
 20
15.5669657863422799
 30
0.0
 40
0.5230648549809322
 50
59.6352691775094002
 51
76.3638329106293696
  0
ARC
  5
12984
  8
0
 10
19.6469352132289714
 20
15.6675268607763698
 30
0.0
 40
0.2386485701835232
 50
27.285697830445951
 51
62.84866996586684
  0
ARC
  5
12985
  8
0
 10
19.8085505806252513
 20
15.5394007356097692
 30
0.0
 40
0.1510524846103239
 50
331.2821130923737201
 51
28.7178591951223403
  0
ARC
  5
12988
  8
0
 10
19.6436199424415392
 20
15.5985727259925895
 30
0.0
 40
0.1707876802057918
 50
28.8230603386737592
 51
63.4890833212879784
  0
ARC
  5
12989
  8
0
 10
19.24398801917323
 20
15.4696353370788398
 30
0.0
 40
0.4842610054765279
 50
60.4097443501787765
 51
77.4742485445596287
  0
ARC
  5
1298C
  8
0
 10
18.4929953821201707
 20
14.9018641400429601
 30
0.0
 40
0.7834348196966954
 50
269.3358564627839087
 51
296.4310224687955042
  0
ARC
  5
1298D
  8
0
 10
18.656164137841639
 20
14.5891679916990107
 30
0.0
 40
0.4293817503510279
 50
307.6103339164986892
 51
313.691885752067094
  0
ARC
  5
1298E
  8
0
 10
19.5850478090501383
 20
14.9237803705297498
 30
0.0
 40
0.3178813239124243
 50
331.2522027193829217
 51
359.4485946118178958
  0
ARC
  5
1298F
  8
0
 10
19.3408575662456315
 20
15.0824062104479406
 30
0.0
 40
0.6086503175226321
 50
300.3514235829471204
 51
329.2156244868651811
  0
ARC
  5
12990
  8
0
 10
18.56475719864466
 20
12.9253122789549995
 30
0.0
 40
2.5410000769638388
 50
75.9696805434732454
 51
82.0954474091187336
  0
ARC
  5
12991
  8
0
 10
18.7951120994903214
 20
13.7736395597535708
 30
0.0
 40
1.662229800758712
 50
62.8301602896331772
 51
76.583877479481302
  0
ARC
  5
12992
  8
0
 10
19.1994076900127801
 20
14.5511560019374997
 30
0.0
 40
0.785907335453479
 50
45.7772736437190915
 51
63.1689663965119408
  0
ARC
  5
12993
  8
0
 10
19.4671773687141503
 20
14.8251461053634408
 30
0.0
 40
0.4028016931199988
 50
23.8322697139801214
 51
45.8908727106812222
  0
ARC
  5
12994
  8
0
 10
19.5954056444065792
 20
14.8843222797551906
 30
0.0
 40
0.2616066705471694
 50
355.4285986012981198
 51
23.324505945558851
  0
ARC
  5
12995
  8
0
 10
19.5571967775649718
 20
14.8944858959405302
 30
0.0
 40
0.3005875743268595
 50
325.1815031724214009
 51
354.0777956027728806
  0
ARC
  5
12996
  8
0
 10
19.323750273246791
 20
15.0672195319076803
 30
0.0
 40
0.590927536523478
 50
303.4326829118344904
 51
324.3558399827929861
  0
ARC
  5
12997
  8
0
 10
18.5961749904208702
 20
13.1354683640831507
 30
0.0
 40
2.3243219879798298
 50
71.4655772864137191
 51
82.156924320068569
  0
ARC
  5
12998
  8
0
 10
18.6140815493754417
 20
13.2568846325663401
 30
0.0
 40
2.191530732490433
 50
70.6678703313421295
 51
81.180444684544625
  0
ARC
  5
12999
  8
0
 10
18.9845643714361287
 20
14.2727901681508307
 30
0.0
 40
1.110340067574846
 50
53.2084152132468802
 51
71.3533832056102568
  0
ARC
  5
1299A
  8
0
 10
19.3718918731087797
 20
14.7884699914025308
 30
0.0
 40
0.465402847588454
 50
30.353101103904951
 51
53.3728439992772508
  0
ARC
  5
1299B
  8
0
 10
19.5278679230505112
 20
14.88329181518918
 30
0.0
 40
0.2829066906112016
 50
9.7125171181585728
 51
29.744426825197511
  0
ARC
  5
1299C
  8
0
 10
18.9737318410220688
 20
14.2286591838812306
 30
0.0
 40
1.167863217765212
 50
53.4441157119671217
 51
71.9795767404189775
  0
ARC
  5
1299D
  8
0
 10
19.5595774538210208
 20
14.9118768329174696
 30
0.0
 40
0.2579825486036604
 50
4.5544267496887763
 51
34.6492475102317883
  0
ARC
  5
1299E
  8
0
 10
19.3869476308505
 20
14.7967302879441398
 30
0.0
 40
0.4654754052831747
 50
34.2278059620235524
 51
52.6537954560519026
  0
ARC
  5
1299F
  8
0
 10
19.54320180472223
 20
14.9301191265880409
 30
0.0
 40
0.2687168791379599
 50
0.3331928493452221
 51
13.5704173999379698
  0
ARC
  5
129A0
  8
0
 10
19.5466352164735291
 20
14.8940619992408205
 30
0.0
 40
0.2632898956940867
 50
334.3887560545471729
 51
359.4822735293244023
  0
ARC
  5
129A1
  8
0
 10
19.3725725978269985
 20
14.9924268962298299
 30
0.0
 40
0.4629656343743488
 50
307.1243686513197986
 51
332.7227932625041262
  0
ARC
  5
129A2
  8
0
 10
18.4863066336383817
 20
13.3751496149636697
 30
0.0
 40
1.47739245320227
 50
80.002291600193459
 51
90.092774619213003
  0
ARC
  5
129A3
  8
0
 10
18.5747709106772092
 20
13.8470876283971904
 30
0.0
 40
0.9972762815152144
 50
68.2605642825428589
 51
80.3003744267045931
  0
ARC
  5
129A4
  8
0
 10
18.7800098758107197
 20
14.3364995715575905
 30
0.0
 40
0.4667487584891074
 50
49.2063998961508275
 51
69.4109195895011197
  0
ARC
  5
129A5
  8
0
 10
18.9408681090158098
 20
14.5250151108484697
 30
0.0
 40
0.2189395578225519
 50
28.5147279347173885
 51
48.844374060356273
  0
ARC
  5
129A6
  8
0
 10
19.0151902758998403
 20
14.5667130764487602
 30
0.0
 40
0.1337321420625
 50
0.6269335266687338
 51
28.0179453873818183
  0
ARC
  5
129A7
  8
0
 10
18.9091833848397002
 20
14.5970346461062395
 30
0.0
 40
0.2427938083944744
 50
335.3208490495014189
 51
349.6124933139366817
  0
ARC
  5
129A8
  8
0
 10
18.90132625577235
 20
14.6234136998764601
 30
0.0
 40
0.2617663519564096
 50
300.4474337391283143
 51
330.7876935812487886
  0
ARC
  5
129A9
  8
0
 10
18.6770198128797311
 20
14.9807985358854108
 30
0.0
 40
0.6836427030227356
 50
287.5081334165708995
 51
301.4757828612275716
  0
ARC
  5
129AA
  8
0
 10
18.4963983285315408
 20
15.6000056788244894
 30
0.0
 40
1.3285770647057471
 50
269.4616145852248792
 51
286.9031143156302051
  0
ARC
  5
129AB
  8
0
 10
18.9815906013372988
 20
14.5561381051560392
 30
0.0
 40
0.1623419204467573
 50
348.5425408748993732
 51
359.1440599688402813
  0
ARC
  5
129AC
  8
0
 10
18.9992102777232503
 20
14.5495968222584793
 30
0.0
 40
0.1447626599803831
 50
1.629356027653228
 51
38.2512901759084798
  0
ARC
  5
129AD
  8
0
 10
18.8447651736828412
 20
14.4198040438580808
 30
0.0
 40
0.3464625082991553
 50
39.2945078521169791
 51
62.8619199977724108
  0
ARC
  5
129AE
  8
0
 10
18.6014508614962288
 20
13.9423456492281996
 30
0.0
 40
0.882342859989539
 50
62.9436342056540994
 51
80.6900324402173794
  0
ARC
  5
129AF
  8
0
 10
18.485101620615751
 20
13.3369801426474606
 30
0.0
 40
1.498953069817913
 50
82.8344781673005741
 51
90.0453798790883155
  0
ARC
  5
129B0
  8
0
 10
18.4839659722747385
 20
15.2339597179700892
 30
0.0
 40
0.0634791868985758
 50
32.0742736177703378
 51
90.0465419525230146
  0
ARC
  5
129B1
  8
0
 10
18.488542120968301
 20
14.6412322306192593
 30
0.0
 40
0.3554734082662768
 50
269.2540765764240973
 51
281.0647748927971179
  0
ARC
  5
129B2
  8
0
 10
18.4867831037299801
 20
13.9491895183317602
 30
0.0
 40
0.3788525016667423
 50
80.6740615762229538
 51
90.4338515852144837
  0
ARC
  5
129B3
  8
0
 10
18.5297101530854889
 20
14.2043757441504592
 30
0.0
 40
0.1200870773077618
 50
68.7032839855421003
 51
81.1543286534169681
  0
ARC
  5
129B4
  8
0
 10
18.5432374106103417
 20
14.3671994352683896
 30
0.0
 40
0.0760453697689282
 50
280.2460949467320006
 51
296.058184515949506
  0
ARC
  5
129B5
  8
0
 10
18.5625442170175994
 20
14.2885992801057302
 30
0.0
 40
0.0296897336217137
 50
52.2263884247623409
 51
68.7073124948219203
  0
ARC
  5
129B6
  8
0
 10
18.5691252851224817
 20
14.3150456796801908
 30
0.0
 40
0.0178243653644307
 50
294.945786287578585
 51
319.5063437151584935
  0
ARC
  5
129B7
  8
0
 10
18.5746464495500696
 20
14.3041687000813909
 30
0.0
 40
0.0099699885326936
 50
31.0521878975324412
 51
52.3937052691893399
  0
ARC
  5
129B8
  8
0
 10
18.5789832379978215
 20
14.3067345357798406
 30
0.0
 40
0.0049313185426692
 50
318.565678721359518
 51
31.5035851845103991
  0
ARC
  5
129B9
  8
0
 10
18.4896840058659109
 20
14.6343704472445708
 30
0.0
 40
0.2390536755551382
 50
268.6170229842687149
 51
294.7164815725159883
  0
ARC
  5
129BA
  8
0
 10
18.5627639517178906
 20
14.4735960627746199
 30
0.0
 40
0.0624570043484124
 50
295.4865344121319026
 51
327.0833702717956726
  0
ARC
  5
129BB
  8
0
 10
18.5930016108441087
 20
14.4530373430552004
 30
0.0
 40
0.025914837885737
 50
328.9111776507972991
 51
23.8820103257562693
  0
ARC
  5
129BC
  8
0
 10
18.5643495878089198
 20
14.4347630812650607
 30
0.0
 40
0.0597310834968938
 50
28.7894174646461209
 51
62.5703446282891278
  0
ARC
  5
129BD
  8
0
 10
18.4909598045337589
 20
14.2796492267195294
 30
0.0
 40
0.2313005040125583
 50
64.1349709360650024
 51
91.7454953910386877
  0
ARC
  5
129BE
  8
0
 10
18.4959635495770307
 20
14.6348315870571906
 30
0.0
 40
0.1949646698128629
 50
266.4567671918326255
 51
305.1283831817514738
  0
ARC
  5
129BF
  8
0
 10
18.4824425835863586
 20
14.6036533644241597
 30
0.0
 40
0.1525188610191088
 50
66.2490079529067941
 51
89.4470808018964476
  0
ARC
  5
129C0
  8
0
 10
18.5096990719989591
 20
14.6683446524101306
 30
0.0
 40
0.0823361865148951
 50
41.8308860546557995
 51
65.4784824663334035
  0
ARC
  5
129C1
  8
0
 10
18.5356776893827409
 20
14.6903208787066699
 30
0.0
 40
0.0483317507510329
 50
6.0855875734118143
 51
42.9585512053234027
  0
ARC
  5
129C2
  8
0
 10
18.5397609865244704
 20
14.6918259449811295
 30
0.0
 40
0.0441247293796238
 50
329.5175819045850858
 51
4.7042459448985854
  0
ARC
  5
129C3
  8
0
 10
18.5151324540725
 20
14.7084992934576295
 30
0.0
 40
0.0738310042867695
 50
300.1281780886864112
 51
328.0620200358525835
  0
ARC
  5
129C4
  8
0
 10
18.4858879778075789
 20
14.7630828254793602
 30
0.0
 40
0.1357357203278318
 50
269.166901427867117
 51
299.2401168203609245
  0
ARC
  5
129C5
  8
0
 10
18.4848024591001412
 20
14.7913583006949807
 30
0.0
 40
0.1204317185752907
 50
269.577502742432273
 51
320.3457720064532168
  0
ARC
  5
129C6
  8
0
 10
18.8948190776936791
 20
14.70034373362782
 30
0.0
 40
0.2014560744454392
 50
283.7241639540521874
 51
307.6063389633131919
  0
ARC
  5
129C7
  8
0
 10
18.8943537389968697
 20
14.6583495994108208
 30
0.0
 40
0.1611083099830525
 50
253.7279177648653956
 51
287.4307143889943177
  0
ARC
  5
129C8
  8
0
 10
18.9872945574788901
 20
14.4660245682583692
 30
0.0
 40
0.080691060578666
 50
67.8220440272440612
 51
85.4212389745436838
  0
ARC
  5
129C9
  8
0
 10
18.9815002381114901
 20
14.3128656117564805
 30
0.0
 40
0.2339127387829492
 50
87.0015223862727254
 51
113.8529822165112932
  0
ARC
  5
129CA
  8
0
 10
18.4932933543541296
 20
13.1532357366128796
 30
0.0
 40
1.8683232472781299
 50
76.9156404788620307
 51
90.2876249224325136
  0
ARC
  5
129CB
  8
0
 10
18.8972375958037411
 20
14.9476298464793107
 30
0.0
 40
0.0317488596473629
 50
339.5589596873321057
 51
53.2031664535865474
  0
ARC
  5
129CC
  8
0
 10
18.8779113737523403
 20
14.9538390879228906
 30
0.0
 40
0.0520350202175776
 50
317.0664516737408007
 51
340.5844643907287264
  0
ARC
  5
129CD
  8
0
 10
18.955025852817009
 20
14.8812348293085108
 30
0.0
 40
0.0538819515295282
 50
136.3962194564790025
 51
163.4059373341966932
  0
ARC
  5
129CE
  8
0
 10
18.9316454568397603
 20
14.8875463938524
 30
0.0
 40
0.0296794394820429
 50
162.1925669158439973
 51
220.9587631783448956
  0
ARC
  5
129CF
  8
0
 10
18.9363338964453689
 20
14.8927956371971906
 30
0.0
 40
0.0366718444755138
 50
222.3506567639190905
 51
248.477279979049797
  0
ARC
  5
129D0
  8
0
 10
18.9065122571969297
 20
14.8001890706275905
 30
0.0
 40
0.0607387291380809
 50
59.3769840659501185
 51
74.3667114182959352
  0
ARC
  5
129D1
  8
0
 10
18.9238844187129907
 20
14.8286472458452998
 30
0.0
 40
0.0274039944622168
 50
0.7359796051233224
 51
60.3245017042388909
  0
ARC
  5
129D2
  8
0
 10
18.97520583216237
 20
14.8174565837682
 30
0.0
 40
0.0250877143590624
 50
180.0515680933779095
 51
236.8881292010040909
  0
ARC
  5
129D3
  8
0
 10
18.9867720689544512
 20
14.8359231580569695
 30
0.0
 40
0.0468754772509766
 50
237.3769235139093041
 51
264.3975507226575132
  0
ARC
  5
129D4
  8
0
 10
18.9902772015207084
 20
14.8736305405468805
 30
0.0
 40
0.0847451496185638
 50
264.5279091332562871
 51
287.0339891429280783
  0
ARC
  5
129D5
  8
0
 10
19.2441439388899198
 20
14.1531287398932193
 30
0.0
 40
0.6792550748879586
 50
107.9650061936799972
 51
109.7060851123416967
  0
ARC
  5
129D6
  8
0
 10
19.057884654383539
 20
14.7185390662303899
 30
0.0
 40
0.0840083910641868
 50
85.942795832949443
 51
106.0650244197488945
  0
ARC
  5
129D7
  8
0
 10
19.0609287992033387
 20
14.7585544669487607
 30
0.0
 40
0.0438783724658632
 50
64.0772790335502975
 51
86.210913872540516
  0
ARC
  5
129D8
  8
0
 10
19.0699698363337085
 20
14.7764758821213
 30
0.0
 40
0.0238096143792572
 50
32.2391852842048365
 51
64.791689528567602
  0
ARC
  5
129D9
  8
0
 10
19.0734590192328106
 20
14.7791670221938904
 30
0.0
 40
0.0194271935608033
 50
359.505641551527674
 51
31.015382469132561
  0
ARC
  5
129DA
  8
0
 10
19.0615378387092314
 20
14.7802202057622196
 30
0.0
 40
0.0313714134211527
 50
323.5795698262833184
 51
357.7698002767398862
  0
ARC
  5
129DB
  8
0
 10
19.1162044420066195
 20
14.7399159840359708
 30
0.0
 40
0.0365466864570365
 50
143.6168736280156111
 51
171.2895290567954021
  0
ARC
  5
129DC
  8
0
 10
19.0986720548780795
 20
14.7427860917169298
 30
0.0
 40
0.0187827411505404
 50
171.8443351834501129
 51
225.5489411699554978
  0
ARC
  5
129DD
  8
0
 10
19.1086363037184093
 20
14.7562976242101307
 30
0.0
 40
0.035483741537204
 50
229.344910092377404
 51
267.4763226011716029
  0
ARC
  5
129DE
  8
0
 10
19.1134073218063314
 20
14.8067608971179503
 30
0.0
 40
0.0861457325578557
 50
265.7838019603374278
 51
286.2256833144463144
  0
ARC
  5
129DF
  8
0
 10
19.1622540797561598
 20
14.6344345821901207
 30
0.0
 40
0.0929738188596365
 50
89.964485719968593
 51
105.4549909762993991
  0
ARC
  5
129E0
  8
0
 10
19.164130045794991
 20
14.6903611555331395
 30
0.0
 40
0.037091824255846
 50
59.4058235970455328
 51
92.8099133648423589
  0
ARC
  5
129E1
  8
0
 10
19.1751929730930897
 20
14.7090724229093706
 30
0.0
 40
0.0153547617342194
 50
0.3292757129600513
 51
59.4048004201838893
  0
ARC
  5
129E2
  8
0
 10
19.1633929889894716
 20
14.7108054817511196
 30
0.0
 40
0.0272042620105624
 50
324.6477988932350058
 51
356.5336847645942271
  0
ARC
  5
129E3
  8
0
 10
19.0557262420434199
 20
14.8011086025645895
 30
0.0
 40
0.1676529430546833
 50
312.5853077442421863
 51
320.763846135236804
  0
ARC
  5
129E4
  8
0
 10
19.2028948612382884
 20
14.6456103373741104
 30
0.0
 40
0.0465285320854628
 50
136.4453139654389133
 51
153.6073171428309081
  0
ARC
  5
129E5
  8
0
 10
19.1792736482552684
 20
14.6569553506547496
 30
0.0
 40
0.0203291021288446
 50
152.6557375585784939
 51
183.727254599574394
  0
ARC
  5
129E6
  8
0
 10
19.1725863077385803
 20
14.6571061255105501
 30
0.0
 40
0.0136782313045526
 50
186.17922160790161
 51
233.9406310874765893
  0
ARC
  5
129E7
  8
0
 10
19.1812433709938013
 20
14.6702991434621008
 30
0.0
 40
0.029449311762288
 50
235.4336027487638887
 51
265.4755523622466171
  0
ARC
  5
129E8
  8
0
 10
19.1866951033848601
 20
14.7133320410495703
 30
0.0
 40
0.0728067543674048
 50
263.8698584549554198
 51
275.0287016616366031
  0
ARC
  5
129E9
  8
0
 10
19.2082828442999016
 20
14.5405742066566006
 30
0.0
 40
0.1013781843515649
 50
89.3395085341107347
 51
98.626443175181052
  0
ARC
  5
129EA
  8
0
 10
19.2091690273923597
 20
14.5961612420121298
 30
0.0
 40
0.0457852842943857
 50
73.4596502941062255
 51
89.6465350253006505
  0
ARC
  5
129EB
  8
0
 10
19.2174675004603088
 20
14.6224653028200997
 30
0.0
 40
0.0182131794511787
 50
39.2753715496539684
 51
74.927539523151836
  0
ARC
  5
129EC
  8
0
 10
19.2155328223757316
 20
14.6237337868018606
 30
0.0
 40
0.0190361600803951
 50
13.5710067031373303
 51
32.6186129956308406
  0
ARC
  5
129ED
  8
0
 10
19.2460472163843406
 20
14.6347585632184707
 30
0.0
 40
0.0136835688414964
 50
208.6368422631207977
 51
250.1254260345401121
  0
ARC
  5
129EE
  8
0
 10
19.2549990218399216
 20
14.6599641239705196
 30
0.0
 40
0.0404314186085883
 50
250.338434263786894
 51
272.3229388247460179
  0
ARC
  5
129EF
  8
0
 10
19.2483255580223087
 20
14.7477683870279392
 30
0.0
 40
0.1284716429745061
 50
273.7096762798698251
 51
295.2923080852611974
  0
ARC
  5
129F0
  8
0
 10
19.3699189523767892
 20
14.4862798871208405
 30
0.0
 40
0.1599095885126998
 50
105.2548075324738051
 51
114.6545236298419042
  0
ARC
  5
129F1
  8
0
 10
19.3558682358466285
 20
14.5389289680225602
 30
0.0
 40
0.1054190886320134
 50
96.3447425230356203
 51
105.4162127306522052
  0
ARC
  5
129F2
  8
0
 10
19.3502546514214409
 20
14.5939134593837991
 30
0.0
 40
0.0501534838118432
 50
81.6616650331488643
 51
96.9127126390757354
  0
ARC
  5
129F3
  8
0
 10
19.3549016669580816
 20
14.6253503742704503
 30
0.0
 40
0.0183750284255828
 50
57.1674847827376169
 51
81.7831664097921163
  0
ARC
  5
129F4
  8
0
 10
18.9126901218901295
 20
14.9147085535135808
 30
0.0
 40
0.0533735078872289
 50
55.1862094880722012
 51
72.2789927506108967
  0
ARC
  5
129F5
  8
0
 10
18.9320013470910418
 20
14.9416624696856104
 30
0.0
 40
0.0202244092676866
 50
24.0879615358167598
 51
56.5077850060950766
  0
ARC
  5
129F6
  8
0
 10
18.9118948327309191
 20
14.9409164539828794
 30
0.0
 40
0.0396059949238692
 50
350.4269336930286158
 51
13.1350976572111193
  0
ARC
  5
129F7
  8
0
 10
18.9741156933860111
 20
14.9461976238515906
 30
0.0
 40
0.0260293742792754
 50
207.1254838500987034
 51
246.0115593320855965
  0
ARC
  5
129F8
  8
0
 10
19.0042678330160015
 20
15.0086384116942195
 30
0.0
 40
0.0953599377020256
 50
244.7122123272405929
 51
265.425395254068917
  0
ARC
  5
129F9
  8
0
 10
19.0101223569717988
 20
15.0518195358336904
 30
0.0
 40
0.1388910378255006
 50
264.4386439015369206
 51
275.8539313096821957
  0
ARC
  5
129FA
  8
0
 10
19.0367868084417715
 20
14.7891215893821997
 30
0.0
 40
0.1251568435785364
 50
77.8871896121597587
 51
95.7312998265065147
  0
ARC
  5
129FB
  8
0
 10
19.0495408195606615
 20
14.8455763138257701
 30
0.0
 40
0.0672856332868609
 50
61.4440483830943691
 51
78.4183483159859946
  0
ARC
  5
129FC
  8
0
 10
19.0699515573687712
 20
14.8819690257266704
 30
0.0
 40
0.0255689179780887
 50
34.7049556891703617
 51
62.6350519614641783
  0
ARC
  5
129FD
  8
0
 10
19.0812399272463082
 20
14.8901274740840108
 30
0.0
 40
0.0116471556619836
 50
0.9477063616244789
 51
33.3275317036700898
  0
ARC
  5
129FE
  8
0
 10
19.1779089676065304
 20
14.8175450391660206
 30
0.0
 40
0.0126462291752854
 50
2.001528220105139
 51
41.4850489696326576
  0
ARC
  5
129FF
  8
0
 10
19.1608228485315486
 20
14.8011586848988603
 30
0.0
 40
0.0363132720939824
 50
42.9955460507054994
 51
69.4215664946982116
  0
ARC
  5
12A00
  8
0
 10
19.1408273131323803
 20
14.7528870424077905
 30
0.0
 40
0.0885503568509226
 50
68.2874266720509837
 51
82.160425000746514
  0
ARC
  5
12A01
  8
0
 10
19.1137309626710703
 20
14.4651648630244196
 30
0.0
 40
0.377483174705129
 50
84.0432093814240346
 51
87.7852397278098664
  0
ARC
  5
12A02
  8
0
 10
19.1340818561061496
 20
14.9369619676662602
 30
0.0
 40
0.0947712952117628
 50
244.2342744315012908
 51
266.513737794060205
  0
ARC
  5
12A03
  8
0
 10
19.1832294922992297
 20
14.6759136560274595
 30
0.0
 40
0.0852677945652926
 50
66.1989362476141991
 51
81.0750477855931564
  0
ARC
  5
12A04
  8
0
 10
19.2023248422010511
 20
14.7183565274731905
 30
0.0
 40
0.0387299527700055
 50
47.1369243675774001
 51
66.7063503573613872
  0
ARC
  5
12A05
  8
0
 10
19.2157586476828293
 20
14.73323440327664
 30
0.0
 40
0.0186884256934783
 50
29.7898517467049118
 51
46.297084127432143
  0
ARC
  5
12A06
  8
0
 10
19.220351058681441
 20
14.7359405732631501
 30
0.0
 40
0.0133585736403917
 50
17.1664019257245712
 51
29.5026711145950706
  0
ARC
  5
12A07
  8
0
 10
19.2477861369125094
 20
14.7432101652072394
 30
0.0
 40
0.0150440660217196
 50
192.7759729565179896
 51
205.5444575135753098
  0
ARC
  5
12A08
  8
0
 10
19.2525030369333692
 20
14.7463571782105607
 30
0.0
 40
0.0206726168532491
 50
207.7772931780199883
 51
231.4585806960739092
  0
ARC
  5
12A09
  8
0
 10
19.2729443631078503
 20
14.7743765246283392
 30
0.0
 40
0.0553442816601149
 50
232.9805470275269101
 51
254.3293004423146044
  0
ARC
  5
12A0A
  8
0
 10
19.2916964508704005
 20
14.83733288088081
 30
0.0
 40
0.1210301963006436
 50
253.8321993706221917
 51
269.2016257468715139
  0
ARC
  5
12A0B
  8
0
 10
19.2929666666455013
 20
14.8556023651816798
 30
0.0
 40
0.1393193071950458
 50
268.7839805530157946
 51
273.5959991600639114
  0
ARC
  5
12A0C
  8
0
 10
19.3130791436228684
 20
14.6015347960963897
 30
0.0
 40
0.1155835818891502
 50
74.6560134721320168
 51
95.6474562612102659
  0
ARC
  5
12A0D
  8
0
 10
19.332227744231659
 20
14.6656107076114797
 30
0.0
 40
0.0487481205416238
 50
50.528659497854882
 51
76.4318781996739318
  0
ARC
  5
12A0E
  8
0
 10
18.7494251367684193
 20
14.6743159861208294
 30
0.0
 40
0.3426697827584999
 50
271.405080785316386
 51
290.9335221558554849
  0
ARC
  5
12A0F
  8
0
 10
18.7518957791862704
 20
14.4912745390157607
 30
0.0
 40
0.1596355514784098
 50
258.9249482162509253
 51
272.1295466294996004
  0
ARC
  5
12A10
  8
0
 10
18.7296581923801604
 20
14.3781396413247293
 30
0.0
 40
0.0443360040566253
 50
241.4421003085411996
 51
259.0423319688563879
  0
ARC
  5
12A11
  8
0
 10
18.7142961332756386
 20
14.3507643186747202
 30
0.0
 40
0.0129539091446145
 50
206.8585408746673977
 51
243.239684978374413
  0
ARC
  5
12A12
  8
0
 10
18.7099150186086192
 20
14.3479777381693303
 30
0.0
 40
0.0078029265007041
 50
159.7446282705546992
 51
203.1357618157593095
  0
ARC
  5
12A13
  8
0
 10
18.7205131580008093
 20
14.3432672207683005
 30
0.0
 40
0.0193909827228323
 50
133.4671212382747001
 51
157.5277517550343873
  0
ARC
  5
12A14
  8
0
 10
18.7630060631681701
 20
14.2913028509093696
 30
0.0
 40
0.0864770202738313
 50
113.2593751519132041
 51
130.2133996085501906
  0
ARC
  5
12A15
  8
0
 10
18.8320237954599108
 20
14.1277199510776601
 30
0.0
 40
0.2640223638990972
 50
102.7151137570564998
 51
113.001237471067796
  0
ARC
  5
12A16
  8
0
 10
18.8539117580812707
 20
14.0452222887247107
 30
0.0
 40
0.3493291085435668
 50
89.9415409478040146
 51
103.2388535135138028
  0
ARC
  5
12A17
  8
0
 10
18.8545218681101687
 20
14.2557219309867609
 30
0.0
 40
0.1388295162402848
 50
77.0818736705742396
 51
90.1046988648249112
  0
ARC
  5
12A18
  8
0
 10
18.8764033791430812
 20
14.3520450866614606
 30
0.0
 40
0.0400529829492255
 50
60.7579224434556195
 51
76.7869642956353715
  0
ARC
  5
12A19
  8
0
 10
18.8338250389761015
 20
14.4497251822185397
 30
0.0
 40
0.1027579073672758
 50
291.7217867430763931
 51
305.2675510521423234
  0
ARC
  5
12A1A
  8
0
 10
18.8807428777727111
 20
14.3850592093443801
 30
0.0
 40
0.022890796983915
 50
302.8415890955777741
 51
335.2822102456404991
  0
ARC
  5
12A1B
  8
0
 10
18.8943992570662012
 20
14.3784135688828698
 30
0.0
 40
0.007713675148699
 50
337.7070247421463023
 51
21.9651174914481402
  0
ARC
  5
12A1C
  8
0
 10
18.8902292009620396
 20
14.3757811707622807
 30
0.0
 40
0.0125965459086557
 50
25.9781126739149002
 51
62.8908443283775966
  0
ARC
  5
12A1D
  8
0
 10
18.7467375631231299
 20
14.7344453098080805
 30
0.0
 40
0.356498006800384
 50
270.1710990043557103
 51
287.5555517038907283
  0
ARC
  5
12A1E
  8
0
 10
18.9377046009917613
 20
14.4016137377906794
 30
0.0
 40
0.1350986106813457
 50
112.0859211407231015
 51
130.921704176575588
  0
ARC
  5
12A1F
  8
0
 10
18.8797855920861402
 20
14.4664952871275396
 30
0.0
 40
0.0481518547293094
 50
129.4166163931461995
 51
158.5905750949685
  0
ARC
  5
12A20
  8
0
 10
18.8517636003311893
 20
14.4779214456785006
 30
0.0
 40
0.0178972789905386
 50
159.8995351734990038
 51
218.6961106087827886
  0
ARC
  5
12A21
  8
0
 10
18.8666987688657102
 20
14.4932456830025291
 30
0.0
 40
0.0392221221248577
 50
222.5304194694284945
 51
257.6122134225363993
  0
ARC
  5
12A22
  8
0
 10
18.8897638187572703
 20
14.5873908559242391
 30
0.0
 40
0.136143451773241
 50
256.6310174574658731
 51
274.7792456232307927
  0
ARC
  5
12A23
  8
0
 10
18.88281587801157
 20
14.6949749000618795
 30
0.0
 40
0.2439408464406059
 50
274.3001445627476187
 51
289.7409247309306011
  0
ARC
  5
12A24
  8
0
 10
18.9132147650789193
 20
14.6229113937349098
 30
0.0
 40
0.1658997882825262
 50
288.2655023274438122
 51
308.7831565681676125
  0
ARC
  5
12A25
  8
0
 10
18.9862075128021388
 20
14.5332599371978404
 30
0.0
 40
0.0502991880321243
 50
307.9355670026619123
 51
337.5414597978273719
  0
ARC
  5
12A26
  8
0
 10
19.0152532514111883
 20
14.5206943445676604
 30
0.0
 40
0.0186632990914863
 50
339.1278188141183136
 51
22.6866386602981507
  0
ARC
  5
12A27
  8
0
 10
19.0090996401927406
 20
14.5159816404267605
 30
0.0
 40
0.0262328682678331
 50
27.0036665267954383
 51
70.7365494104642636
  0
ARC
  5
12A28
  8
0
 10
18.8507508614397885
 20
14.65407506546617
 30
0.0
 40
0.0514766648709971
 50
314.0604066144697981
 51
356.1680785855475051
  0
ARC
  5
12A29
  8
0
 10
18.7897442907396908
 20
14.7160244351455294
 30
0.0
 40
0.1384209674648977
 50
283.0234082187557192
 51
314.3746361916757905
  0
ARC
  5
12A2A
  8
0
 10
18.7785290502556492
 20
14.7328331275642501
 30
0.0
 40
0.1574865414906871
 50
258.259084386031077
 51
285.6215431693755136
  0
ARC
  5
12A2B
  8
0
 10
18.7587016396951185
 20
14.6444487801346099
 30
0.0
 40
0.066932008350915
 50
224.7784198635629025
 51
259.4812049451218741
  0
ARC
  5
12A2C
  8
0
 10
18.7357293091499706
 20
14.6202828241850096
 30
0.0
 40
0.0336178009976212
 50
180.4244861529890898
 51
223.1200160661927043
  0
ARC
  5
12A2D
  8
0
 10
18.7479961685326089
 20
14.6181796681031209
 30
0.0
 40
0.0459211831195689
 50
141.0806016970520034
 51
177.686020184471289
  0
ARC
  5
12A2E
  8
0
 10
18.8112776079537909
 20
14.5610432268831307
 30
0.0
 40
0.131134910691339
 50
105.6900657895348985
 51
139.0271440947637132
  0
ARC
  5
12A2F
  8
0
 10
18.8274203021997018
 20
14.5260791906304991
 30
0.0
 40
0.1692711002936293
 50
84.8255934311183637
 51
107.7504460954175016
  0
ARC
  5
12A30
  8
0
 10
18.8345876487783208
 20
14.5969846613837095
 30
0.0
 40
0.0980109968548418
 50
64.4507326534450016
 51
85.2601404541986625
  0
ARC
  5
12A31
  8
0
 10
18.8553415108021909
 20
14.6395012979174606
 30
0.0
 40
0.0507024690117664
 50
38.3260596793550974
 51
64.8887016717906704
  0
ARC
  5
12A32
  8
0
 10
18.868984935809749
 20
14.6505836287680893
 30
0.0
 40
0.033127548415441
 50
0.0886594614357418
 51
37.9226406901133117
  0
ARC
  5
12A33
  8
0
 10
18.8004164407225289
 20
14.7433991287495303
 30
0.0
 40
0.1172835345865134
 50
287.5637547440912272
 51
322.8032738267633022
  0
ARC
  5
12A34
  8
0
 10
18.7747747722746716
 20
14.8000132807356106
 30
0.0
 40
0.1791475737628106
 50
272.5103019808324234
 51
289.9189737783461851
  0
ARC
  5
12A35
  8
0
 10
18.7754446776875703
 20
14.7468656846475294
 30
0.0
 40
0.1260325523795335
 50
253.2432372908023126
 51
273.2643187626885037
  0
ARC
  5
12A36
  8
0
 10
18.755784429248699
 20
14.6859306228790008
 30
0.0
 40
0.0620294664977774
 50
222.4894386029523048
 51
254.4046471093909076
  0
ARC
  5
12A37
  8
0
 10
18.7611033376965715
 20
14.4979706535304391
 30
0.0
 40
0.1639758113407494
 50
85.8412338780472339
 51
103.7324628977667942
  0
ARC
  5
12A38
  8
0
 10
18.7661109429686803
 20
14.5306435355461208
 30
0.0
 40
0.1310520973175897
 50
70.1161606079267443
 51
86.9889426708788989
  0
ARC
  5
12A39
  8
0
 10
18.7954356477052897
 20
14.6069529662026394
 30
0.0
 40
0.0493448539043581
 50
41.7479897987054613
 51
72.0004979110257324
  0
ARC
  5
12A3A
  8
0
 10
18.8190588652369115
 20
14.6292215245957795
 30
0.0
 40
0.0169155248909841
 50
8.0254351583258003
 51
38.7506924376984401
  0
ARC
  5
12A3B
  8
0
 10
18.7636181807629292
 20
14.5606022435903206
 30
0.0
 40
0.097513164471194
 50
67.7356373519378536
 51
91.4925411646276245
  0
ARC
  5
12A3C
  8
0
 10
18.7588046976943588
 20
14.5567710701670006
 30
0.0
 40
0.1013367620550457
 50
88.7144128050894949
 51
110.393726595500496
  0
ARC
  5
12A3D
  8
0
 10
18.732579924739639
 20
14.6283837503588892
 30
0.0
 40
0.0250770089204013
 50
111.2478621376250061
 51
146.3429448772596118
  0
ARC
  5
12A3E
  8
0
 10
18.7993859336688693
 20
14.6363420321242703
 30
0.0
 40
0.0125715400633287
 50
9.6430868948834192
 51
46.7334349963142017
  0
ARC
  5
12A3F
  8
0
 10
18.801085400985361
 20
14.6373261382473991
 30
0.0
 40
0.0107531115189008
 50
321.6035704703930946
 51
5.9879376596710783
  0
ARC
  5
12A40
  8
0
 10
18.7873786106201806
 20
14.6490245174081792
 30
0.0
 40
0.0287688750848998
 50
292.3707357995214124
 51
320.2987217911672246
  0
ARC
  5
12A41
  8
0
 10
18.5099909313257704
 20
14.1960665951604792
 30
0.0
 40
0.021422597772807
 50
311.0482134020717808
 51
348.5638558238666178
  0
ARC
  5
12A42
  8
0
 10
18.4970367018195212
 20
14.2128974069013605
 30
0.0
 40
0.0426419502309298
 50
283.1071283365786826
 51
309.32383100813081
  0
ARC
  5
12A43
  8
0
 10
18.4843888518112216
 20
14.2614067941958602
 30
0.0
 40
0.0927651036783161
 50
269.7069611835376008
 51
283.9210563423721965
  0
ARC
  5
12A44
  8
0
 10
18.4845869727109786
 20
14.2088588513034306
 30
0.0
 40
0.0331391405296218
 50
268.8370912961228782
 51
288.9859654144356114
  0
ARC
  5
12A45
  8
0
 10
18.4846714518512307
 20
14.1548073644771595
 30
0.0
 40
0.032378774604063
 50
70.1095677482075956
 51
91.3397480517383826
  0
ARC
  5
12A46
  8
0
 10
18.4925640187043392
 20
14.1860591591857901
 30
0.0
 40
0.008985442578934
 50
288.1856352674113282
 51
314.6276029061011741
  0
ARC
  5
12A47
  8
0
 10
18.4925294477639
 20
14.1766437377823706
 30
0.0
 40
0.0091716711533485
 50
48.3709920333940886
 51
69.8596896374210843
  0
ARC
  5
12A48
  8
0
 10
18.4971812742492112
 20
14.1814779083476008
 30
0.0
 40
0.0024823434611951
 50
313.064028308972695
 51
54.5154833597168889
  0
ARC
  5
12A49
  8
0
 10
18.7177394490140614
 20
14.2109589244493808
 30
0.0
 40
0.0199456295710367
 50
309.7306737982543154
 51
350.0793008480246726
  0
ARC
  5
12A4A
  8
0
 10
18.7062307797996183
 20
14.2260641385031708
 30
0.0
 40
0.0389268205556505
 50
286.0210759320611942
 51
308.5470222642499039
  0
ARC
  5
12A4B
  8
0
 10
18.6888145796224308
 20
14.2863327485494498
 30
0.0
 40
0.101661380962393
 50
271.6721191867899847
 51
286.080912347787887
  0
ARC
  5
12A4C
  8
0
 10
18.6866528877249003
 20
14.2105150481162603
 30
0.0
 40
0.0255202934149601
 50
298.9068178696007863
 51
347.106334627554304
  0
ARC
  5
12A4D
  8
0
 10
18.6693184356567983
 20
14.2407515220360992
 30
0.0
 40
0.0603713419584563
 50
276.9535629787202993
 51
299.4371540492808776
  0
ARC
  5
12A4E
  8
0
 10
18.6646027146775815
 20
14.2661789655714397
 30
0.0
 40
0.0861975649591046
 50
255.6891654950946986
 51
278.0189205366090732
  0
ARC
  5
12A4F
  8
0
 10
18.6546386384111393
 20
14.2283806099979397
 30
0.0
 40
0.0471102189569243
 50
235.0319347857061132
 51
256.068379940020975
  0
ARC
  5
12A50
  8
0
 10
18.6416085564264904
 20
14.2101483372061299
 30
0.0
 40
0.0247026482119991
 50
192.455614578046692
 51
235.5619436085210054
  0
ARC
  5
12A51
  8
0
 10
18.6645079732452288
 20
14.1802975493401409
 30
0.0
 40
0.0217143087822821
 50
43.6941189798860989
 51
136.3017268215866125
  0
ARC
  5
12A52
  8
0
 10
18.6645090608262691
 20
14.2102979541214705
 30
0.0
 40
0.021713218234573
 50
223.6911071724672126
 51
316.3047386290157874
  0
ARC
  5
12A53
  8
0
 10
18.8901326791019493
 20
14.22677790336874
 30
0.0
 40
0.0241411963887848
 50
296.1878174898445195
 51
348.2474891386373201
  0
ARC
  5
12A54
  8
0
 10
18.8657858349556591
 20
14.2793034924485998
 30
0.0
 40
0.0820306051549857
 50
266.5388082688527902
 51
295.2569704679871734
  0
ARC
  5
12A55
  8
0
 10
18.8615583903683692
 20
14.2666844633466798
 30
0.0
 40
0.0692657394210797
 50
246.5013692019645077
 51
269.4003236840555928
  0
ARC
  5
12A56
  8
0
 10
18.8430492452112013
 20
14.22555990479378
 30
0.0
 40
0.0241784366299381
 50
194.6475488935537044
 51
247.8680991447336908
  0
ARC
  5
12A57
  8
0
 10
18.8674497965062109
 20
14.1918907173326492
 30
0.0
 40
0.0242578998431724
 50
50.9842088847347696
 51
131.9527567624643893
  0
ARC
  5
12A58
  8
0
 10
18.8665020092780615
 20
14.2288624244705808
 30
0.0
 40
0.0243214715768054
 50
231.1119238349099874
 51
311.825041812290408
  0
ARC
  5
12A59
  8
0
 10
19.0270278565526496
 20
14.2629305676561504
 30
0.0
 40
0.0244850075536476
 50
309.440066221771815
 51
347.533914466674787
  0
ARC
  5
12A5A
  8
0
 10
19.0091291190274205
 20
14.2899235354350402
 30
0.0
 40
0.0567993333276708
 50
273.1836769324834222
 51
306.0842530811751772
  0
ARC
  5
12A5B
  8
0
 10
19.0037637286163807
 20
14.3148485248481201
 30
0.0
 40
0.082080035734518
 50
252.7643892755411912
 51
275.9579990532819807
  0
ARC
  5
12A5C
  8
0
 10
18.9905128160526111
 20
14.2741813423984905
 30
0.0
 40
0.0393174420077033
 50
227.3710523135810888
 51
253.6476936133109916
  0
ARC
  5
12A5D
  8
0
 10
18.9799808611442096
 20
14.2625036125545197
 30
0.0
 40
0.0235932916410986
 50
191.8835819807949861
 51
226.983031995044513
  0
ARC
  5
12A5E
  8
0
 10
19.0039137866497185
 20
14.2331393118044502
 30
0.0
 40
0.0217026176038359
 50
43.6613759737187266
 51
136.3338392075359877
  0
ARC
  5
12A5F
  8
0
 10
19.0039150386637594
 20
14.2631237789993595
 30
0.0
 40
0.021713946236954
 50
223.6926872924395013
 51
316.3025278887952823
  0
ARC
  5
12A60
  8
0
 10
19.1050092295717988
 20
14.2725519922220805
 30
0.0
 40
0.0203020547700061
 50
313.6835846630128231
 51
352.6489488999333162
  0
ARC
  5
12A61
  8
0
 10
19.0920776806551586
 20
14.2877371148716694
 30
0.0
 40
0.0402309571430316
 50
287.1652138133215999
 51
312.0650205764467842
  0
ARC
  5
12A62
  8
0
 10
19.0734314717551605
 20
14.3435230633644704
 30
0.0
 40
0.0990443145249863
 50
254.2684845962205031
 51
287.9471595450797281
  0
ARC
  5
12A63
  8
0
 10
19.0804315126170003
 20
14.2342073905560902
 30
0.0
 40
0.0266650726533392
 50
58.4691127001576021
 51
129.5497110506981073
  0
ARC
  5
12A64
  8
0
 10
19.0773963820288301
 20
14.2775095584962006
 30
0.0
 40
0.026675896567065
 50
238.485718391226186
 51
309.5331053595824073
  0
ARC
  5
12A65
  8
0
 10
19.227357208194011
 20
14.3099111392824891
 30
0.0
 40
0.0233312947923482
 50
306.4511627245427121
 51
350.2394289177444193
  0
ARC
  5
12A66
  8
0
 10
19.2056266796744204
 20
14.3450461113102392
 30
0.0
 40
0.0645928280955416
 50
275.0014531718813942
 51
303.4376369941363123
  0
ARC
  5
12A67
  8
0
 10
19.1999413005119095
 20
14.3669795010150096
 30
0.0
 40
0.0870192690209705
 50
254.6595597482462949
 51
277.4723429392979028
  0
ARC
  5
12A68
  8
0
 10
19.1863550192983894
 20
14.3176200412844405
 30
0.0
 40
0.0358241657092354
 50
230.0377365227788005
 51
254.7299042204745092
  0
ARC
  5
12A69
  8
0
 10
19.1774607182223917
 20
14.3067744177099598
 30
0.0
 40
0.021799196103864
 50
194.2824528943608868
 51
229.6467278880317906
  0
ARC
  5
12A6A
  8
0
 10
19.2046997081611117
 20
14.27568589643613
 30
0.0
 40
0.0237931510515165
 50
51.3281764593563494
 51
134.2199922539984982
  0
ARC
  5
12A6B
  8
0
 10
19.2029741665933216
 20
14.3112972803897396
 30
0.0
 40
0.0237806947724663
 50
231.3016696588364027
 51
314.24649905452128
  0
ARC
  5
12A6C
  8
0
 10
19.3033015685291502
 20
14.36238926158242
 30
0.0
 40
0.0249269153704539
 50
304.58479414445668
 51
347.3333925255922168
  0
ARC
  5
12A6D
  8
0
 10
19.2571375365419009
 20
14.3620023116744999
 30
0.0
 40
0.024099372288251
 50
192.1663611923709993
 51
230.242468477298587
  0
ARC
  5
12A6E
  8
0
 10
19.28644589884561
 20
14.3889670297130294
 30
0.0
 40
0.0563887171657887
 50
276.448905083106979
 51
303.3560911647373928
  0
ARC
  5
12A6F
  8
0
 10
19.2807168034805692
 20
14.4153004755612493
 30
0.0
 40
0.0832439578596759
 50
251.7353671632151872
 51
278.3318116212548716
  0
ARC
  5
12A70
  8
0
 10
19.2678314430268109
 20
14.3749622093240195
 30
0.0
 40
0.0409016313732295
 50
230.3368136926771115
 51
251.1665077784153084
  0
ARC
  5
12A71
  8
0
 10
19.2805998183930605
 20
14.3324419024146099
 30
0.0
 40
0.0216858244105057
 50
43.6137640650817673
 51
136.3799951135594029
  0
ARC
  5
12A72
  8
0
 10
19.2806014500520213
 20
14.3624015595473207
 30
0.0
 40
0.0217137589862437
 50
223.6910673616822862
 51
316.302691720410678
  0
ARC
  5
12A73
  8
0
 10
19.4184776525744383
 20
14.3876838808632499
 30
0.0
 40
0.0228533439533066
 50
306.3740379139974266
 51
353.3324948870856019
  0
ARC
  5
12A74
  8
0
 10
19.3951052386328193
 20
14.4228580202606
 30
0.0
 40
0.0650673882689331
 50
278.7012776670442804
 51
304.576013011038583
  0
ARC
  5
12A75
  8
0
 10
19.3866389661679897
 20
14.4480056463506497
 30
0.0
 40
0.0913205219870055
 50
258.0718799055484283
 51
281.5662559288526836
  0
ARC
  5
12A76
  8
0
 10
19.371519831539441
 20
14.3840436115165708
 30
0.0
 40
0.0256629241283639
 50
200.9744601411588008
 51
261.5853864617008071
  0
ARC
  5
12A77
  8
0
 10
19.3976316190523903
 20
14.3499325752491096
 30
0.0
 40
0.0250128164822316
 50
57.9201711387571478
 51
134.5039786006157101
  0
ARC
  5
12A78
  8
0
 10
19.3933822296203289
 20
14.3889722391010295
 30
0.0
 40
0.025018260807564
 50
237.9300145339107928
 51
314.4941352054613048
  0
ARC
  5
12A79
  8
0
 10
19.4763078180026206
 20
14.4376993279927603
 30
0.0
 40
0.0241381740675522
 50
304.2329154060176961
 51
351.0935269962919847
  0
ARC
  5
12A7A
  8
0
 10
19.4546689327053208
 20
14.4713513285908508
 30
0.0
 40
0.064141806095986
 50
275.3722983260694832
 51
303.3028893270781055
  0
ARC
  5
12A7B
  8
0
 10
19.4488343735297313
 20
14.4931430145562707
 30
0.0
 40
0.0864662082078947
 50
257.288765992582114
 51
277.8703334535700264
  0
ARC
  5
12A7C
  8
0
 10
19.4335640936028504
 20
14.4375561145341393
 30
0.0
 40
0.0290043077850092
 50
199.7097478535110042
 51
262.5603592156410855
  0
ARC
  5
12A7D
  8
0
 10
19.4549673082342416
 20
14.4041390735397403
 30
0.0
 40
0.0230379196473816
 50
50.6371500297342365
 51
136.8956043630591068
  0
ARC
  5
12A7E
  8
0
 10
19.4527674978257892
 20
14.4375553370421397
 30
0.0
 40
0.0229372661517722
 50
230.4011733768037118
 51
317.1315810160086812
  0
ARC
  5
12A7F
  8
0
 10
19.4387764685802686
 20
14.4963000116525507
 30
0.0
 40
0.0252365481717564
 50
192.8662457783979107
 51
236.8358885199924089
  0
ARC
  5
12A80
  8
0
 10
19.4843563400804705
 20
14.4959410736511494
 30
0.0
 40
0.024432647616137
 50
309.7617409961828798
 51
347.5661942921452123
  0
ARC
  5
12A81
  8
0
 10
19.4675728187207788
 20
14.5205303770305001
 30
0.0
 40
0.0541431711739492
 50
276.3636225113453975
 51
306.7702980221183111
  0
ARC
  5
12A82
  8
0
 10
19.46128818491934
 20
14.5400308064513997
 30
0.0
 40
0.0743323305746767
 50
240.7528830904541906
 51
279.5135825450582274
  0
ARC
  5
12A83
  8
0
 10
19.4627283082682005
 20
14.6306292726735592
 30
0.0
 40
0.1083979920779061
 50
300.2116920086456275
 51
318.0909656840859725
  0
ARC
  5
12A84
  8
0
 10
19.4941177295199815
 20
13.9368697788843008
 30
0.0
 40
0.5391303181322769
 50
105.8444575183980021
 51
120.0157753672042986
  0
ARC
  5
12A85
  8
0
 10
18.6615109412628009
 20
15.87073867981732
 30
0.0
 40
1.5795757199729969
 50
287.6639757378533773
 51
290.9398360861263768
  0
ARC
  5
12A86
  8
0
 10
19.1358840059010618
 20
14.3643495335667204
 30
0.0
 40
0.0050892527822149
 50
14.6431052694649093
 51
104.2718592542675964
  0
ARC
  5
12A87
  8
0
 10
19.4507659136556903
 20
14.4338308481895901
 30
0.0
 40
0.078008305012486
 50
119.7594916706856054
 51
139.5286549491775077
  0
ARC
  5
12A88
  8
0
 10
19.4611942889773708
 20
14.46616546162943
 30
0.0
 40
0.0217090172621287
 50
43.679135292316758
 51
136.3174335119406066
  0
ARC
  5
12A89
  8
0
 10
19.4611951856400083
 20
14.4961112823452201
 30
0.0
 40
0.0216811053892829
 50
223.6018419298297033
 51
316.3947268744014991
  0
ARC
  5
12A8A
  8
0
 10
19.6245016438588209
 20
14.5406661014496894
 30
0.0
 40
0.0229863203836228
 50
314.4771624197410915
 51
355.5094637699006057
  0
ARC
  5
12A8B
  8
0
 10
19.6015780420216288
 20
14.5686661908335395
 30
0.0
 40
0.0591160692952065
 50
279.7630794718830884
 51
311.3150781828819049
  0
ARC
  5
12A8C
  8
0
 10
19.5921812095944006
 20
14.5938922937062294
 30
0.0
 40
0.0857152614711844
 50
258.5196724641717765
 51
283.0958363534738282
  0
ARC
  5
12A8D
  8
0
 10
19.5792956437562715
 20
14.5368886637984893
 30
0.0
 40
0.0273175745560974
 50
203.0248785004752108
 51
261.2100464829223938
  0
ARC
  5
12A8E
  8
0
 10
19.6044675131711301
 20
14.5054508691787003
 30
0.0
 40
0.0231566935737579
 50
55.7288857998087011
 51
139.7637030482684111
  0
ARC
  5
12A8F
  8
0
 10
19.5998246295907812
 20
14.5395826529299601
 30
0.0
 40
0.0231849253226423
 50
235.7917123366374881
 51
319.7008765114255198
  0
ARC
  5
12A90
  8
0
 10
19.6086969829793816
 20
14.5939709843532306
 30
0.0
 40
0.0246232038262869
 50
306.0438476517837216
 51
351.740568678224804
  0
ARC
  5
12A91
  8
0
 10
19.5843386916831115
 20
14.6325733994579501
 30
0.0
 40
0.0702332568569219
 50
273.2846184438291743
 51
303.580606667888901
  0
ARC
  5
12A92
  8
0
 10
19.5804683707246987
 20
14.6296228368209995
 30
0.0
 40
0.0676296546155553
 50
246.0942159264920122
 51
276.7034161872397817
  0
ARC
  5
12A93
  8
0
 10
19.5633747453116484
 20
14.5908425735055705
 30
0.0
 40
0.025249468490633
 50
197.311677119194286
 51
245.8948421646767883
  0
ARC
  5
12A94
  8
0
 10
19.539398379648901
 20
14.5834289694375894
 30
0.0
 40
0.0042690670467559
 50
149.4059713040354893
 51
191.1184092117755995
  0
ARC
  5
12A95
  8
0
 10
19.2410822146471183
 20
15.0362621049451608
 30
0.0
 40
0.571672474366075
 50
316.0833230877217943
 51
322.1344178548987998
  0
ARC
  5
12A96
  8
0
 10
19.6960399213362507
 20
14.7141773660416906
 30
0.0
 40
0.0230333919872509
 50
324.2933939319054275
 51
356.7692100509908073
  0
ARC
  5
12A97
  8
0
 10
19.6489182871741797
 20
14.7079324735040604
 30
0.0
 40
0.024549185571652
 50
200.9721945053387913
 51
239.7785358325166101
  0
ARC
  5
12A98
  8
0
 10
19.6601067477249707
 20
14.7298262811677905
 30
0.0
 40
0.0491175854144939
 50
241.3562131144697958
 51
267.995457731432225
  0
ARC
  5
12A99
  8
0
 10
19.663215209810911
 20
14.7695686149179704
 30
0.0
 40
0.0889608891693099
 50
266.8899164448613988
 51
285.9254858299859166
  0
ARC
  5
12A9A
  8
0
 10
19.6766357541828185
 20
14.7322123738018398
 30
0.0
 40
0.0494273613417991
 50
282.8458989624269861
 51
320.4422439884950222
  0
ARC
  5
12A9B
  8
0
 10
19.6759658125888492
 20
14.6812873033883893
 30
0.0
 40
0.0219729030808954
 50
52.8033163963871033
 51
142.4270931040855999
  0
ARC
  5
12A9C
  8
0
 10
19.6720014908828489
 20
14.7109384879977902
 30
0.0
 40
0.0210969041032127
 50
230.3885556008976891
 51
324.8418538995526887
  0
ARC
  5
12A9D
  8
0
 10
19.7794187624854203
 20
14.6413943105207203
 30
0.0
 40
0.211631555863415
 50
115.1825399222139055
 51
131.9012332528045874
  0
ARC
  5
12A9E
  8
0
 10
19.7214651298395403
 20
14.7650024361132601
 30
0.0
 40
0.0751122212741417
 50
98.1872871912353418
 51
115.2970848162208028
  0
ARC
  5
12A9F
  8
0
 10
19.7133243898051589
 20
14.8201949757393194
 30
0.0
 40
0.0193239076237068
 50
70.5273443734387655
 51
97.600687771494421
  0
ARC
  5
12AA0
  8
0
 10
19.7168234949504004
 20
14.8312644531129099
 30
0.0
 40
0.0077310459878259
 50
2.6075787876848771
 51
67.6274032057498999
  0
ARC
  5
12AA1
  8
0
 10
19.6518812940926217
 20
14.6299060964989192
 30
0.0
 40
0.02896823737767
 50
91.9094889359660954
 51
112.4538471053200936
  0
ARC
  5
12AA2
  8
0
 10
19.6510389093004889
 20
14.6553154565806594
 30
0.0
 40
0.0035449211452794
 50
52.8002788501165909
 51
91.9861108860867915
  0
ARC
  5
12AA3
  8
0
 10
19.6518882543946312
 20
14.6567219037250709
 30
0.0
 40
0.001919016273951
 50
353.3821174524168214
 51
47.6040391840236978
  0
ARC
  5
12AA4
  8
0
 10
19.5879251553119502
 20
14.5612026705665603
 30
0.0
 40
0.0226012865039761
 50
49.4988463412122286
 51
137.3134336723246065
  0
ARC
  5
12AA5
  8
0
 10
19.5860823038910894
 20
14.5921653418538408
 30
0.0
 40
0.0215119154147507
 50
226.6359551786233908
 51
320.1763248349241735
  0
ARC
  5
12AA6
  8
0
 10
19.5449469865579886
 20
14.4138295489568709
 30
0.0
 40
0.1822432525126369
 50
95.1135366451935624
 51
139.6258184837489864
  0
ARC
  5
12AA7
  8
0
 10
19.5861122523674602
 20
14.6286085371143297
 30
0.0
 40
0.128250415070829
 50
111.2341441477581014
 51
155.6146946035397036
  0
ARC
  5
12AA8
  8
0
 10
19.5449917075011399
 20
14.6490033467483105
 30
0.0
 40
0.026679084096234
 50
292.1353732366442841
 51
346.5180243772655899
  0
ARC
  5
12AA9
  8
0
 10
19.5246394217447197
 20
14.6935756634446708
 30
0.0
 40
0.0756628967112921
 50
266.9254152650104857
 51
293.6936574571050755
  0
ARC
  5
12AAA
  8
0
 10
19.5214442310375489
 20
14.6857535219972402
 30
0.0
 40
0.0677373414942912
 50
242.9358141535927871
 51
269.2699631945390024
  0
ARC
  5
12AAB
  8
0
 10
19.5024621355132695
 20
14.6489109862284597
 30
0.0
 40
0.0262929030584029
 50
193.4767622995794056
 51
243.2421607636048861
  0
ARC
  5
12AAC
  8
0
 10
19.5239144122642685
 20
14.6182593987284104
 30
0.0
 40
0.0217153069924832
 50
43.6979129351365074
 51
136.3020870648635139
  0
ARC
  5
12AAD
  8
0
 10
19.5239144122642685
 20
14.6482637022170898
 30
0.0
 40
0.0217153069548559
 50
223.6979128312628973
 51
316.302087168765695
  0
ARC
  5
12AAE
  8
0
 10
19.6956135003761084
 20
14.5144100649087306
 30
0.0
 40
0.2099916047423596
 50
110.5772115270802942
 51
123.3601833107168062
  0
ARC
  5
12AAF
  8
0
 10
19.5880270416355415
 20
14.7290463472192492
 30
0.0
 40
0.0214363629186162
 50
47.1687775173182118
 51
141.7278680432908118
  0
ARC
  5
12AB0
  8
0
 10
19.5857764009961102
 20
14.7579770295268702
 30
0.0
 40
0.0213904872393325
 50
227.0355402059973926
 51
321.861105354635697
  0
ARC
  5
12AB1
  8
0
 10
19.6065889632272885
 20
14.7608771526329008
 30
0.0
 40
0.026830239787733
 50
303.7590976872631927
 51
350.5766763125627108
  0
ARC
  5
12AB2
  8
0
 10
19.5815580156058786
 20
14.8054793852298303
 30
0.0
 40
0.0779229271212197
 50
258.4790695158130802
 51
300.8348407380710228
  0
ARC
  5
12AB3
  8
0
 10
19.5728057909541313
 20
14.7698961413999506
 30
0.0
 40
0.0413346867313567
 50
231.6222402466148935
 51
260.5157255617997976
  0
ARC
  5
12AB4
  8
0
 10
19.5622876854672505
 20
14.7561024562880601
 30
0.0
 40
0.02399335352247
 50
202.7316428114910138
 51
230.8623267656896019
  0
ARC
  5
12AB5
  8
0
 10
19.5571470311551785
 20
14.8033793870314394
 30
0.0
 40
0.0320216228099347
 50
145.8927354002078118
 51
186.8325075922197982
  0
ARC
  5
12AB6
  8
0
 10
19.6512786112216418
 20
14.7447886123351299
 30
0.0
 40
0.1428798375785327
 50
126.666878428343793
 51
147.6057648960380106
  0
ARC
  5
12AB7
  8
0
 10
19.6302764891938715
 20
14.8749034324829097
 30
0.0
 40
0.0166906491793547
 50
351.920481573315385
 51
17.8229885377076798
  0
ARC
  5
12AB8
  8
0
 10
19.6206999554947288
 20
14.8884173297412907
 30
0.0
 40
0.0268174005705289
 50
310.9368772674905017
 51
354.8957196804751106
  0
ARC
  5
12AB9
  8
0
 10
19.5938789885835796
 20
14.9262991485077503
 30
0.0
 40
0.0731506146124655
 50
270.4365546572205972
 51
307.3630755460466162
  0
ARC
  5
12ABA
  8
0
 10
19.5910518667201288
 20
14.9057804831750804
 30
0.0
 40
0.0527385366164569
 50
241.5853303863868007
 51
273.6794618603328217
  0
ARC
  5
12ABB
  8
0
 10
19.5783948599823816
 20
14.8818190865859492
 30
0.0
 40
0.0256424375134539
 50
200.491771497818803
 51
240.9823848386573104
  0
ARC
  5
12ABC
  8
0
 10
19.6046659519574789
 20
14.8598425317380798
 30
0.0
 40
0.0182074036025783
 50
45.2104788035109308
 51
158.621569414261387
  0
ARC
  5
12ABD
  8
0
 10
19.5993960301375409
 20
14.8848154863498205
 30
0.0
 40
0.0217425005426657
 50
237.492344754714594
 51
326.3397034630522171
  0
ARC
  5
12ABE
  8
0
 10
19.6650392096753386
 20
14.8812850677587907
 30
0.0
 40
0.1435851121825555
 50
112.524623350648298
 51
140.7088139096643999
  0
ARC
  5
12ABF
  8
0
 10
19.6232672296719102
 20
14.9124229094050502
 30
0.0
 40
0.0915680575128354
 50
139.235803685137796
 51
159.8096813468742141
  0
ARC
  5
12AC0
  8
0
 10
19.5671059959568083
 20
14.9325461809993403
 30
0.0
 40
0.031916383152359
 50
158.917900632734586
 51
194.9218939314370971
  0
ARC
  5
12AC1
  8
0
 10
19.6348949734451708
 20
14.9530731245850408
 30
0.0
 40
0.0657266416029449
 50
91.9761981665261743
 51
112.2246757667801944
  0
ARC
  5
12AC2
  8
0
 10
19.6342706240616316
 20
14.9973513066411801
 30
0.0
 40
0.0214722569827677
 50
46.1292590203310695
 51
94.3862412312511907
  0
ARC
  5
12AC3
  8
0
 10
19.6348434636765887
 20
15.0002623216566899
 30
0.0
 40
0.0190444018401384
 50
353.1179521881018104
 51
41.2964274216780467
  0
ARC
  5
12AC4
  8
0
 10
19.5092017804254283
 20
14.9021246481559899
 30
0.0
 40
0.0196688150682662
 50
345.4502456378417037
 51
28.4609473092662917
  0
ARC
  5
12AC5
  8
0
 10
19.5116389604063407
 20
14.9015870774301806
 30
0.0
 40
0.0178572930101363
 50
33.711242216331577
 51
82.3659808923312937
  0
ARC
  5
12AC6
  8
0
 10
19.506913363145479
 20
14.8769942305826497
 30
0.0
 40
0.0428833478243386
 50
80.4728330321642176
 51
97.8081422147194672
  0
ARC
  5
12AC7
  8
0
 10
19.4831735790080494
 20
14.8006921336873898
 30
0.0
 40
0.0257065437453029
 50
298.7173533299240944
 51
346.9472381264384921
  0
ARC
  5
12AC8
  8
0
 10
19.4605695961363416
 20
14.8498168049150596
 30
0.0
 40
0.0797395342473662
 50
251.4728649176483088
 51
296.0001493941695117
  0
ARC
  5
12AC9
  8
0
 10
19.4464299310893693
 20
14.8091449532828907
 30
0.0
 40
0.0366858225839533
 50
223.1839210869237888
 51
252.227576959541409
  0
ARC
  5
12ACA
  8
0
 10
19.4366596923082398
 20
14.7994802366405001
 30
0.0
 40
0.0229506103960477
 50
191.54653484462591
 51
222.2827991638056062
  0
ARC
  5
12ACB
  8
0
 10
19.4611945232954895
 20
14.8003168201587396
 30
0.0
 40
0.0216808606755022
 50
223.6036231350506966
 51
316.3980216617201222
  0
ARC
  5
12ACC
  8
0
 10
19.4611949529257799
 20
14.7703848424850097
 30
0.0
 40
0.0216997333337018
 50
43.6559208701071029
 51
136.3457239266529086
  0
ARC
  5
12ACD
  8
0
 10
19.4547837407303597
 20
14.8862932415071594
 30
0.0
 40
0.0207977710773073
 50
44.661831088570402
 51
143.1132204700246859
  0
ARC
  5
12ACE
  8
0
 10
19.4529494205489684
 20
14.9132866250611702
 30
0.0
 40
0.0207263441059424
 50
224.4323394910250897
 51
323.3427123238004128
  0
ARC
  5
12ACF
  8
0
 10
19.4741936069922303
 20
14.9160873957072493
 30
0.0
 40
0.0262448235566875
 50
303.7514536667356992
 51
351.1973670868470094
  0
ARC
  5
12AD0
  8
0
 10
19.4494777857080408
 20
14.9578970015236301
 30
0.0
 40
0.0747875433521478
 50
264.0559338312310729
 51
301.6986347273438014
  0
ARC
  5
12AD1
  8
0
 10
19.445411818011511
 20
14.9381503631797408
 30
0.0
 40
0.0547625159749031
 50
240.9398421218160991
 51
266.1480733265395884
  0
ARC
  5
12AD2
  8
0
 10
19.431210371351419
 20
14.9130307615089102
 30
0.0
 40
0.0259080507061618
 50
196.4733078499168926
 51
241.4094470466880864
  0
ARC
  5
12AD3
  8
0
 10
19.5026711562536512
 20
14.8059573253160597
 30
0.0
 40
0.1043564371828517
 50
131.1142854509450046
 51
151.0785131521300002
  0
ARC
  5
12AD4
  8
0
 10
19.4411423525079883
 20
14.8382328093376792
 30
0.0
 40
0.0349250154609958
 50
148.6074335350164972
 51
186.0967822567309895
  0
ARC
  5
12AD5
  8
0
 10
19.4311463900085108
 20
14.96552607451369
 30
0.0
 40
0.0396402317349627
 50
159.1833726711683141
 51
191.7455678075118897
  0
ARC
  5
12AD6
  8
0
 10
19.48017254887327
 20
14.9475808222172493
 30
0.0
 40
0.091845734737253
 50
138.3579859668072061
 51
159.5882375375155959
  0
ARC
  5
12AD7
  8
0
 10
19.4866131433623195
 20
15.0258926189975206
 30
0.0
 40
0.0280256750181637
 50
350.2733168380207189
 51
25.2733646786363693
  0
ARC
  5
12AD8
  8
0
 10
19.4922717650392805
 20
15.02747569933282
 30
0.0
 40
0.0222545931078601
 50
27.8084037615388198
 51
76.9274960071895038
  0
ARC
  5
12AD9
  8
0
 10
19.4865649115422386
 20
15.0023944123052502
 30
0.0
 40
0.0479768228880047
 50
77.0636685239258128
 51
102.132664473027404
  0
ARC
  5
12ADA
  8
0
 10
19.4995813551799984
 20
14.94548201697412
 30
0.0
 40
0.1063564870113762
 50
102.5442917543702066
 51
123.7567652087607968
  0
ARC
  5
12ADB
  8
0
 10
19.4119849931052997
 20
15.0411839408731698
 30
0.0
 40
0.0294117946617697
 50
306.3825885714592232
 51
352.5792689668966204
  0
ARC
  5
12ADC
  8
0
 10
19.3889170473280501
 20
15.0765643653002108
 30
0.0
 40
0.0716197095370585
 50
267.4742951091329815
 51
304.4499403715195172
  0
ARC
  5
12ADD
  8
0
 10
19.3850662764234585
 20
15.0538469714916499
 30
0.0
 40
0.0488376815559444
 50
236.7312473448284891
 51
270.8149975579967759
  0
ARC
  5
12ADE
  8
0
 10
19.3728339529957303
 20
15.0349822174070997
 30
0.0
 40
0.026354765192458
 50
199.0104437920670932
 51
236.4680751118762885
  0
ARC
  5
12ADF
  8
0
 10
19.3941472371034216
 20
15.0351378851153505
 30
0.0
 40
0.0193535092684733
 50
223.5249406108619041
 51
329.9540471814576108
  0
ARC
  5
12AE0
  8
0
 10
19.3968679620747899
 20
15.0121144278615493
 30
0.0
 40
0.0193565710192682
 50
43.5370598549930179
 51
149.941927937348396
  0
ARC
  5
12AE1
  8
0
 10
19.4149244924087689
 20
15.1440214270440396
 30
0.0
 40
0.0351721328443519
 50
353.0971766853870122
 51
29.9402968779968717
  0
ARC
  5
12AE2
  8
0
 10
19.4199759242742402
 20
15.1450355137671693
 30
0.0
 40
0.0303332040278101
 50
33.0441174188702576
 51
83.815988247441382
  0
ARC
  5
12AE3
  8
0
 10
19.416697171502161
 20
15.1131039722856997
 30
0.0
 40
0.0624323910885445
 50
83.981228166236761
 51
109.929551985676099
  0
ARC
  5
12AE4
  8
0
 10
19.4327791775808691
 20
15.0696700420038798
 30
0.0
 40
0.108747406811419
 50
110.0948886578538009
 51
135.7035546312525014
  0
ARC
  5
12AE5
  8
0
 10
19.4234584708528892
 20
15.0758110721197909
 30
0.0
 40
0.0978103711290562
 50
134.4651374567426956
 51
159.0997704965461992
  0
ARC
  5
12AE6
  8
0
 10
19.3774049426424391
 20
15.0925130290883391
 30
0.0
 40
0.048835728859327
 50
158.1304013811349023
 51
194.9198282974558083
  0
ARC
  5
12AE7
  8
0
 10
19.266440269125269
 20
14.9791352403707307
 30
0.0
 40
0.0419689478987017
 50
162.7156078435959046
 51
189.2711333021746043
  0
ARC
  5
12AE8
  8
0
 10
19.3059016123975198
 20
14.9661195311366004
 30
0.0
 40
0.0835184084343328
 50
139.2324584372219931
 51
162.2330553224817038
  0
ARC
  5
12AE9
  8
0
 10
19.3327370336696696
 20
14.9452349704411898
 30
0.0
 40
0.1174924511472265
 50
112.0101233691995049
 51
140.0644606139809127
  0
ARC
  5
12AEA
  8
0
 10
19.31658848022062
 20
14.9865388398266095
 30
0.0
 40
0.0731486677767658
 50
90.7421933358779427
 51
112.4079216211879952
  0
ARC
  5
12AEB
  8
0
 10
19.3173666907582593
 20
15.0274097349328297
 30
0.0
 40
0.0323177445726048
 50
45.7095471234656472
 51
93.0609860585485649
  0
ARC
  5
12AEC
  8
0
 10
19.3039129824251106
 20
14.9337542523819806
 30
0.0
 40
0.0242534432465519
 50
306.5918422242954762
 51
347.8351731074586155
  0
ARC
  5
12AED
  8
0
 10
19.2853348838934799
 20
14.9626629582055308
 30
0.0
 40
0.0585847238841522
 50
272.9995227258938826
 51
304.3258293921616087
  0
ARC
  5
12AEE
  8
0
 10
19.280326930838779
 20
14.9820901327159692
 30
0.0
 40
0.078348721050791
 50
247.9231720456546952
 51
275.9146226556608781
  0
ARC
  5
12AEF
  8
0
 10
19.2637134716246692
 20
14.9401112366812203
 30
0.0
 40
0.0332057288626561
 50
219.3374788839522864
 51
247.2633763838146024
  0
ARC
  5
12AF0
  8
0
 10
19.2558841292689102
 20
14.9331828164410201
 30
0.0
 40
0.022761918755325
 50
191.5035133345629106
 51
218.3413799742783112
  0
ARC
  5
12AF1
  8
0
 10
19.2806007827607502
 20
14.9041236491458697
 30
0.0
 40
0.0217123105906524
 50
43.6907185236583331
 51
136.3104248470561117
  0
ARC
  5
12AF2
  8
0
 10
19.2806004840053902
 20
14.9340656933713394
 30
0.0
 40
0.0216751390167627
 50
223.5877642165374084
 51
316.4133791541801202
  0
ARC
  5
12AF3
  8
0
 10
19.2044885683990287
 20
15.0144535836015507
 30
0.0
 40
0.020309714549856
 50
42.0691520830510726
 51
143.7597959834542962
  0
ARC
  5
12AF4
  8
0
 10
19.2031844034409005
 20
15.0400701058250093
 30
0.0
 40
0.0203109376786457
 50
222.0733892932948947
 51
323.7555587731994819
  0
ARC
  5
12AF5
  8
0
 10
19.2177377321277092
 20
15.0979766109033697
 30
0.0
 40
0.0760608751928927
 50
132.3669786945374085
 51
185.9481905328802043
  0
ARC
  5
12AF6
  8
0
 10
19.2301021951338917
 20
15.0955706857592098
 30
0.0
 40
0.0864975977231815
 50
92.320576365691835
 51
137.3505871624550139
  0
ARC
  5
12AF7
  8
0
 10
19.22925080876621
 20
15.1453946259353192
 30
0.0
 40
0.0366985947380107
 50
30.1191745076447717
 51
94.1424191789817257
  0
ARC
  5
12AF8
  8
0
 10
19.2235745899420216
 20
15.1445740722673392
 30
0.0
 40
0.0420745690862488
 50
349.6283828619802989
 51
27.2056941908275896
  0
ARC
  5
12AF9
  8
0
 10
19.2234030929535002
 20
15.0430893896640008
 30
0.0
 40
0.0272992710471765
 50
298.0227704585458923
 51
350.149702613168472
  0
ARC
  5
12AFA
  8
0
 10
19.200452709827001
 20
15.0850826292262905
 30
0.0
 40
0.0751537388440184
 50
258.3494485469444157
 51
298.4270920483796203
  0
ARC
  5
12AFB
  8
0
 10
19.1897143649389292
 20
15.0470387866864996
 30
0.0
 40
0.0358374391933248
 50
201.9673471869863874
 51
262.8858228394104799
  0
ARC
  5
12AFC
  8
0
 10
19.0797355549620988
 20
15.1267433321902107
 30
0.0
 40
0.01872957798208
 50
38.6310720015275493
 51
150.3271362337241044
  0
ARC
  5
12AFD
  8
0
 10
19.0780860534250714
 20
15.1478004160658699
 30
0.0
 40
0.01878160762194
 50
218.8643485391143031
 51
330.0938596961462963
  0
ARC
  5
12AFE
  8
0
 10
19.0934843319837384
 20
15.1544765473289509
 30
0.0
 40
0.0321133836224218
 50
293.9719665607423167
 51
349.5648852042697854
  0
ARC
  5
12AFF
  8
0
 10
19.0746603040993215
 20
15.1898024508365896
 30
0.0
 40
0.0720965014641539
 50
256.8537016749646114
 51
296.2357304655506027
  0
ARC
  5
12B00
  8
0
 10
19.0638467686740114
 20
15.1537293458027005
 30
0.0
 40
0.0345876524358823
 50
200.9559432094189049
 51
260.7092811845424194
  0
ARC
  5
12B01
  8
0
 10
19.0912449531301682
 20
15.2468658243716408
 30
0.0
 40
0.0461146817615373
 50
350.2560091968642269
 51
37.9082488095179215
  0
ARC
  5
12B02
  8
0
 10
19.0943277936125888
 20
15.2492493149547403
 30
0.0
 40
0.0422179224867708
 50
37.9266107028653394
 51
82.8095481179317403
  0
ARC
  5
12B03
  8
0
 10
19.09169563229079
 20
15.2207292557242795
 30
0.0
 40
0.0708496315929376
 50
83.584572997769115
 51
121.2987987282337059
  0
ARC
  5
12B04
  8
0
 10
19.0994563253134402
 20
15.2042061573134504
 30
0.0
 40
0.0890212226866374
 50
120.0420362410141024
 51
154.58902180989881
  0
ARC
  5
12B05
  8
0
 10
19.0744373804709504
 20
15.2149353783347294
 30
0.0
 40
0.0618276122567599
 50
153.6209125274953067
 51
193.8572215967975865
  0
ARC
  5
12B06
  8
0
 10
19.0041160182645399
 20
15.0879115612710208
 30
0.0
 40
0.0579012580714013
 50
155.0038220240143119
 51
189.1100836407406121
  0
ARC
  5
12B07
  8
0
 10
19.03259363131383
 20
15.07504489823725
 30
0.0
 40
0.0891492279772404
 50
123.7639245723667045
 51
155.2428526391638002
  0
ARC
  5
12B08
  8
0
 10
19.0277153780330117
 20
15.0851249361488104
 30
0.0
 40
0.0780734691297107
 50
91.8535078774317242
 51
124.8991087595087066
  0
ARC
  5
12B09
  8
0
 10
19.0210628447225609
 20
15.0367363082991705
 30
0.0
 40
0.0311461191795768
 50
278.892517191536399
 51
343.5599921989896188
  0
ARC
  5
12B0A
  8
0
 10
19.0042017571040489
 20
15.0837940628534799
 30
0.0
 40
0.0807915020677971
 50
247.9278635427332063
 51
285.5626438806701231
  0
ARC
  5
12B0B
  8
0
 10
18.9832434226741498
 20
15.0343705202154503
 30
0.0
 40
0.0271278761241392
 50
193.7521754123503115
 51
249.7239703231699934
  0
ARC
  5
12B0C
  8
0
 10
19.0039140195308391
 20
15.0034341355195409
 30
0.0
 40
0.0216899392479657
 50
43.6270130263483722
 51
136.369979818708714
  0
ARC
  5
12B0D
  8
0
 10
19.0039148058785905
 20
15.0333989349651294
 30
0.0
 40
0.0217131057183556
 50
223.6911052255763934
 51
316.3058876194673985
  0
ARC
  5
12B0E
  8
0
 10
18.8760817916381711
 20
15.2170978413397204
 30
0.0
 40
0.053690949975848
 50
348.8408140041506726
 51
32.954673019741513
  0
ARC
  5
12B0F
  8
0
 10
18.8790879266562115
 20
15.2161208319859593
 30
0.0
 40
0.0517582267292939
 50
35.6734317686788529
 51
98.1586638657241224
  0
ARC
  5
12B10
  8
0
 10
18.8820702913249114
 20
15.1884625121350005
 30
0.0
 40
0.0795658038705996
 50
97.4580227514883148
 51
147.2843140349650923
  0
ARC
  5
12B11
  8
0
 10
18.868812823357981
 20
15.1946267746901604
 30
0.0
 40
0.0651099389215
 50
145.542650902854092
 51
191.2690704684194998
  0
ARC
  5
12B12
  8
0
 10
18.6944220850746206
 20
15.2959769691069596
 30
0.0
 40
0.0581857809569345
 50
349.0858662780045734
 51
45.4023089025072792
  0
ARC
  5
12B13
  8
0
 10
18.6941255667920814
 20
15.2926906059152792
 30
0.0
 40
0.060770210032427
 50
47.3791474056011594
 51
108.194753867848803
  0
ARC
  5
12B14
  8
0
 10
18.6965909320238097
 20
15.2823888853045808
 30
0.0
 40
0.0713320183002836
 50
107.4922402988707972
 51
155.9044594559694872
  0
ARC
  5
12B15
  8
0
 10
18.6893143510196715
 20
15.2852262890718809
 30
0.0
 40
0.0635322182498913
 50
155.561250825527992
 51
192.9290382543402131
  0
ARC
  5
12B16
  8
0
 10
18.7086077981839516
 20
15.21241652869349
 30
0.0
 40
0.0292179586317515
 50
308.7786250410842968
 51
348.2455593601231953
  0
ARC
  5
12B17
  8
0
 10
18.6923959722148503
 20
15.2348227679649995
 30
0.0
 40
0.0568560230096818
 50
275.7708319569309197
 51
307.372654725052314
  0
ARC
  5
12B18
  8
0
 10
18.6894076603593895
 20
15.2643918652373696
 30
0.0
 40
0.0865757390454853
 50
261.6455333185563745
 51
275.7708319569309197
  0
ARC
  5
12B19
  8
0
 10
18.6835440517352183
 20
15.2267154182989106
 30
0.0
 40
0.0484482510443154
 50
228.5774882601924105
 51
262.0323912629299912
  0
ARC
  5
12B1A
  8
0
 10
18.6705962860887702
 20
15.2108257465272896
 30
0.0
 40
0.0279785845437343
 50
194.3259154267747988
 51
226.9311772930618076
  0
ARC
  5
12B1B
  8
0
 10
18.6908329963330289
 20
15.1875607166196591
 30
0.0
 40
0.018506968221199
 50
34.6931107792427085
 51
148.4489687157256128
  0
ARC
  5
12B1C
  8
0
 10
18.6902786468926898
 20
15.2077727595934604
 30
0.0
 40
0.0185038637081615
 50
214.6783741495407867
 51
328.4637053454304123
  0
ARC
  5
12B1D
  8
0
 10
18.6698417547854589
 20
15.1638745650438107
 30
0.0
 40
0.0568821012372999
 50
348.4590592283871047
 51
23.2651449175591587
  0
ARC
  5
12B1E
  8
0
 10
18.6673328161418794
 20
15.1520788743389403
 30
0.0
 40
0.0626304632258536
 50
142.7039622273927932
 51
190.0236582784887958
  0
ARC
  5
12B1F
  8
0
 10
18.4830225248974784
 20
15.1218673087236102
 30
0.0
 40
0.0257135829988493
 50
54.4776405719006576
 51
88.0122816869320559
  0
ARC
  5
12B20
  8
0
 10
18.4953098043820283
 20
15.1393644707858606
 30
0.0
 40
0.004336843252482
 50
335.242084689135595
 51
52.2875519487455094
  0
ARC
  5
12B21
  8
0
 10
18.4915981191552383
 20
15.1420909170199103
 30
0.0
 40
0.0088970103920604
 50
298.0813319611260113
 51
329.2974061783884281
  0
ARC
  5
12B22
  8
0
 10
18.4863407688285406
 20
15.1519033037031097
 30
0.0
 40
0.0200290585195349
 50
284.739189849855677
 51
298.1371894964079843
  0
ARC
  5
12B23
  8
0
 10
18.4840031758080805
 20
15.1615731304881596
 30
0.0
 40
0.0299760828093553
 50
269.8303294693607768
 51
284.3578272985386093
  0
ARC
  5
12B24
  8
0
 10
18.5055523008823002
 20
15.1533565693648899
 30
0.0
 40
0.0259122744219581
 50
313.3766854643748729
 51
347.6832248908199858
  0
ARC
  5
12B25
  8
0
 10
18.49373398047873
 20
15.1667899615408999
 30
0.0
 40
0.0437977318010482
 50
286.1672378117470998
 51
312.544976987922098
  0
ARC
  5
12B26
  8
0
 10
18.4843284222970397
 20
15.1958367895975908
 30
0.0
 40
0.0743207662452656
 50
269.6808237394300818
 51
286.8963537455693995
  0
ARC
  5
12B27
  8
0
 10
18.6520878582991791
 20
15.1393948670427907
 30
0.0
 40
0.0833334888029095
 50
234.6410680037000986
 51
273.2979527592430031
  0
ARC
  5
12B28
  8
0
 10
18.683581303706891
 20
15.0884957406678897
 30
0.0
 40
0.0290028534882098
 50
289.2960807228388944
 51
344.5027546776352096
  0
ARC
  5
12B29
  8
0
 10
18.66424554697414
 20
15.1381005503722292
 30
0.0
 40
0.0822315241352263
 50
259.0222014117582034
 51
290.590524483609272
  0
ARC
  5
12B2A
  8
0
 10
18.6542200626681698
 20
15.1017695647364292
 30
0.0
 40
0.0447518167817399
 50
228.9093566686817951
 51
262.7679165367187011
  0
ARC
  5
12B2B
  8
0
 10
18.6406111450282914
 20
15.0856074288571396
 30
0.0
 40
0.0236292312481254
 50
191.8716863434663082
 51
228.0219568869972875
  0
ARC
  5
12B2C
  8
0
 10
18.6645080264511307
 20
15.0562347750354704
 30
0.0
 40
0.0217065742552182
 50
43.672918216748613
 51
136.3233312187927027
  0
ARC
  5
12B2D
  8
0
 10
18.6645090075758091
 20
15.0862112308482192
 30
0.0
 40
0.0217044239436677
 50
223.6669726082228919
 51
316.3292768273029196
  0
ARC
  5
12B2E
  8
0
 10
18.8878607190968104
 20
15.1253120333503492
 30
0.0
 40
0.0263062540939559
 50
311.9461270725381041
 51
348.9985590347102971
  0
ARC
  5
12B2F
  8
0
 10
18.8697087823293188
 20
15.1498075026321395
 30
0.0
 40
0.0567314406599397
 50
274.3330809230033083
 51
309.0436979935910244
  0
ARC
  5
12B30
  8
0
 10
18.865273514494671
 20
15.1678100672548304
 30
0.0
 40
0.0750801342942601
 50
252.4955374052167087
 51
276.6707461904027809
  0
ARC
  5
12B31
  8
0
 10
18.8532058872974595
 20
15.1322963156046892
 30
0.0
 40
0.0375902953553059
 50
222.1203314114021907
 51
253.756149849337902
  0
ARC
  5
12B32
  8
0
 10
18.8438849579329109
 20
15.1234691977378493
 30
0.0
 40
0.024758119301178
 50
193.4075859865008908
 51
221.4354097315743104
  0
ARC
  5
12B33
  8
0
 10
18.86731462487705
 20
15.0980479822273992
 30
0.0
 40
0.0200340949500062
 50
39.7381896025140477
 51
143.3869218189556136
  0
ARC
  5
12B34
  8
0
 10
18.8666395714194515
 20
15.12279469974027
 30
0.0
 40
0.0200284168008038
 50
219.7175248307210893
 51
323.40758659073839
  0
ARC
  5
12B35
  8
0
 10
18.48994237211582
 20
16.2250197502824491
 30
0.0
 40
1.958072427593794
 50
269.8236135327463217
 51
281.4154661581508776
  0
ARC
  5
12B36
  8
0
 10
18.9409617841397413
 20
14.3115598828778392
 30
0.0
 40
0.0052825719289074
 50
13.49017091322985
 51
87.8138098726626879
  0
ARC
  5
12B37
  8
0
 10
19.0739748880841908
 20
14.3451363522506501
 30
0.0
 40
0.0058144475945635
 50
128.8700065385316975
 51
165.3943975730782938
  0
ARC
  5
12B38
  8
0
 10
18.8654692144637011
 20
14.2979259337033895
 30
0.0
 40
0.6761426382970015
 50
52.5036975809615427
 51
66.4259729808646284
  0
ARC
  5
12B39
  8
0
 10
19.0830033812062503
 20
14.5785989883634102
 30
0.0
 40
0.3210481573391314
 50
29.7908943033647802
 51
52.8144855270525966
  0
ARC
  5
12B3A
  8
0
 10
19.2044180779912494
 20
14.6504273715896094
 30
0.0
 40
0.1800034122978989
 50
0.5081064761345288
 51
29.1502422465360702
  0
ARC
  5
12B3B
  8
0
 10
19.2055775797657589
 20
14.6536192073024303
 30
0.0
 40
0.1788439500761126
 50
333.9394479777192259
 51
359.4888268389099721
  0
ARC
  5
12B3C
  8
0
 10
19.1111422450812789
 20
14.7038045005188795
 30
0.0
 40
0.2857481331267743
 50
312.3420931612737945
 51
333.2184773226273933
  0
ARC
  5
12B3D
  8
0
 10
18.94644823097223
 20
14.8837084021529904
 30
0.0
 40
0.5296525514909475
 50
300.148862117544013
 51
312.4022444707679824
  0
ARC
  5
12B3E
  8
0
 10
18.7726065468400485
 20
15.1880184846705806
 30
0.0
 40
0.8801118974231275
 50
289.7292176543405731
 51
299.9851818250559177
  0
ARC
  5
12B3F
  8
0
 10
18.7532343387288201
 20
15.2066684884064198
 30
0.0
 40
0.9042855177706719
 50
280.3899651827558728
 51
290.4857138056647159
  0
ARC
  5
12B40
  8
0
 10
18.8463644307548712
 20
14.6614199970170507
 30
0.0
 40
0.3512462013983067
 50
275.5486626098750094
 51
281.4879731810104886
  0
ARC
  5
12B41
  8
0
 10
18.8738785651989893
 20
14.3777801807408991
 30
0.0
 40
0.0662750372608073
 50
265.8427596597430238
 51
275.5834501016614126
  0
ARC
  5
12B42
  8
0
 10
18.8794933822018685
 20
13.9316790945024405
 30
0.0
 40
0.3801432469962159
 50
91.5706175649902292
 51
98.7579342743766233
  0
ARC
  5
12B43
  8
0
 10
18.4393295764157301
 20
16.5312653497903383
 30
0.0
 40
2.2564932475781831
 50
278.0961123279258231
 51
279.75378952329811
  0
ARC
  5
12B44
  8
0
 10
18.7746210929994888
 20
15.1384515762123897
 30
0.0
 40
0.8295172086783216
 50
288.1684669717570841
 51
304.7890667872006816
  0
ARC
  5
12B45
  8
0
 10
18.5215645176831387
 20
15.8822352708885397
 30
0.0
 40
1.6151472349513629
 50
284.794775420020585
 51
288.4706864803970916
  0
ARC
  5
12B46
  8
0
 10
19.0400724608316487
 20
14.7461440847388605
 30
0.0
 40
0.3559241489089138
 50
305.7275507536572832
 51
324.040996128323286
  0
ARC
  5
12B47
  8
0
 10
19.1764899817694605
 20
14.6491606224736604
 30
0.0
 40
0.1885602327845389
 50
323.5538486388754791
 51
357.4557205279086247
  0
ARC
  5
12B48
  8
0
 10
18.9596307389711001
 20
15.0218860562117698
 30
0.0
 40
0.0476023442121445
 50
240.4799501312893995
 51
264.7055876500716067
  0
ARC
  5
12B49
  8
0
 10
18.942955528975741
 20
14.99243729731492
 30
0.0
 40
0.0137601807362315
 50
206.1275033255118103
 51
240.4810273504855047
  0
ARC
  5
12B4A
  8
0
 10
19.0155517381272112
 20
14.9082344016175607
 30
0.0
 40
0.0476375679903244
 50
43.1140413159263005
 51
137.6349309975709048
  0
ARC
  5
12B4B
  8
0
 10
19.0151150539631999
 20
14.9750454247470106
 30
0.0
 40
0.0491237531855701
 50
224.9581368212695054
 51
315.7908354922021203
  0
ARC
  5
12B4C
  8
0
 10
19.1314037432844088
 20
14.9589830897164706
 30
0.0
 40
0.053520255037547
 50
225.8973612276421932
 51
293.6338963871658052
  0
ARC
  5
12B4D
  8
0
 10
19.1068898807102414
 20
14.9185569115438206
 30
0.0
 40
0.012888455981973
 50
102.0007756288111977
 51
171.10174158949809
  0
ARC
  5
12B4E
  8
0
 10
19.1467004136343313
 20
14.8364924259122404
 30
0.0
 40
0.0476317668215088
 50
43.1987712622469218
 51
137.730702042879301
  0
ARC
  5
12B4F
  8
0
 10
19.1461584566268286
 20
14.9033069713994095
 30
0.0
 40
0.0491310811185452
 50
225.0589612616003876
 51
315.8705120435457161
  0
ARC
  5
12B50
  8
0
 10
19.2438838046637102
 20
14.8043414878944493
 30
0.0
 40
0.0478409767488567
 50
77.308446257856744
 51
138.3922869898958083
  0
ARC
  5
12B51
  8
0
 10
19.2448948880614807
 20
14.8760237007520306
 30
0.0
 40
0.0542779781383779
 50
227.3386797067813916
 51
308.1330682593817869
  0
ARC
  5
12B52
  8
0
 10
19.2258266904959783
 20
14.7504837303530891
 30
0.0
 40
0.049213616104242
 50
44.0622221167674724
 51
134.6517643203926013
  0
ARC
  5
12B53
  8
0
 10
19.2265760465515996
 20
14.8172530678901602
 30
0.0
 40
0.0475111993098669
 50
221.9480883974460994
 51
316.7658980397141022
  0
ARC
  5
12B54
  8
0
 10
19.2979009671025814
 20
14.7081558958157306
 30
0.0
 40
0.0490380440022471
 50
43.9301580531018701
 51
134.9520635411319915
  0
ARC
  5
12B55
  8
0
 10
19.2985507902972095
 20
14.7747718644686401
 30
0.0
 40
0.0475832768144454
 50
222.117433485695102
 51
316.7647881089923203
  0
ARC
  5
12B56
  8
0
 10
18.8999008576634004
 20
14.5752515286382298
 30
0.0
 40
0.5321036925136081
 50
101.004082707972799
 51
111.2827880084246033
  0
ARC
  5
12B57
  8
0
 10
18.8153339867399083
 20
15.0394248863298099
 30
0.0
 40
0.0605811392125607
 50
56.8401680503927409
 51
106.2974480759090028
  0
ARC
  5
12B58
  8
0
 10
18.7177096285095104
 20
14.8746518253592797
 30
0.0
 40
0.2520588392913315
 50
39.2739436231897372
 51
58.7501515095440681
  0
ARC
  5
12B59
  8
0
 10
18.9661034211539992
 20
15.0718311380982204
 30
0.0
 40
0.0652123219104748
 50
215.2304300882246082
 51
279.9298786983230798
  0
ARC
  5
12B5A
  8
0
 10
19.12709889702273
 20
14.5144985244848996
 30
0.0
 40
0.5133849122523105
 50
92.2694264237192243
 51
98.8175789193703338
  0
ARC
  5
12B5B
  8
0
 10
19.1109566121071985
 20
14.9851912117637802
 30
0.0
 40
0.0424963322605713
 50
44.9638078960432708
 51
95.6543635875217149
  0
ARC
  5
12B5C
  8
0
 10
19.0141877364890206
 20
14.9044083995371999
 30
0.0
 40
0.168425889630435
 50
15.2519878559304907
 51
41.1425654790588879
  0
ARC
  5
12B5D
  8
0
 10
19.225371756917859
 20
14.9576774323314492
 30
0.0
 40
0.0495083249815631
 50
190.4293326759409126
 51
209.8742237725095094
  0
ARC
  5
12B5E
  8
0
 10
19.2142297447376187
 20
14.9539472019627002
 30
0.0
 40
0.0380593206622152
 50
213.3618317850653909
 51
259.1645926851809918
  0
ARC
  5
12B5F
  8
0
 10
19.2247264290626809
 20
15.0156922180384793
 30
0.0
 40
0.1006851196656169
 50
259.9031375859786976
 51
279.0729365868086234
  0
ARC
  5
12B60
  8
0
 10
19.3915656975745989
 20
15.6487080272709704
 30
0.0
 40
0.7343621348335545
 50
264.5676191879700809
 51
265.5839145005481896
  0
ARC
  5
12B61
  8
0
 10
19.3339756741456803
 20
14.8918362781808202
 30
0.0
 40
0.0247119087497837
 50
18.7179285164752116
 51
87.5765892140030644
  0
ARC
  5
12B62
  8
0
 10
19.2232416955525913
 20
14.8688463748323105
 30
0.0
 40
0.1376564381468651
 50
350.5130170631554165
 51
12.9804471993512802
  0
ARC
  5
12B63
  8
0
 10
19.1601946643077099
 20
14.8786107166679304
 30
0.0
 40
0.2014520097895784
 50
344.5012738378861741
 51
350.7294106972519216
  0
ARC
  5
12B64
  8
0
 10
19.3753231928321803
 20
14.8156665843672499
 30
0.0
 40
0.0228938359974526
 50
156.5440812839073885
 51
252.0276577851153945
  0
ARC
  5
12B65
  8
0
 10
19.4447873125732187
 20
15.2787215681121893
 30
0.0
 40
0.4908343599773625
 50
261.0301620138042153
 51
266.6837115784118168
  0
ARC
  5
12B66
  8
0
 10
19.4531786806523996
 20
14.76624566243561
 30
0.0
 40
0.0164291573219142
 50
339.3069753081877025
 51
15.1104114593902601
  0
ARC
  5
12B67
  8
0
 10
19.2453700655473803
 20
14.8450112187882102
 30
0.0
 40
0.2386642332736353
 50
319.5111326003781755
 51
339.2463082631609268
  0
ARC
  5
12B68
  8
0
 10
19.481848198244279
 20
14.6418612816715896
 30
0.0
 40
0.0730965612020135
 50
138.761185900353496
 51
153.8477461908954069
  0
ARC
  5
12B69
  8
0
 10
19.4375069582606486
 20
14.6638344153156996
 30
0.0
 40
0.023610563509479
 50
154.2843134717151941
 51
177.7556969060368033
  0
ARC
  5
12B6A
  8
0
 10
19.4254796275008594
 20
14.6646980777388691
 30
0.0
 40
0.0115652824550525
 50
179.6981037254118121
 51
249.937090571913302
  0
ARC
  5
12B6B
  8
0
 10
19.4394674226859898
 20
14.6973283849151493
 30
0.0
 40
0.0470542253274989
 50
247.5679745721463973
 51
258.5646755793038096
  0
ARC
  5
12B6C
  8
0
 10
19.415064991242609
 20
14.5772634994999297
 30
0.0
 40
0.075465419786882
 50
45.3031735645522033
 51
78.478307135655001
  0
ARC
  5
12B6D
  8
0
 10
19.4630602158445107
 20
14.6266424886956905
 30
0.0
 40
0.0066357186334036
 50
335.1565166155527891
 51
39.9929427176607106
  0
ARC
  5
12B6E
  8
0
 10
19.3064897146064105
 20
14.7439092116380799
 30
0.0
 40
0.2021121626942385
 50
306.5209417721234786
 51
323.5586104787097952
  0
ARC
  5
12B6F
  8
0
 10
16.8534734876216099
 20
18.019971053385941
 30
0.0
 40
4.2947699344616801
 50
305.8131980338609992
 51
306.8104633788317983
  0
ARC
  5
12B70
  8
0
 10
19.4024637627158008
 20
14.4921793287567802
 30
0.0
 40
0.0576137010203064
 50
128.5813108139934968
 51
145.9463349278478859
  0
ARC
  5
12B71
  8
0
 10
19.3601564075202113
 20
14.5198884219523698
 30
0.0
 40
0.0070833265339014
 50
140.0028708170432026
 51
220.9377967173167008
  0
ARC
  5
12B72
  8
0
 10
19.342640290639789
 20
14.5013571057456492
 30
0.0
 40
0.0184641779404943
 50
3.3931760592782498
 51
48.7873742178411618
  0
ARC
  5
12B73
  8
0
 10
19.3461507486008486
 20
14.5005845822516903
 30
0.0
 40
0.0150374965182988
 50
318.3128830504692246
 51
7.12578360542315
  0
ARC
  5
12B74
  8
0
 10
19.2255278203442685
 20
14.6452052809767697
 30
0.0
 40
0.2032067360421338
 50
293.3031768390474099
 51
310.455714538061784
  0
ARC
  5
12B75
  8
0
 10
18.7864359947652702
 20
15.5112827061530805
 30
0.0
 40
1.1739046544967711
 50
292.8035976334680868
 51
296.2649627839094819
  0
ARC
  5
12B76
  8
0
 10
19.4598109488269984
 20
13.8751597604516199
 30
0.0
 40
0.5954694759310059
 50
111.5165846691450042
 51
116.2251214595092961
  0
ARC
  5
12B77
  8
0
 10
19.2399101340579293
 20
14.3188039079998308
 30
0.0
 40
0.1003253815771663
 50
115.5287862220887973
 51
127.4619672689627947
  0
ARC
  5
12B78
  8
0
 10
18.966513050230791
 20
14.6101876332986897
 30
0.0
 40
0.299902297025946
 50
314.3166051841520812
 51
315.0845649895039173
  0
ARC
  5
12B79
  8
0
 10
19.1193699688533307
 20
14.4602171041431102
 30
0.0
 40
0.0859334597532614
 50
298.4805664590792276
 51
311.2515601144716015
  0
ARC
  5
12B7A
  8
0
 10
19.06098380689264
 20
14.5618906851453804
 30
0.0
 40
0.2031642521776087
 50
290.0652040432491958
 51
299.2804136437721922
  0
ARC
  5
12B7B
  8
0
 10
18.8056113791735697
 20
15.2875449569116597
 30
0.0
 40
0.9724313886546847
 50
286.5211628721219768
 51
289.5294829725229988
  0
ARC
  5
12B7C
  8
0
 10
18.5962812614034192
 20
15.9721983873823508
 30
0.0
 40
1.688356475059108
 50
283.7562668385809275
 51
286.7245521666961281
  0
ARC
  5
12B7D
  8
0
 10
20.7709105204662592
 20
6.943373738507943
 30
0.0
 40
7.5986750729697237
 50
103.4943850690062987
 51
103.9557789803803018
  0
ARC
  5
12B7E
  8
0
 10
16.7040654891716187
 20
23.12287308514545
 30
0.0
 40
9.0841634803052393
 50
284.0542689762215218
 51
284.2379837723000833
  0
ARC
  5
12B7F
  8
0
 10
-29.6920420468277406
 20
9.2722468909344382
 30
0.0
 40
48.4712639803016287
 50
359.4416884632436791
 51
0.0657755972874646
  0
LINE
  5
12B80
  8
0
 10
18.7791899931999104
 20
9.3278919256362656
 30
0.0
 11
18.7791899931999104
 21
9.7051314105354152
 31
0.0
  0
LINE
  5
12B81
  8
0
 10
-4.2323686828999589
 20
0.913740434999994
 30
0.0
 11
4.2339914115909769
 21
0.913740434999994
 31
0.0
  0
LINE
  5
12B82
  8
0
 10
-4.2486495518478469
 20
-0.9089428369087499
 30
0.0
 11
-0.4693300345647913
 21
-0.9089428369087499
 31
0.0
  0
LINE
  5
12B83
  8
0
 10
0.4692993044482137
 20
-0.9089428369087499
 30
0.0
 11
1.2559299865629321
 21
-0.9089428369087499
 31
0.0
  0
LINE
  5
12B84
  8
0
 10
1.5078226894370339
 20
-0.9089428369087499
 30
0.0
 11
4.2472867823985316
 21
-0.9089428369087499
 31
0.0
  0
LINE
  5
12B85
  8
0
 10
5.7179436696846997
 20
-0.2198290593000252
 30
0.0
 11
6.7333043370840642
 21
-0.2198290593000252
 31
0.0
  0
LINE
  5
12B86
  8
0
 10
5.7203503531559363
 20
0.2199989705000007
 30
0.0
 11
6.7307444222183221
 21
0.2199989705000007
 31
0.0
  0
ENDSEC
  0
EOF
