  0
SECTION
  2
HEADER
  9
$ACADVER
  1
AC1009
  9
$INSBASE
 10
67.6468855200570687
 20
-35.522765475624638
 30
0.0
  9
$EXTMIN
 10
64.9059004111582567
 20
-39.7530660668721012
 30
-0.0000000349181948
  9
$EXTMAX
 10
70.3891964959260861
 20
-34.8837926039924611
 30
0.0000000814935746
  9
$LIMMIN
 10
0.0
 20
0.0
  9
$LIMMAX
 10
11.6929133858000007
 20
8.2677165353999982
  9
$ORTHOMODE
 70
     0
  9
$REGENMODE
 70
     1
  9
$FILLMODE
 70
     1
  9
$QTEXTMODE
 70
     0
  9
$MIRRTEXT
 70
     0
  9
$DRAGMODE
 70
     2
  9
$LTSCALE
 40
0.6431102362
  9
$OSMODE
 70
   575
  9
$ATTMODE
 70
     1
  9
$TEXTSIZE
 40
0.2
  9
$TRACEWID
 40
0.05
  9
$TEXTSTYLE
  7
STANDARD
  9
$CLAYER
  8
0
  9
$CELTYPE
  6
BYLAYER
  9
$CECOLOR
 62
   256
  9
$DIMSCALE
 40
1.0
  9
$DIMASZ
 40
0.1875
  9
$DIMEXO
 40
0.0625
  9
$DIMDLI
 40
0.4443307087
  9
$DIMRND
 40
0.0
  9
$DIMDLE
 40
0.0
  9
$DIMEXE
 40
0.125
  9
$DIMTP
 40
0.01
  9
$DIMTM
 40
0.01
  9
$DIMTXT
 40
1.0
  9
$DIMCEN
 40
0.1052362205
  9
$DIMTSZ
 40
0.0
  9
$DIMTOL
 70
     1
  9
$DIMLIM
 70
     0
  9
$DIMTIH
 70
     1
  9
$DIMTOH
 70
     1
  9
$DIMSE1
 70
     0
  9
$DIMSE2
 70
     0
  9
$DIMTAD
 70
     0
  9
$DIMZIN
 70
     0
  9
$DIMBLK
  1

  9
$DIMASO
 70
     1
  9
$DIMSHO
 70
     1
  9
$DIMPOST
  1
\X
  9
$DIMAPOST
  1

  9
$DIMALT
 70
     1
  9
$DIMALTD
 70
     2
  9
$DIMALTF
 40
25.3999999999999986
  9
$DIMLFAC
 40
1.0
  9
$DIMTOFL
 70
     0
  9
$DIMTVP
 40
0.0
  9
$DIMTIX
 70
     0
  9
$DIMSOXD
 70
     0
  9
$DIMSAH
 70
     0
  9
$DIMBLK1
  1

  9
$DIMBLK2
  1

  9
$DIMSTYLE
  2
STANDARD
  9
$DIMCLRD
 70
     0
  9
$DIMCLRE
 70
     0
  9
$DIMCLRT
 70
     0
  9
$DIMTFAC
 40
1.0
  9
$DIMGAP
 40
0.09
  9
$LUNITS
 70
     2
  9
$LUPREC
 70
     4
  9
$SKETCHINC
 40
0.1
  9
$FILLETRAD
 40
0.0
  9
$AUNITS
 70
     0
  9
$AUPREC
 70
     0
  9
$MENU
  1
.
  9
$ELEVATION
 40
0.0
  9
$PELEVATION
 40
0.0
  9
$THICKNESS
 40
0.0
  9
$LIMCHECK
 70
     0
  9
$BLIPMODE
 70
     0
  9
$CHAMFERA
 40
0.0
  9
$CHAMFERB
 40
0.0
  9
$SKPOLY
 70
     0
  9
$TDCREATE
 40
2458172.4620254631154239
  9
$TDUPDATE
 40
2459465.4744328712113202
  9
$TDINDWG
 40
0.1492073264
  9
$TDUSRTIMER
 40
0.1492073264
  9
$USRTIMER
 70
     1
  9
$ANGBASE
 50
0.0
  9
$ANGDIR
 70
     0
  9
$PDMODE
 70
     0
  9
$PDSIZE
 40
0.3125
  9
$PLINEWID
 40
0.0
  9
$COORDS
 70
     2
  9
$SPLFRAME
 70
     0
  9
$SPLINETYPE
 70
     6
  9
$SPLINESEGS
 70
     8
  9
$ATTDIA
 70
     1
  9
$ATTREQ
 70
     1
  9
$HANDLING
 70
     1
  9
$HANDSEED
  5
134BB
  9
$SURFTAB1
 70
     6
  9
$SURFTAB2
 70
     6
  9
$SURFTYPE
 70
     6
  9
$SURFU
 70
     6
  9
$SURFV
 70
     6
  9
$UCSNAME
  2

  9
$UCSORG
 10
0.0
 20
0.0
 30
0.0
  9
$UCSXDIR
 10
1.0
 20
0.0
 30
0.0
  9
$UCSYDIR
 10
0.0
 20
1.0
 30
0.0
  9
$PUCSNAME
  2

  9
$PUCSORG
 10
0.0
 20
0.0
 30
0.0
  9
$PUCSXDIR
 10
1.0
 20
0.0
 30
0.0
  9
$PUCSYDIR
 10
0.0
 20
1.0
 30
0.0
  9
$USERI1
 70
     0
  9
$USERI2
 70
     0
  9
$USERI3
 70
     0
  9
$USERI4
 70
     0
  9
$USERI5
 70
     0
  9
$USERR1
 40
0.0
  9
$USERR2
 40
0.0
  9
$USERR3
 40
0.0
  9
$USERR4
 40
0.0
  9
$USERR5
 40
0.0
  9
$WORLDVIEW
 70
     1
  9
$SHADEDGE
 70
     3
  9
$SHADEDIF
 70
    70
  9
$TILEMODE
 70
     1
  9
$MAXACTVP
 70
    64
  9
$PLIMCHECK
 70
     0
  9
$PEXTMIN
 10
1.0000000000000000E+20
 20
1.0000000000000000E+20
 30
1.0000000000000000E+20
  9
$PEXTMAX
 10
-1.0000000000000000E+20
 20
-1.0000000000000000E+20
 30
-1.0000000000000000E+20
  9
$PLIMMIN
 10
0.0
 20
0.0
  9
$PLIMMAX
 10
12.0
 20
9.0
  9
$UNITMODE
 70
     0
  9
$VISRETAIN
 70
     1
  9
$PLINEGEN
 70
     0
  9
$PSLTSCALE
 70
     1
  0
ENDSEC
  0
SECTION
  2
TABLES
  0
TABLE
  2
VPORT
 70
     1
  0
VPORT
  2
*ACTIVE
 70
     0
 10
0.0
 20
0.0
 11
1.0
 21
1.0
 12
-56.9636101465304705
 22
-42.6307035058100965
 13
0.0
 23
0.0
 14
1.0
 24
1.0
 15
0.0
 25
0.0
 16
0.0
 26
0.0
 36
30.6214257250603907
 17
124.6111586000725993
 27
5.3122741703778242
 37
0.0
 40
4.915869381184705
 41
2.4808306709265171
 42
50.0
 43
0.0
 44
0.0
 50
0.0
 51
0.0
 71
     0
 72
   100
 73
     1
 74
     1
 75
     0
 76
     0
 77
     0
 78
     1
  0
ENDTAB
  0
TABLE
  2
LTYPE
 70
     2
  0
LTYPE
  2
CONTINUOUS
 70
     0
  3
Solid line
 72
    65
 73
     0
 40
0.0
  0
LTYPE
  2
PHANTOM2
 70
     0
  3
___ _ _ ___ _ _ ___ _ _ ___ _ _
 72
    65
 73
     6
 40
1.25
 49
0.625
 49
-0.125
 49
0.125
 49
-0.125
 49
0.125
 49
-0.125
  0
ENDTAB
  0
TABLE
  2
LAYER
 70
     2
  0
LAYER
  2
0
 70
     0
 62
   255
  6
CONTINUOUS
  0
LAYER
  2
DEFPOINTS
 70
     0
 62
     7
  6
CONTINUOUS
  0
ENDTAB
  0
TABLE
  2
STYLE
 70
     1
  0
STYLE
  2
STANDARD
 70
     0
 40
0.0
 41
0.8
 50
0.0
 71
     0
 42
0.2
  3
txt
  4

  0
ENDTAB
  0
TABLE
  2
VIEW
 70
     0
  0
ENDTAB
  0
TABLE
  2
UCS
 70
     0
  0
ENDTAB
  0
TABLE
  2
APPID
 70
     9
  0
APPID
  2
ACAD
 70
     0
  0
APPID
  2
ACAD_MLEADERVER
 70
     0
  0
APPID
  2
ACAD_EXEMPT_FROM_CAD_STANDARDS
 70
     0
  0
APPID
  2
ACAD_DSTYLE_DIMJAG
 70
     0
  0
APPID
  2
ACAD_DSTYLE_DIMTALN
 70
     0
  0
APPID
  2
ACAD_NAV_VCDISPLAY
 70
     0
  0
APPID
  2
ACAECLAYERSTANDARD
 70
     0
  0
APPID
  2
ACCMTRANSPARENCY
 70
     0
  0
APPID
  2
ACDBATTR
 70
     0
  0
ENDTAB
  0
TABLE
  2
DIMSTYLE
 70
     1
  0
DIMSTYLE
  2
STANDARD
 70
     0
  3

  4

  5

  6

  7

 40
1.0
 41
0.1875
 42
0.0625
 43
0.38
 44
0.125
 45
0.0
 46
0.0
 47
0.01
 48
0.01
140
0.15625
141
0.09
142
0.0
143
25.3999999999999986
144
1.0
145
0.0
146
1.0
147
0.09
 71
     1
 72
     0
 73
     1
 74
     1
 75
     0
 76
     0
 77
     0
 78
     4
170
     0
171
     2
172
     0
173
     0
174
     0
175
     0
176
     0
177
     0
178
     0
  0
ENDTAB
  0
ENDSEC
  0
SECTION
  2
BLOCKS
  0
BLOCK
  8
0
  2
$MODEL_SPACE
 70
     0
 10
0.0
 20
0.0
 30
0.0
  3
$MODEL_SPACE
  1

  0
ENDBLK
  5
21
  8
0
  0
BLOCK
 67
     1
  8
0
  2
$PAPER_SPACE
 70
     0
 10
0.0
 20
0.0
 30
0.0
  3
$PAPER_SPACE
  1

  0
ENDBLK
  5
1D
 67
     1
  8
0
  0
BLOCK
  8
0
  2
_FILLED
 70
     0
 10
0.0
 20
0.0
 30
0.0
  3
_FILLED
  1

  0
SOLID
  5
FF1B
  8
0
  6
BYBLOCK
 62
     0
 10
0.0
 20
0.0
 30
0.0
 11
-1.0
 21
0.1666666667
 31
0.0
 12
-1.0
 22
-0.1666666667
 32
0.0
 13
-1.0
 23
-0.1666666667
 33
0.0
  0
ENDBLK
  5
FF1C
  8
0
  6
BYBLOCK
 62
     0
  0
ENDSEC
  0
SECTION
  2
ENTITIES
  0
ATTDEF
  5
10E7D
  8
DEFPOINTS
 10
67.646991686884121
 20
-35.5192832179480433
 30
0.0
 40
0.001
  1
K-14486M-AK
  3

  2
MODELNUMBER
 70
     0
1001
ACDBATTR
1070
     0
1070
     1
  0
ATTDEF
  5
10E7E
  8
DEFPOINTS
 10
67.646991686884121
 20
-35.5209498846147014
 30
0.0
 40
0.001
  1
PURIST
  3

  2
TRADENAME
 70
     0
1001
ACDBATTR
1070
     0
1070
     1
  0
ATTDEF
  5
10E7F
  8
DEFPOINTS
 10
67.646991686884121
 20
-35.5226165512813665
 30
0.0
 40
0.001
  1
SHOWERHEAD
  3

  2
PRODUCT
 70
     0
1001
ACDBATTR
1070
     0
1070
     1
  0
ARC
  5
132FC
  8
0
 10
67.638476468554515
 20
-35.4353164840837067
 30
0.0
 40
0.4471687216720394
 50
88.7327462025859575
 51
133.7391975038742089
  0
ARC
  5
132FD
  8
0
 10
67.4614199636588268
 20
-35.2502910231873017
 30
0.0
 40
0.1910761073587609
 50
133.7391975038742089
 51
181.5651806860753936
  0
ARC
  5
132FE
  8
0
 10
67.4865906065591616
 20
-35.2496032516398117
 30
0.0
 40
0.2162561449623339
 50
181.5651806860749957
 51
213.252752356588104
  0
ARC
  5
132FF
  8
0
 10
67.5342970988836271
 20
-35.2183222278057215
 30
0.0
 40
0.2733035976838579
 50
213.252752356588104
 51
237.948764273633202
  0
ARC
  5
13300
  8
0
 10
67.6414175715467962
 20
-35.0469162771230103
 30
0.0
 40
0.4754292497499801
 50
237.9691009318717931
 51
263.7099600756815789
  0
ARC
  5
13301
  8
0
 10
67.6468855200570687
 20
-35.0164401235104208
 30
0.0
 40
0.5063253521142289
 50
263.4727874200730184
 51
270.1675346078342272
  0
ARC
  5
13302
  8
0
 10
67.6461096248450957
 20
-35.491078256198783
 30
0.0
 40
0.5585033987275425
 50
89.7685192759600312
 51
111.6888154935681001
  0
ARC
  5
13303
  8
0
 10
67.5893591731120011
 20
-35.348389596956352
 30
0.0
 40
0.4049434194089942
 50
111.6888154935681001
 51
135.2087228297793899
  0
ARC
  5
13304
  8
0
 10
67.4776229153882809
 20
-35.2374644760912403
 30
0.0
 40
0.2474970039876186
 50
135.2087228297793899
 51
172.3156349842217026
  0
ARC
  5
13305
  8
0
 10
67.4246438744101937
 20
-35.2303161494785329
 30
0.0
 40
0.1940378854359677
 50
172.3156349842217026
 51
203.3161263808001138
  0
ARC
  5
13306
  8
0
 10
67.5223845455428631
 20
-35.1881897499533167
 30
0.0
 40
0.3004703632349153
 50
203.3161263807996875
 51
237.3923919697166127
  0
ARC
  5
13307
  8
0
 10
67.6364765966377774
 20
-35.0098411620834113
 30
0.0
 40
0.5121900243867288
 50
237.3923919697153906
 51
254.1125485411988052
  0
ARC
  5
13308
  8
0
 10
67.6289694276419482
 20
-35.0362172070592877
 30
0.0
 40
0.484766433540483
 50
254.1125485411988052
 51
264.7928184660466968
  0
ARC
  5
13309
  8
0
 10
67.6456439512922287
 20
-35.7167583736835113
 30
0.0
 40
0.5030141646898482
 50
89.6899405209478857
 51
110.8496733285767988
  0
ARC
  5
1330A
  8
0
 10
67.6037020261365029
 20
-35.606633176966163
 30
0.0
 40
0.3851723892542947
 50
110.8496733285767988
 51
130.3023864491902089
  0
ARC
  5
1330B
  8
0
 10
67.5206534814277433
 20
-35.5087139626264232
 30
0.0
 40
0.256777555576474
 50
130.3023864491902089
 51
146.8191183728129943
  0
ARC
  5
1330C
  8
0
 10
67.5870138679638046
 20
-35.5655866997911403
 30
0.0
 40
0.3325273512477613
 50
106.7147456258398961
 51
145.6522890435026909
  0
ARC
  5
1330D
  8
0
 10
67.6469190202821693
 20
-35.7183177014222082
 30
0.0
 40
0.496216631448184
 50
89.8329205650085214
 51
108.2676619988006053
  0
ARC
  5
1330E
  8
0
 10
67.632268428062801
 20
-35.6764202822348082
 30
0.0
 40
0.4128724827012583
 50
87.7655124575673256
 51
137.4951891838578035
  0
ARC
  5
1330F
  8
0
 10
67.6430020409314068
 20
-35.7646226040984416
 30
0.0
 40
0.3472198366534036
 50
89.1148371856416048
 51
124.8521574457066947
  0
ARC
  5
13310
  8
0
 10
67.6387130474792855
 20
-35.737890007907879
 30
0.0
 40
0.3498609755471981
 50
88.4189568995264068
 51
129.1364579048126018
  0
ARC
  5
13311
  8
0
 10
67.6421888473587387
 20
-35.6918011690164079
 30
0.0
 40
0.3416919712616844
 50
88.9641380749833246
 51
135.985578114556688
  0
ARC
  5
13312
  8
0
 10
67.6391361453050308
 20
-35.6668369964239105
 30
0.0
 40
0.3308626006526624
 50
88.4014452549766645
 51
139.0448705423509921
  0
ARC
  5
13313
  8
0
 10
67.631638221804252
 20
-35.6370037036147735
 30
0.0
 40
0.3292096582420966
 50
87.0874316212762238
 51
142.5667363221745916
  0
ARC
  5
13314
  8
0
 10
67.6414712311586754
 20
-35.5019111930973708
 30
0.0
 40
0.6155024293097254
 50
89.3581648993497737
 51
124.5794915635153046
  0
ARC
  5
13315
  8
0
 10
67.4790606120955232
 20
-35.2663032166497814
 30
0.0
 40
0.3293410626820715
 50
124.5794915635153046
 51
160.2369403550297022
  0
ARC
  5
13316
  8
0
 10
67.3981472843325378
 20
-35.2380221396776676
 30
0.0
 40
0.2436320340341567
 50
160.061963744046011
 51
179.1607437822123927
  0
ARC
  5
13317
  8
0
 10
67.4690870897732111
 20
-35.2275452579999921
 30
0.0
 40
0.3148591327001573
 50
182.5567326552445877
 51
204.5576132134544878
  0
ARC
  5
13318
  8
0
 10
67.5247773133145017
 20
-35.1719539951253921
 30
0.0
 40
0.3895819732063376
 50
208.5932211227217863
 51
243.6182124678080925
  0
ARC
  5
13319
  8
0
 10
67.6427418853171218
 20
-34.9510636792627309
 30
0.0
 40
0.6399291052276782
 50
242.9443406793284908
 51
270.5035617644884951
  0
ARC
  5
1331A
  8
0
 10
67.4857994993738828
 20
-35.6110331317738726
 30
0.0
 40
0.3312618445855919
 50
179.7280434838143037
 51
208.5107492431378944
  0
ARC
  5
1331B
  8
0
 10
67.6237218597256629
 20
-35.5526546029671309
 30
0.0
 40
0.48054334101037
 50
206.7774852556397036
 51
225.7243442932062862
  0
ARC
  5
1331C
  8
0
 10
67.6399281476261365
 20
-35.4821176313529705
 30
0.0
 40
0.5436653394475665
 50
229.6942293381503077
 51
270.8892867568923748
  0
ARC
  5
1331D
  8
0
 10
67.6487997354631716
 20
-35.9113261633847216
 30
0.0
 40
0.3963749638251271
 50
90.0626920785863661
 51
98.6543900120751971
  0
ARC
  5
1331E
  8
0
 10
67.8109325580837776
 20
-35.6110331317738726
 30
0.0
 40
0.3312618445855992
 50
331.4892507568620772
 51
359.7280434838144174
  0
ARC
  5
1331F
  8
0
 10
67.673010197732026
 20
-35.5526546029671309
 30
0.0
 40
0.48054334101037
 50
314.2756557067937138
 51
333.2225147443597848
  0
ARC
  5
13320
  8
0
 10
67.6568039098315523
 20
-35.4821176313529705
 30
0.0
 40
0.5436653394475665
 50
269.110713243107682
 51
310.3057706618496923
  0
ARC
  5
13321
  8
0
 10
67.8918603911230747
 20
-35.8981121334084108
 30
0.0
 40
0.2839662350584609
 50
354.6603880037270073
 51
36.4491249910090502
  0
ARC
  5
13322
  8
0
 10
67.9133100435751231
 20
-35.900116915511127
 30
0.0
 40
0.2624230982953626
 50
328.6935176006545021
 51
354.6603880037270073
  0
ARC
  5
13323
  8
0
 10
67.7791856698318043
 20
-35.8185472321621674
 30
0.0
 40
0.419403864230832
 50
298.4058724517423116
 51
328.6935176006545021
  0
ARC
  5
13324
  8
0
 10
67.6540246690862688
 20
-35.5871235001576878
 30
0.0
 40
0.6825050231840193
 50
269.5249559873900012
 51
298.4058724517423116
  0
ARC
  5
13325
  8
0
 10
67.8599416216517994
 20
-35.933106625668799
 30
0.0
 40
0.2588404154280552
 50
7.181309336771859
 51
30.2861155312400392
  0
ARC
  5
13326
  8
0
 10
-136.2950514906742114
 20
-36.7109488239859516
 30
0.0
 40
204.4134086967630139
 50
0.218190352079603
 51
0.2270944308902764
  0
ARC
  5
13327
  8
0
 10
68.1319316344896606
 20
-35.9057661163666069
 30
0.0
 40
0.015987645864669
 50
21.5769797221636601
 51
161.7112339489947033
  0
ARC
  5
13328
  8
0
 10
67.856982063934197
 20
-35.9364858824522173
 30
0.0
 40
0.2921186797600588
 50
7.1974416904533021
 51
33.8353656188567129
  0
ARC
  5
13329
  8
0
 10
60.8591986131339695
 20
-35.9542052922841791
 30
0.0
 40
7.2878027531415874
 50
0.1326002344034491
 51
0.427050264749614
  0
ARC
  5
1332A
  8
0
 10
68.1515251686937518
 20
-35.9363797956707529
 30
0.0
 40
0.0046434849642893
 50
191.9222687818798079
 51
275.9737486125741839
  0
ARC
  5
1332B
  8
0
 10
67.8514304947680671
 20
-35.9666170665961928
 30
0.0
 40
0.2676260214426384
 50
7.3206020740171223
 51
33.7996610672863511
  0
LINE
  5
1332C
  8
0
 10
68.1168750133680447
 20
-35.9325158217737908
 30
0.0
 11
68.1261502432408861
 21
-35.9462634194841613
 31
0.0
  0
ARC
  5
1332D
  8
0
 10
68.1284366651556752
 20
-35.9581148648877189
 30
0.0
 40
0.0120670721883619
 50
101.1066776178948032
 51
164.6610292166056126
  0
ARC
  5
1332E
  8
0
 10
68.1317432563028831
 20
-35.9749583097256433
 30
0.0
 40
0.0292320125909112
 50
78.5931629296039915
 51
101.1066776178923021
  0
ARC
  5
1332F
  8
0
 10
68.1349988811401204
 20
-35.9588221477252716
 30
0.0
 40
0.0127706998491217
 50
37.478607278080581
 51
78.5931629296065495
  0
ARC
  5
13330
  8
0
 10
68.1385092221737523
 20
-35.9561306500940887
 30
0.0
 40
0.0083472788120654
 50
2.4846281462133568
 51
37.4786072780809008
  0
ARC
  5
13331
  8
0
 10
67.8142809599809908
 20
-35.9046946367972879
 30
0.0
 40
0.3066599131241344
 50
295.8984647748710017
 51
350.5729910044698272
  0
ARC
  5
13332
  8
0
 10
67.6549451589649067
 20
-35.6501772494112785
 30
0.0
 40
0.6060644996640558
 50
269.3780137270367732
 51
298.9407954296909224
  0
ARC
  5
13333
  8
0
 10
67.6549451589649067
 20
-35.6501772494112785
 30
0.0
 40
0.6060644996640558
 50
305.1548975948491034
 51
305.1553641272025743
  0
ARC
  5
13334
  8
0
 10
67.8243604694413165
 20
-35.9098154673943029
 30
0.0
 40
0.3257458154164172
 50
322.749231694633977
 51
351.8901697247633251
  0
ARC
  5
13335
  8
0
 10
67.897765258356614
 20
-35.9674704893316175
 30
0.0
 40
0.2556176424904091
 50
5.9443573549105366
 51
12.9634447413333493
  0
LINE
  5
13336
  8
0
 10
67.1545413863813536
 20
-35.2344535978151328
 30
0.0
 11
67.1545413863813536
 21
-35.6126054723491592
 31
0.0
  0
ARC
  5
13337
  8
0
 10
67.6582555889031596
 20
-35.4353164840837067
 30
0.0
 40
0.4471687216720394
 50
46.2608024961257627
 51
91.2672537974132325
  0
ARC
  5
13338
  8
0
 10
67.8353120937988336
 20
-35.2502910231873017
 30
0.0
 40
0.1910761073587609
 50
358.4348193139246064
 51
46.2608024961257627
  0
ARC
  5
13339
  8
0
 10
67.810141450898513
 20
-35.2496032516398117
 30
0.0
 40
0.2162561449623339
 50
326.7472476434118107
 51
358.4348193139246064
  0
ARC
  5
1333A
  8
0
 10
67.7624349585740333
 20
-35.2183222278057215
 30
0.0
 40
0.2733035976838579
 50
302.0512357263668264
 51
326.7472476434118107
  0
ARC
  5
1333B
  8
0
 10
67.6553144859108784
 20
-35.0469162771230103
 30
0.0
 40
0.4754292497499801
 50
276.2900399243183074
 51
302.0308990681273258
  0
ARC
  5
1333C
  8
0
 10
67.6498465374006202
 20
-35.0164401235104208
 30
0.0
 40
0.5063253521142289
 50
269.8324653921657728
 51
276.5272125799269247
  0
ARC
  5
1333D
  8
0
 10
67.6506224326125789
 20
-35.491078256198783
 30
0.0
 40
0.5585033987275425
 50
68.3111845064318715
 51
90.231480724040793
  0
ARC
  5
1333E
  8
0
 10
67.7073728843456877
 20
-35.348389596956352
 30
0.0
 40
0.4049434194089942
 50
44.7912771702205887
 51
68.3111845064318715
  0
ARC
  5
1333F
  8
0
 10
67.8191091420694079
 20
-35.2374644760912403
 30
0.0
 40
0.2474970039876186
 50
7.6843650157779306
 51
44.7912771702205887
  0
ARC
  5
13340
  8
0
 10
67.8720881830474951
 20
-35.2303161494785329
 30
0.0
 40
0.1940378854359677
 50
336.683873619199403
 51
7.6843650157779306
  0
ARC
  5
13341
  8
0
 10
67.7743475119148115
 20
-35.1881897499533167
 30
0.0
 40
0.3004703632349153
 50
302.6076080302834157
 51
336.6838736191996873
  0
ARC
  5
13342
  8
0
 10
67.6602554608199114
 20
-35.0098411620834113
 30
0.0
 40
0.5121900243867288
 50
285.8874514588011948
 51
302.6076080302834157
  0
ARC
  5
13343
  8
0
 10
67.6677626298157406
 20
-35.0362172070592877
 30
0.0
 40
0.484766433540483
 50
275.2071815339533032
 51
285.8874514588011948
  0
ARC
  5
13344
  8
0
 10
67.6510881061654459
 20
-35.7167583736835113
 30
0.0
 40
0.5030141646898482
 50
69.1503266714240823
 51
90.3100594790521143
  0
ARC
  5
13345
  8
0
 10
67.6930300313211717
 20
-35.606633176966163
 30
0.0
 40
0.3851723892542947
 50
49.6976135508097272
 51
69.1503266714231728
  0
ARC
  5
13346
  8
0
 10
67.7760785760299314
 20
-35.5087139626264232
 30
0.0
 40
0.256777555576474
 50
33.1808816271870128
 51
49.6976135508097272
  0
ARC
  5
13347
  8
0
 10
67.7097181894938842
 20
-35.5655866997911403
 30
0.0
 40
0.3325273512477613
 50
34.347710956497302
 51
73.2852543741601039
  0
ARC
  5
13348
  8
0
 10
67.6498130371755195
 20
-35.7183177014222082
 30
0.0
 40
0.496216631448184
 50
71.7323380012003184
 51
90.167079434991507
  0
ARC
  5
13349
  8
0
 10
67.6644636293948736
 20
-35.6764202822348082
 30
0.0
 40
0.4128724827012583
 50
42.5048108161422178
 51
92.2344875424326744
  0
ARC
  5
1334A
  8
0
 10
67.653730016526282
 20
-35.7646226040984416
 30
0.0
 40
0.3472198366534036
 50
55.1478425542932484
 51
90.8851628143583952
  0
ARC
  5
1334B
  8
0
 10
67.6580190099783749
 20
-35.737890007907879
 30
0.0
 40
0.3498609755471981
 50
50.8635420951874124
 51
91.581043100473579
  0
ARC
  5
1334C
  8
0
 10
67.6545432100989501
 20
-35.6918011690164079
 30
0.0
 40
0.3416919712616844
 50
44.014421885443312
 51
91.0358619250175281
  0
ARC
  5
1334D
  8
0
 10
67.6575959121526438
 20
-35.6668369964239105
 30
0.0
 40
0.3308626006526624
 50
40.9551294576490221
 51
91.5985547450225397
  0
ARC
  5
1334E
  8
0
 10
67.6650938356534368
 20
-35.6370037036147735
 30
0.0
 40
0.3292096582420966
 50
37.4332636778253516
 51
92.9125683787238046
  0
ARC
  5
1334F
  8
0
 10
67.6552608262989992
 20
-35.5019111930973708
 30
0.0
 40
0.6155024293097254
 50
55.4205084364846812
 51
90.6418351006502263
  0
ARC
  5
13350
  8
0
 10
67.8176714453621656
 20
-35.2663032166497814
 30
0.0
 40
0.3293410626820715
 50
19.7630596449702303
 51
55.4205084364846812
  0
ARC
  5
13351
  8
0
 10
67.8985847731251368
 20
-35.2380221396776676
 30
0.0
 40
0.2436320340341567
 50
0.8392562177876053
 51
19.9380362559538007
  0
ARC
  5
13352
  8
0
 10
67.7476997695472534
 20
-35.208267722013403
 30
0.0
 40
0.3958958082890264
 50
337.7140119162763767
 51
355.1716422150255994
  0
ARC
  5
13353
  8
0
 10
67.7719547441431871
 20
-35.1719539951253921
 30
0.0
 40
0.3895819732063376
 50
296.3817875321919928
 51
331.4067788772782137
  0
ARC
  5
13354
  8
0
 10
67.6539901721405528
 20
-34.9510636792626883
 30
0.0
 40
0.6399291052277157
 50
269.4964382355124144
 51
297.0556593206733282
  0
ARC
  5
13355
  8
0
 10
67.647932321994503
 20
-35.9113261633847216
 30
0.0
 40
0.3963749638251271
 50
81.3456099879240355
 51
89.9373079214128239
  0
LINE
  5
13356
  8
0
 10
68.1421906710763068
 20
-35.2344535978151328
 30
0.0
 11
68.1421906710763068
 21
-35.6126054723491592
 31
0.0
  0
ARC
  5
13357
  8
0
 10
67.9127924008186739
 20
-35.9663806588866777
 30
0.0
 40
0.2405588998350622
 50
347.5936096740554149
 51
6.0568438725722809
  0
ARC
  5
13358
  8
0
 10
67.4048716663345999
 20
-35.8981121334084108
 30
0.0
 40
0.2839662350584609
 50
143.5508750089908858
 51
185.3396119962729074
  0
ARC
  5
13359
  8
0
 10
67.3834220138825515
 20
-35.900116915511127
 30
0.0
 40
0.2624230982953626
 50
185.3396119962729074
 51
211.3064823993454127
  0
ARC
  5
1335A
  8
0
 10
67.5175463876258704
 20
-35.8185472321621674
 30
0.0
 40
0.419403864230832
 50
211.3064823993454127
 51
241.5941275482566084
  0
ARC
  5
1335B
  8
0
 10
67.6427073883714201
 20
-35.5871235001576878
 30
0.0
 40
0.6825050231840193
 50
241.5941275482566084
 51
270.4750440126099988
  0
ARC
  5
1335C
  8
0
 10
67.4367904358058752
 20
-35.933106625668799
 30
0.0
 40
0.2588404154280552
 50
149.7138844687607104
 51
172.8186906632276987
  0
ARC
  5
1335D
  8
0
 10
271.5917835481319003
 20
-36.7109488239859516
 30
0.0
 40
204.4134086967630139
 50
179.7729055691092981
 51
179.7818096479203973
  0
ARC
  5
1335E
  8
0
 10
67.164800422968014
 20
-35.9057661163666069
 30
0.0
 40
0.015987645864669
 50
18.2887660510051617
 51
158.4230202778362866
  0
ARC
  5
1335F
  8
0
 10
67.4397499935234919
 20
-35.9364858824522173
 30
0.0
 40
0.2921186797600588
 50
146.1646343811432871
 51
172.802558309546697
  0
ARC
  5
13360
  8
0
 10
74.4375334443237193
 20
-35.9542052922841791
 30
0.0
 40
7.2878027531415874
 50
179.5729497352502904
 51
179.8673997655965024
  0
ARC
  5
13361
  8
0
 10
67.1452068887639228
 20
-35.9363797956707529
 30
0.0
 40
0.0046434849642893
 50
264.0262513874258161
 51
348.0777312181202205
  0
ARC
  5
13362
  8
0
 10
67.4453015626896217
 20
-35.9666170665961928
 30
0.0
 40
0.2676260214426384
 50
146.2003389327136063
 51
172.679397925982812
  0
LINE
  5
13363
  8
0
 10
67.1798570440896299
 20
-35.9325158217737908
 30
0.0
 11
67.1705818142168027
 21
-35.9462634194841613
 31
0.0
  0
ARC
  5
13364
  8
0
 10
67.1682953923020136
 20
-35.9581148648877189
 30
0.0
 40
0.0120670721883619
 50
15.3389707833944104
 51
78.8933223821051968
  0
ARC
  5
13365
  8
0
 10
67.1649888011547915
 20
-35.9749583097256433
 30
0.0
 40
0.0292320125909112
 50
78.8933223821076695
 51
101.4068370703959943
  0
ARC
  5
13366
  8
0
 10
67.1617331763175542
 20
-35.9588221477252716
 30
0.0
 40
0.0127706998491217
 50
101.4068370703933937
 51
142.5213927219193977
  0
ARC
  5
13367
  8
0
 10
67.1582228352839365
 20
-35.9561306500940887
 30
0.0
 40
0.0083472788120654
 50
142.5213927219191135
 51
177.5153718537862062
  0
ARC
  5
13368
  8
0
 10
67.4824510974766838
 20
-35.9046946367972879
 30
0.0
 40
0.3066599131241344
 50
189.4270089955302012
 51
244.1015352251289983
  0
ARC
  5
13369
  8
0
 10
67.6417868984927679
 20
-35.6501772494112785
 30
0.0
 40
0.6060644996640558
 50
241.0592045703089923
 51
270.6219862729632268
  0
ARC
  5
1336A
  8
0
 10
67.6417868984927679
 20
-35.6501772494112785
 30
0.0
 40
0.6060644996640558
 50
234.8446358727973973
 51
234.8451024051508966
  0
ARC
  5
1336B
  8
0
 10
67.4723715880163439
 20
-35.9098154673943029
 30
0.0
 40
0.3257458154164172
 50
188.1098302752367033
 51
217.2507683053659946
  0
ARC
  5
1336C
  8
0
 10
67.3989667991010606
 20
-35.9674704893316175
 30
0.0
 40
0.2556176424904091
 50
167.0365552586665956
 51
174.055642645089506
  0
ARC
  5
1336D
  8
0
 10
67.3839396566390008
 20
-35.9663806588866777
 30
0.0
 40
0.2405588998350622
 50
173.9431561274276987
 51
192.4063903259444999
  0
ARC
  5
1336E
  8
0
 10
66.3101989432288548
 20
-31.7904300529288797
 30
0.0
 40
4.146658201661328
 50
289.7088001170926077
 51
294.7065084674001127
  0
LINE
  5
1336F
  8
0
 10
68.0433788011245753
 20
-35.5575060836972767
 30
0.0
 11
68.0433788010813743
 21
-35.8195885647074022
 31
0.0
  0
ARC
  5
13370
  8
0
 10
67.9847321574393533
 20
-35.8195869270522422
 30
0.0
 40
0.0586466436657472
 50
344.2176281632278005
 51
359.9984000673097171
  0
ARC
  5
13371
  8
0
 10
67.960363528747024
 20
-35.8157333021581579
 30
0.0
 40
0.0831071258015894
 50
328.9037012383356
 51
357.3055721241379956
  0
ARC
  5
13372
  8
0
 10
67.8547253937895931
 20
-35.7537851542156986
 30
0.0
 40
0.2055655368289258
 50
310.9973033433711862
 51
329.3255649887325944
  0
ARC
  5
13373
  8
0
 10
67.8218251405490662
 20
-35.7355624590100334
 30
0.0
 40
0.2412461752236845
 50
303.9188743698582016
 51
314.0569483140566831
  0
LINE
  5
13374
  8
0
 10
67.7086173574813728
 20
-35.6941718707073932
 30
0.0
 11
67.7086173574813728
 21
-35.9562543518074023
 31
0.0
  0
ARC
  5
13375
  8
0
 10
67.7531331608529968
 20
-35.9562543518074023
 30
0.0
 40
0.0445158033716187
 50
179.9999999999996021
 51
206.724746978135812
  0
ARC
  5
13376
  8
0
 10
67.7481127635901004
 20
-35.9587820660682169
 30
0.0
 40
0.0388949735341653
 50
206.7247469781335951
 51
253.3324917318726079
  0
ARC
  5
13377
  8
0
 10
67.7736683668899929
 20
-35.8912474869646374
 30
0.0
 40
0.1110396224182818
 50
250.6938977412565919
 51
275.2536673356312917
  0
ARC
  5
13378
  8
0
 10
67.7605977297431536
 20
-35.7211275053722233
 30
0.0
 40
0.2816534060669484
 50
274.7326097956171225
 51
290.1418437643607717
  0
ARC
  5
13379
  8
0
 10
67.6276056406613009
 20
-35.3549403810280722
 30
0.0
 40
0.6712419898264219
 50
290.0363269338300825
 51
293.8208760122961962
  0
ARC
  5
1337A
  8
0
 10
67.6479666805295778
 20
-35.9501202901415269
 30
0.0
 40
3.8015710777025848
 50
263.9923817264267996
 51
270.0100858287946153
  0
ARC
  5
1337B
  8
0
 10
67.6302760599043751
 20
-36.1166752269567723
 30
0.0
 40
3.6340793534858862
 50
251.8039870198242909
 51
263.9949312477734793
  0
ARC
  5
1337C
  8
0
 10
67.418466083834744
 20
-36.7610500494351982
 30
0.0
 40
2.9557856281671882
 50
235.082199825624599
 51
251.8039870198242909
  0
ARC
  5
1337D
  8
0
 10
66.9104927613522449
 20
-37.4887308543994706
 30
0.0
 40
2.0683419678329749
 50
210.9845793159790901
 51
235.082199825624599
  0
ARC
  5
1337E
  8
0
 10
66.3505554561627946
 20
-37.8249700522459875
 30
0.0
 40
1.4152060065574561
 50
185.3188658621064064
 51
210.9845793159788059
  0
ARC
  5
1337F
  8
0
 10
68.5247832845839326
 20
-37.6877444844616178
 30
0.0
 40
3.5933790641680661
 50
180.8536842300063938
 51
184.2837861389479883
  0
LINE
  5
13380
  8
0
 10
64.931803074695182
 20
-37.7412824163339096
 30
0.0
 11
64.9094343394963431
 21
-36.9925237879464532
 31
0.0
  0
ARC
  5
13381
  8
0
 10
67.6486501849398962
 20
-35.0195638558275775
 30
0.0
 40
3.8693571301001781
 50
262.9267340932228194
 51
269.9997880983535765
  0
ARC
  5
13382
  8
0
 10
67.6194021509435146
 20
-35.2552777492837066
 30
0.0
 40
3.6318355793707831
 50
251.278205311834796
 51
262.9267340932228194
  0
ARC
  5
13383
  8
0
 10
67.4194023176385713
 20
-35.8454125259321827
 30
0.0
 40
3.0087312639211592
 50
236.6964225585180088
 51
251.278205311834796
  0
ARC
  5
13384
  8
0
 10
66.9921183927525448
 20
-36.4958016344780418
 30
0.0
 40
2.2305426332016571
 50
220.3592466387885906
 51
236.6964225585180088
  0
ARC
  5
13385
  8
0
 10
66.5886585174662002
 20
-36.8386783701272194
 30
0.0
 40
1.7010671126952801
 50
200.3449796976383084
 51
220.3592466387873969
  0
ARC
  5
13386
  8
0
 10
66.2528743676083991
 20
-36.9631884614231367
 30
0.0
 40
1.34294177411918
 50
186.1722824870381885
 51
200.3449796976383084
  0
ARC
  5
13387
  8
0
 10
66.5172121976880248
 20
-36.9346015624502471
 30
0.0
 40
1.608820880489146
 50
182.0632604128979892
 51
186.1722824870377906
  0
ARC
  5
13388
  8
0
 10
66.2602258008333251
 20
-36.9438598215761971
 30
0.0
 40
1.3516677674797879
 50
160.3617562614022063
 51
182.0632604128979892
  0
ARC
  5
13389
  8
0
 10
66.5970826770145976
 20
-37.0640625742649519
 30
0.0
 40
1.709328579960768
 50
143.0514747146229979
 51
160.3617562614022063
  0
ARC
  5
1338A
  8
0
 10
66.9498631972543734
 20
-37.3514504675852521
 30
0.0
 40
2.1640820542745112
 50
124.8458732922959058
 51
142.5850176728804968
  0
ARC
  5
1338B
  8
0
 10
67.3046532067854457
 20
-37.837928628928637
 30
0.0
 40
2.7660790187214559
 50
115.0897855466893986
 51
125.1195832301427942
  0
ARC
  5
1338C
  8
0
 10
67.4931219855596254
 20
-38.2312279996987101
 30
0.0
 40
3.202188703634278
 50
107.8348913088943988
 51
115.1597786848105045
  0
ARC
  5
1338D
  8
0
 10
67.5917629968295159
 20
-38.5329010045505029
 30
0.0
 40
3.519575830427851
 50
101.6217880693109947
 51
107.8594029685627049
  0
ARC
  5
1338E
  8
0
 10
67.635338057638819
 20
-38.7398726734082928
 30
0.0
 40
3.731082658542193
 50
95.9113449829851987
 51
101.6369476629375015
  0
ARC
  5
1338F
  8
0
 10
67.4547858745168014
 20
-36.0242457614417333
 30
0.0
 40
0.6022045443206973
 50
119.9155906541867012
 51
147.2317145600088963
  0
ARC
  5
13390
  8
0
 10
67.3048231799743348
 20
-35.9277188408506092
 30
0.0
 40
0.4238614587994438
 50
147.2317145600088963
 51
166.245773782170204
  0
ARC
  5
13391
  8
0
 10
67.3214276669123564
 20
-35.9317832310848431
 30
0.0
 40
0.4409561437760989
 50
166.245773782170204
 51
179.9148196785237133
  0
ARC
  5
13392
  8
0
 10
67.2847560173838559
 20
-35.9249598699386681
 30
0.0
 40
0.4043310525462273
 50
180.874043010124808
 51
207.2609015634483001
  0
ARC
  5
13393
  8
0
 10
67.4357276101704599
 20
-35.8362593966769793
 30
0.0
 40
0.5792440413306443
 50
208.2201248950499917
 51
239.4814368960508943
  0
ARC
  5
13394
  8
0
 10
67.6381689719850101
 20
-35.4928366411513991
 30
0.0
 40
0.9778938801442484
 50
239.4814368960508943
 51
255.1325406482667972
  0
ARC
  5
13395
  8
0
 10
67.6471959859439096
 20
-35.4118420134639535
 30
0.0
 40
1.0585618209345089
 50
255.7851586480705066
 51
270.0779355212932842
  0
LINE
  5
13396
  8
0
 10
66.8804720104387229
 20
-35.9311276719395423
 30
0.0
 11
66.8693912001813686
 21
-36.3753027591073987
 31
0.0
  0
ARC
  5
13397
  8
0
 10
67.2445501950635816
 20
-36.3846618288947923
 30
0.0
 40
0.3752757168114064
 50
178.5709419050567135
 51
214.7966092328892103
  0
ARC
  5
13398
  8
0
 10
67.4643830312098629
 20
-36.2498654028711016
 30
0.0
 40
0.6328943968770917
 50
213.4604165738780921
 51
242.3033081036537908
  0
ARC
  5
13399
  8
0
 10
67.6254023328881004
 20
-35.9605979531806881
 30
0.0
 40
0.963892236583608
 50
241.8205790827809949
 51
263.3749046645602903
  0
ARC
  5
1339A
  8
0
 10
67.6485620621062225
 20
-35.8296992690452072
 30
0.0
 40
1.09661728964632
 50
262.9619870294026782
 51
270.0038565353149806
  0
ARC
  5
1339B
  8
0
 10
67.6144384596468342
 20
-38.5230919898276269
 30
0.0
 40
3.4269884326371458
 50
97.2440258962828494
 51
107.3962519297129035
  0
ARC
  5
1339C
  8
0
 10
67.500838812159941
 20
-38.1605119564880511
 30
0.0
 40
3.0470290131122688
 50
107.3962519297129035
 51
115.2069268178804009
  0
ARC
  5
1339D
  8
0
 10
67.300910301497737
 20
-37.7357755367862708
 30
0.0
 40
2.5775905873345168
 50
115.2069268178804009
 51
131.3592610169274906
  0
ARC
  5
1339E
  8
0
 10
66.7420485605048839
 20
-37.1009619753243527
 30
0.0
 40
1.731827793543304
 50
131.3592610169274906
 51
156.9192358400756007
  0
ARC
  5
1339F
  8
0
 10
66.3330796416803139
 20
-36.9266842080793865
 30
0.0
 40
1.2872737285293689
 50
156.9192358400756007
 51
182.6970990440987919
  0
ARC
  5
133A0
  8
0
 10
66.4487533625743083
 20
-36.9212350435916576
 30
0.0
 40
1.4030757280763251
 50
182.6970990440987919
 51
215.247302896129014
  0
ARC
  5
133A1
  8
0
 10
67.0200030067755961
 20
-36.5175560302497217
 30
0.0
 40
2.1025633275466982
 50
215.247302896129014
 51
229.5594423947817972
  0
ARC
  5
133A2
  8
0
 10
67.3909674398537248
 20
-35.9884119739140402
 30
0.0
 40
2.7465885428471828
 50
230.8299758195317963
 51
254.1431212615090089
  0
ARC
  5
133A3
  8
0
 10
67.618713631463649
 20
-35.3222024798808931
 30
0.0
 40
3.4498741516685141
 50
253.5278158932470944
 51
262.4583507325589835
  0
ARC
  5
133A4
  8
0
 10
67.647953533168689
 20
-35.1199274102778816
 30
0.0
 40
3.6542379439347852
 50
262.4201089701575142
 51
270.0106986147616226
  0
ARC
  5
133A5
  8
0
 10
67.6493050686331827
 20
-35.9501202901417614
 30
0.0
 40
3.801571077702361
 50
269.9899141712045889
 51
276.0076182735732004
  0
ARC
  5
133A6
  8
0
 10
67.6669956892583713
 20
-36.1166752269567723
 30
0.0
 40
3.6340793534858862
 50
276.0050687522265207
 51
288.1960129801756239
  0
ARC
  5
133A7
  8
0
 10
67.8788056653279739
 20
-36.7610500494351982
 30
0.0
 40
2.9557856281671882
 50
288.196012980174828
 51
304.9178001743753725
  0
ARC
  5
133A8
  8
0
 10
68.3867789878105015
 20
-37.4887308543994706
 30
0.0
 40
2.0683419678329749
 50
304.9178001743753725
 51
329.0154206840209099
  0
ARC
  5
133A9
  8
0
 10
68.9467162929999517
 20
-37.8249700522459875
 30
0.0
 40
1.4152060065574561
 50
329.0154206840209099
 51
354.681134137893082
  0
ARC
  5
133AA
  8
0
 10
66.7724884645788137
 20
-37.6877444844616178
 30
0.0
 40
3.5933790641680661
 50
355.7162138610519264
 51
359.1463157699935209
  0
LINE
  5
133AB
  8
0
 10
70.3654686744675644
 20
-37.7412824163339096
 30
0.0
 11
70.3878374096664032
 21
-36.9925237879464532
 31
0.0
  0
ARC
  5
133AC
  8
0
 10
67.6486215642228501
 20
-35.0195638558275775
 30
0.0
 40
3.8693571301001781
 50
270.0002119016464235
 51
277.0732659067771806
  0
ARC
  5
133AD
  8
0
 10
67.6778695982192318
 20
-35.2552777492837066
 30
0.0
 40
3.6318355793707831
 50
277.0732659067771806
 51
288.7217946881651756
  0
ARC
  5
133AE
  8
0
 10
67.8778694315241751
 20
-35.8454125259321827
 30
0.0
 40
3.0087312639211592
 50
288.7217946881643229
 51
303.3035774414818775
  0
ARC
  5
133AF
  8
0
 10
68.3051533564102016
 20
-36.4958016344780418
 30
0.0
 40
2.2305426332016571
 50
303.3035774414818775
 51
319.6407533612114094
  0
ARC
  5
133B0
  8
0
 10
68.7086132316965461
 20
-36.8386783701272194
 30
0.0
 40
1.7010671126952801
 50
319.6407533612114094
 51
339.6550203023616064
  0
ARC
  5
133B1
  8
0
 10
69.0443973815543472
 20
-36.9631884614231367
 30
0.0
 40
1.34294177411918
 50
339.6550203023616064
 51
353.8277175129617262
  0
ARC
  5
133B2
  8
0
 10
68.7800595514747215
 20
-36.9346015624502471
 30
0.0
 40
1.608820880489146
 50
353.8277175129617262
 51
357.9367395871018971
  0
ARC
  5
133B3
  8
0
 10
69.0370459483294212
 20
-36.9438598215761971
 30
0.0
 40
1.3516677674797879
 50
357.9367395871018971
 51
19.6382437385978115
  0
ARC
  5
133B4
  8
0
 10
68.7001890721481487
 20
-37.0640625742649519
 30
0.0
 40
1.709328579960768
 50
19.6382437385978115
 51
36.9485252853769808
  0
ARC
  5
133B5
  8
0
 10
68.3474085519083729
 20
-37.3514504675852521
 30
0.0
 40
2.1640820542745112
 50
37.4149823271195174
 51
55.15412670770408
  0
ARC
  5
133B6
  8
0
 10
67.9926185423773006
 20
-37.837928628928637
 30
0.0
 40
2.7660790187214559
 50
54.8804167698572272
 51
64.9102144533105445
  0
ARC
  5
133B7
  8
0
 10
67.804149763603121
 20
-38.2312279996987101
 30
0.0
 40
3.202188703634278
 50
64.8402213151894529
 51
72.1651086911056012
  0
ARC
  5
133B8
  8
0
 10
67.7055087523332304
 20
-38.5329010045505029
 30
0.0
 40
3.519575830427851
 50
72.1405970314372809
 51
78.3782119306890053
  0
ARC
  5
133B9
  8
0
 10
67.6619336915239273
 20
-38.7398726734082928
 30
0.0
 40
3.731082658542193
 50
78.3630523370617027
 51
84.0886550170147871
  0
ARC
  5
133BA
  8
0
 10
67.8424858746459449
 20
-36.0242457614417333
 30
0.0
 40
0.6022045443206973
 50
32.7682854399910681
 51
60.0844093458132988
  0
ARC
  5
133BB
  8
0
 10
67.9924485691884115
 20
-35.9277188408506092
 30
0.0
 40
0.4238614587994438
 50
13.7542262178298493
 51
32.7682854399910681
  0
ARC
  5
133BC
  8
0
 10
67.97584408225039
 20
-35.9317832310848431
 30
0.0
 40
0.4409561437760989
 50
0.0851803214762757
 51
13.7542262178298493
  0
ARC
  5
133BD
  8
0
 10
68.0125157317788904
 20
-35.9249598699386681
 30
0.0
 40
0.4043310525462273
 50
332.7390984365517284
 51
359.1259569898746804
  0
ARC
  5
133BE
  8
0
 10
67.8615441389922864
 20
-35.8362593966769793
 30
0.0
 40
0.5792440413306443
 50
300.5185631039482246
 51
331.7798751049500083
  0
ARC
  5
133BF
  8
0
 10
67.6591027771777362
 20
-35.4928366411513991
 30
0.0
 40
0.9778938801442484
 50
284.8674593517332028
 51
300.5185631039482246
  0
ARC
  5
133C0
  8
0
 10
67.6500757632188368
 20
-35.4118420134639535
 30
0.0
 40
1.0585618209345089
 50
269.9220644787067158
 51
284.214841351928726
  0
LINE
  5
133C1
  8
0
 10
68.4167997387240234
 20
-35.9311276719395423
 30
0.0
 11
68.4278805489813777
 21
-36.3753027591073987
 31
0.0
  0
ARC
  5
133C2
  8
0
 10
68.0527215540991648
 20
-36.3846618288947923
 30
0.0
 40
0.3752757168114064
 50
325.2033907671108182
 51
1.429058094943322
  0
ARC
  5
133C3
  8
0
 10
67.8328887179528834
 20
-36.2498654028711016
 30
0.0
 40
0.6328943968770917
 50
297.6966918963461808
 51
326.5395834261219079
  0
ARC
  5
133C4
  8
0
 10
67.6718694162746459
 20
-35.9605979531806881
 30
0.0
 40
0.963892236583608
 50
276.6250953354397097
 51
298.1794209172188062
  0
ARC
  5
133C5
  8
0
 10
67.6487096870565239
 20
-35.8296992690452072
 30
0.0
 40
1.09661728964632
 50
269.9961434646850194
 51
277.0380129705973218
  0
ARC
  5
133C6
  8
0
 10
67.6828332895158837
 20
-38.5230919898276269
 30
0.0
 40
3.4269884326371458
 50
72.6037480702870965
 51
82.7559741037171364
  0
ARC
  5
133C7
  8
0
 10
67.7964329370028054
 20
-38.1605119564880511
 30
0.0
 40
3.0470290131122688
 50
64.7930731821194144
 51
72.6037480702870965
  0
ARC
  5
133C8
  8
0
 10
67.9963614476650093
 20
-37.7357755367862708
 30
0.0
 40
2.5775905873345168
 50
48.6407389830725094
 51
64.7930731821195849
  0
ARC
  5
133C9
  8
0
 10
68.5552231886578625
 20
-37.1009619753243527
 30
0.0
 40
1.731827793543304
 50
23.0807641599244207
 51
48.6407389830725094
  0
ARC
  5
133CA
  8
0
 10
68.964192107482404
 20
-36.9266842080793865
 30
0.0
 40
1.2872737285293689
 50
357.3029009559007818
 51
23.0807641599244207
  0
ARC
  5
133CB
  8
0
 10
68.8485183865884238
 20
-36.9212350435916576
 30
0.0
 40
1.4030757280763251
 50
324.7526971038709007
 51
357.3029009559007818
  0
ARC
  5
133CC
  8
0
 10
68.2772687423871503
 20
-36.5175560302497217
 30
0.0
 40
2.1025633275466982
 50
310.4405576052180891
 51
324.7526971038709007
  0
ARC
  5
133CD
  8
0
 10
67.9063043093090215
 20
-35.9884119739140402
 30
0.0
 40
2.7465885428471828
 50
285.8568787384908774
 51
309.1700241804672942
  0
ARC
  5
133CE
  8
0
 10
67.6785581176990831
 20
-35.3222024798808931
 30
0.0
 40
3.4498741516685141
 50
277.5416492674410165
 51
286.4721841067520245
  0
ARC
  5
133CF
  8
0
 10
67.6493182159940574
 20
-35.1199274102778816
 30
0.0
 40
3.6542379439347852
 50
269.9893013852375248
 51
277.5798910298424858
  0
ARC
  5
133D0
  8
0
 10
67.6492061877866888
 20
-35.1104335125931684
 30
0.0
 40
3.692002842722979
 50
269.9911493730676284
 51
273.8168652344198222
  0
ARC
  5
133D1
  8
0
 10
67.6520018813143054
 20
-35.1493880258234483
 30
0.0
 40
3.6529486364914008
 50
273.8137849927875891
 51
278.7796567376639132
  0
ARC
  5
133D2
  8
0
 10
67.6843206506478055
 20
-35.3586459890074423
 30
0.0
 40
3.4412096509286441
 50
278.7796567376639132
 51
289.1079624963422248
  0
ARC
  5
133D3
  8
0
 10
67.8521727943755764
 20
-35.8431562853803811
 30
0.0
 40
2.9284479426806489
 50
289.1079624963422248
 51
299.4810728726537263
  0
ARC
  5
133D4
  8
0
 10
68.1216629761816819
 20
-36.3198459199973485
 30
0.0
 40
2.3808550593803379
 50
299.4810728726537263
 51
314.8047360965655912
  0
ARC
  5
133D5
  8
0
 10
68.5924795110080794
 20
-36.7938825249246193
 30
0.0
 40
1.7127391171390871
 50
314.8047360965655912
 51
332.7403048324293877
  0
ARC
  5
133D6
  8
0
 10
68.8809350707995378
 20
-36.9372323989671614
 30
0.0
 40
1.3906697103373591
 50
332.5470642628217206
 51
356.7668015896509246
  0
ARC
  5
133D7
  8
0
 10
68.9364913673756803
 20
-36.9482776451533468
 30
0.0
 40
1.334602241236412
 50
357.1057131160197855
 51
14.4142032621523803
  0
ARC
  5
133D8
  8
0
 10
68.6564380707916939
 20
-37.0358661338878434
 30
0.0
 40
1.6277134819846539
 50
14.9463553581291908
 51
23.2114111713270503
  0
ARC
  5
133D9
  8
0
 10
68.7935111659525376
 20
-36.9770842127450905
 30
0.0
 40
1.4785680909388541
 50
23.2114111713270503
 51
38.3205371940811972
  0
ARC
  5
133DA
  8
0
 10
68.4658991233095833
 20
-37.2003678130307804
 30
0.0
 40
1.874255358459785
 50
37.465736550450238
 51
43.4341778538435079
  0
ARC
  5
133DB
  8
0
 10
68.2728627234021133
 20
-37.3876756177842111
 30
0.0
 40
2.1432121269783471
 50
43.522392683992372
 51
53.0019534092344315
  0
ARC
  5
133DC
  8
0
 10
68.0311819880730155
 20
-37.7092600180074982
 30
0.0
 40
2.5454880135299289
 50
53.0133381371826502
 51
62.4064287418334871
  0
ARC
  5
133DD
  8
0
 10
67.818787186922151
 20
-38.1165540135062599
 30
0.0
 40
3.0048351590453639
 50
62.4144586045592931
 51
72.1267258333531771
  0
ARC
  5
133DE
  8
0
 10
67.6906033133439422
 20
-38.5065375740912899
 30
0.0
 40
3.4153392423582201
 50
72.0880317918358173
 51
80.8884435005109026
  0
ARC
  5
133DF
  8
0
 10
67.6712079013514085
 20
-38.5990299295893919
 30
0.0
 40
3.5097388121756898
 50
80.8149191045993973
 51
82.7979989275682868
  0
ARC
  5
133E0
  8
0
 10
67.673340160480123
 20
-35.0985882196641867
 30
0.0
 40
3.703930478210093
 50
265.8658507159321971
 51
269.6178487093797003
  0
ARC
  5
133E1
  8
0
 10
67.669664781436623
 20
-35.1494374062252035
 30
0.0
 40
3.6529486364914008
 50
260.8999789710571804
 51
265.8658507159331066
  0
ARC
  5
133E2
  8
0
 10
67.6361764759823529
 20
-35.358511391706287
 30
0.0
 40
3.4412096509286441
 50
250.571673212378613
 51
260.8999789710571804
  0
ARC
  5
133E3
  8
0
 10
67.4656178736844936
 20
-35.8420755887138824
 30
0.0
 40
2.9284479426806489
 50
240.1985628360667135
 51
250.571673212378613
  0
ARC
  5
133E4
  8
0
 10
67.1934665504158204
 20
-36.3172509490644231
 30
0.0
 40
2.3808550593803379
 50
224.8748996121555876
 51
240.1985628360667135
  0
ARC
  5
133E5
  8
0
 10
66.7200068553445078
 20
-36.7886476285392519
 30
0.0
 40
1.7127391171390871
 50
206.9393308762915922
 51
224.8748996121555876
  0
ARC
  5
133E6
  8
0
 10
66.4307542806771636
 20
-36.9303823963660918
 30
0.0
 40
1.3906697103373591
 50
182.9128341190699985
 51
207.1325714458988045
  0
ARC
  5
133E7
  8
0
 10
66.3751370943547556
 20
-36.9411168333866513
 30
0.0
 40
1.334602241236412
 50
165.2654324465682976
 51
182.5739225927009102
  0
ARC
  5
133E8
  8
0
 10
66.6546962724253547
 20
-37.0302698380631625
 30
0.0
 40
1.6277134819846539
 50
156.468224537394093
 51
164.7332803505912011
  0
ARC
  5
133E9
  8
0
 10
66.5179539921860083
 20
-36.9707224076807321
 30
0.0
 40
1.4785680909388541
 50
141.3590985146400953
 51
156.468224537394093
  0
ARC
  5
133EA
  8
0
 10
66.8443124496025405
 20
-37.195834321878813
 30
0.0
 40
1.874255358459785
 50
136.2454578548768893
 51
142.213899158270408
  0
ARC
  5
133EB
  8
0
 10
67.0362985223923147
 20
-37.3842185390137587
 30
0.0
 40
2.1432121269783471
 50
126.6776822994863068
 51
136.1572430247283023
  0
ARC
  5
133EC
  8
0
 10
67.2761773783869472
 20
-37.7071492417084499
 30
0.0
 40
2.5454880135299289
 50
117.2732069668876989
 51
126.6662975715381947
  0
ARC
  5
133ED
  8
0
 10
67.4862915228624729
 20
-38.1156244510132325
 30
0.0
 40
3.0048351590453639
 50
107.5529098753676038
 51
117.2651771041616939
  0
ARC
  5
133EE
  8
0
 10
67.6122928454060599
 20
-38.5063186404880113
 30
0.0
 40
3.4153392423582201
 50
98.7911922082100347
 51
107.5916039168852052
  0
ARC
  5
133EF
  8
0
 10
67.6311707940685238
 20
-38.5989179973229497
 30
0.0
 40
3.5097388121756898
 50
97.3003373033783987
 51
98.8647166041211847
  0
ENDSEC
  0
EOF
