  0
SECTION
  2
HEADER
  9
$ACADVER
  1
AC1009
  9
$INSBASE
 10
6939.6287309186409402
 20
281.8273957824202967
 30
0.0
  9
$EXTMIN
 10
6934.5837850294774398
 20
280.882513892620409
 30
0.0
  9
$EXTMAX
 10
6939.6402176922902072
 20
285.7348760974203969
 30
0.0
  9
$LIMMIN
 10
0.0
 20
0.0
  9
$LIMMAX
 10
11.6929133858000007
 20
8.2677165353999982
  9
$ORTHOMODE
 70
     0
  9
$REGENMODE
 70
     1
  9
$FILLMODE
 70
     1
  9
$QTEXTMODE
 70
     0
  9
$MIRRTEXT
 70
     0
  9
$DRAGMODE
 70
     2
  9
$LTSCALE
 40
0.6431102362
  9
$OSMODE
 70
  4095
  9
$ATTMODE
 70
     1
  9
$TEXTSIZE
 40
0.2
  9
$TRACEWID
 40
0.05
  9
$TEXTSTYLE
  7
STANDARD
  9
$CLAYER
  8
0
  9
$CELTYPE
  6
BYLAYER
  9
$CECOLOR
 62
   256
  9
$DIMSCALE
 40
1.0
  9
$DIMASZ
 40
0.1875
  9
$DIMEXO
 40
0.0625
  9
$DIMDLI
 40
0.4443307087
  9
$DIMRND
 40
0.0
  9
$DIMDLE
 40
0.0
  9
$DIMEXE
 40
0.125
  9
$DIMTP
 40
0.01
  9
$DIMTM
 40
0.01
  9
$DIMTXT
 40
2.0
  9
$DIMCEN
 40
0.1052362205
  9
$DIMTSZ
 40
0.0
  9
$DIMTOL
 70
     1
  9
$DIMLIM
 70
     0
  9
$DIMTIH
 70
     1
  9
$DIMTOH
 70
     1
  9
$DIMSE1
 70
     0
  9
$DIMSE2
 70
     0
  9
$DIMTAD
 70
     0
  9
$DIMZIN
 70
     0
  9
$DIMBLK
  1

  9
$DIMASO
 70
     1
  9
$DIMSHO
 70
     1
  9
$DIMPOST
  1
\X
  9
$DIMAPOST
  1

  9
$DIMALT
 70
     1
  9
$DIMALTD
 70
     2
  9
$DIMALTF
 40
25.3999999999999986
  9
$DIMLFAC
 40
1.0
  9
$DIMTOFL
 70
     0
  9
$DIMTVP
 40
0.0
  9
$DIMTIX
 70
     0
  9
$DIMSOXD
 70
     0
  9
$DIMSAH
 70
     0
  9
$DIMBLK1
  1

  9
$DIMBLK2
  1

  9
$DIMSTYLE
  2
STANDARD
  9
$DIMCLRD
 70
     0
  9
$DIMCLRE
 70
     0
  9
$DIMCLRT
 70
     0
  9
$DIMTFAC
 40
1.0
  9
$DIMGAP
 40
0.09
  9
$LUNITS
 70
     2
  9
$LUPREC
 70
     4
  9
$SKETCHINC
 40
0.1
  9
$FILLETRAD
 40
0.0
  9
$AUNITS
 70
     0
  9
$AUPREC
 70
     0
  9
$MENU
  1
.
  9
$ELEVATION
 40
0.0
  9
$PELEVATION
 40
0.0
  9
$THICKNESS
 40
0.0
  9
$LIMCHECK
 70
     0
  9
$BLIPMODE
 70
     0
  9
$CHAMFERA
 40
0.0
  9
$CHAMFERB
 40
0.0
  9
$SKPOLY
 70
     0
  9
$TDCREATE
 40
2458060.468368056230247
  9
$TDUPDATE
 40
2460468.4422337962314487
  9
$TDINDWG
 40
1.2252964120000001
  9
$TDUSRTIMER
 40
1.2252964120000001
  9
$USRTIMER
 70
     1
  9
$ANGBASE
 50
0.0
  9
$ANGDIR
 70
     0
  9
$PDMODE
 70
     0
  9
$PDSIZE
 40
0.3125
  9
$PLINEWID
 40
0.0
  9
$COORDS
 70
     1
  9
$SPLFRAME
 70
     0
  9
$SPLINETYPE
 70
     6
  9
$SPLINESEGS
 70
     8
  9
$ATTDIA
 70
     1
  9
$ATTREQ
 70
     1
  9
$HANDLING
 70
     1
  9
$HANDSEED
  5
31989
  9
$SURFTAB1
 70
     6
  9
$SURFTAB2
 70
     6
  9
$SURFTYPE
 70
     6
  9
$SURFU
 70
     6
  9
$SURFV
 70
     6
  9
$UCSNAME
  2

  9
$UCSORG
 10
0.0
 20
0.0
 30
0.0
  9
$UCSXDIR
 10
1.0
 20
0.0
 30
0.0
  9
$UCSYDIR
 10
0.0
 20
1.0
 30
0.0
  9
$PUCSNAME
  2

  9
$PUCSORG
 10
0.0
 20
0.0
 30
0.0
  9
$PUCSXDIR
 10
1.0
 20
0.0
 30
0.0
  9
$PUCSYDIR
 10
0.0
 20
1.0
 30
0.0
  9
$USERI1
 70
     0
  9
$USERI2
 70
     0
  9
$USERI3
 70
     0
  9
$USERI4
 70
     0
  9
$USERI5
 70
     0
  9
$USERR1
 40
0.0
  9
$USERR2
 40
0.0
  9
$USERR3
 40
0.0
  9
$USERR4
 40
0.0
  9
$USERR5
 40
0.0
  9
$WORLDVIEW
 70
     1
  9
$SHADEDGE
 70
     3
  9
$SHADEDIF
 70
    70
  9
$TILEMODE
 70
     1
  9
$MAXACTVP
 70
    64
  9
$PLIMCHECK
 70
     0
  9
$PEXTMIN
 10
1.0000000000000000E+20
 20
1.0000000000000000E+20
 30
1.0000000000000000E+20
  9
$PEXTMAX
 10
-1.0000000000000000E+20
 20
-1.0000000000000000E+20
 30
-1.0000000000000000E+20
  9
$PLIMMIN
 10
0.0
 20
0.0
  9
$PLIMMAX
 10
12.0
 20
9.0
  9
$UNITMODE
 70
     0
  9
$VISRETAIN
 70
     1
  9
$PLINEGEN
 70
     0
  9
$PSLTSCALE
 70
     1
  0
ENDSEC
  0
SECTION
  2
TABLES
  0
TABLE
  2
VPORT
 70
     1
  0
VPORT
  2
*ACTIVE
 70
     0
 10
0.0
 20
0.0
 11
1.0
 21
1.0
 12
3025.7466449155708688
 22
150.7290898924813121
 13
0.0
 23
0.0
 14
1.0
 24
1.0
 15
0.0
 25
0.0
 16
0.0
 26
0.0
 36
60.4960186965801583
 17
3911.3653564453120453
 27
132.5796051025390057
 37
0.0
 40
4.8941328980981211
 41
2.7227011494252871
 42
50.0
 43
0.0
 44
0.0
 50
0.0
 51
0.0
 71
     0
 72
   100
 73
     1
 74
     1
 75
     0
 76
     0
 77
     0
 78
     0
  0
ENDTAB
  0
TABLE
  2
LTYPE
 70
     2
  0
LTYPE
  2
CONTINUOUS
 70
     0
  3
Solid line
 72
    65
 73
     0
 40
0.0
  0
LTYPE
  2
PHANTOM2
 70
     0
  3
___ _ _ ___ _ _ ___ _ _ ___ _ _
 72
    65
 73
     6
 40
1.25
 49
0.625
 49
-0.125
 49
0.125
 49
-0.125
 49
0.125
 49
-0.125
  0
ENDTAB
  0
TABLE
  2
LAYER
 70
     2
  0
LAYER
  2
0
 70
     0
 62
   255
  6
CONTINUOUS
  0
LAYER
  2
DEFPOINTS
 70
     0
 62
     7
  6
CONTINUOUS
  0
ENDTAB
  0
TABLE
  2
STYLE
 70
     1
  0
STYLE
  2
STANDARD
 70
     0
 40
0.0
 41
0.8
 50
0.0
 71
     0
 42
0.2
  3
txt
  4

  0
ENDTAB
  0
TABLE
  2
VIEW
 70
     0
  0
ENDTAB
  0
TABLE
  2
UCS
 70
     0
  0
ENDTAB
  0
TABLE
  2
APPID
 70
    11
  0
APPID
  2
ACAD
 70
     0
  0
APPID
  2
ACAD_MLEADERVER
 70
     0
  0
APPID
  2
ACAD_EXEMPT_FROM_CAD_STANDARDS
 70
     0
  0
APPID
  2
ACAD_NAV_VCDISPLAY
 70
     0
  0
APPID
  2
ACAECLAYERSTANDARD
 70
     0
  0
APPID
  2
ACCMTRANSPARENCY
 70
     0
  0
APPID
  2
ACAD_DSTYLE_DIMJAG
 70
     0
  0
APPID
  2
ACAD_DSTYLE_DIMTALN
 70
     0
  0
APPID
  2
ACDBATTR
 70
     0
  0
APPID
  2
ACADANNOTATIVE
 70
     0
  0
APPID
  2
DCO15
 70
     0
  0
ENDTAB
  0
TABLE
  2
DIMSTYLE
 70
     1
  0
DIMSTYLE
  2
STANDARD
 70
     0
  3

  4

  5

  6

  7

 40
1.0
 41
0.1875
 42
0.0625
 43
0.38
 44
0.125
 45
0.0
 46
0.0
 47
0.01
 48
0.01
140
0.15625
141
0.09
142
0.0
143
25.3999999999999986
144
1.0
145
0.0
146
1.0
147
0.09
 71
     1
 72
     0
 73
     1
 74
     1
 75
     0
 76
     0
 77
     0
 78
     4
170
     0
171
     2
172
     0
173
     0
174
     0
175
     0
176
     0
177
     0
178
     0
  0
ENDTAB
  0
ENDSEC
  0
SECTION
  2
BLOCKS
  0
BLOCK
  8
0
  2
$MODEL_SPACE
 70
     0
 10
0.0
 20
0.0
 30
0.0
  3
$MODEL_SPACE
  1

  0
ENDBLK
  5
21
  8
0
  0
BLOCK
 67
     1
  8
0
  2
$PAPER_SPACE
 70
     0
 10
0.0
 20
0.0
 30
0.0
  3
$PAPER_SPACE
  1

  0
ENDBLK
  5
1D
 67
     1
  8
0
  0
BLOCK
  8
0
  2
_FILLED
 70
     0
 10
0.0
 20
0.0
 30
0.0
  3
_FILLED
  1

  0
SOLID
  5
2E9D1
  8
0
  6
BYBLOCK
 62
     0
 10
0.0
 20
0.0
 30
0.0
 11
-1.0
 21
0.1666666667
 31
0.0
 12
-1.0
 22
-0.1666666667
 32
0.0
 13
-1.0
 23
-0.1666666667
 33
0.0
  0
ENDBLK
  5
2E9D2
  8
0
  6
BYBLOCK
 62
     0
  0
ENDSEC
  0
SECTION
  2
ENTITIES
  0
ATTDEF
  5
26A5B
  8
DEFPOINTS
 10
6939.6295510256213674
 20
281.8311678365129751
 30
0.0
 40
0.001
  1
K-14463T
  3

  2
MODELNUMBER
 70
     0
1001
ACDBATTR
1070
     0
1070
     1
  0
ATTDEF
  5
26A5C
  8
DEFPOINTS
 10
6939.6294252159650569
 20
281.8295009961337882
 30
0.0
 40
0.001
  1
STILLNESS
  3

  2
TRADENAME
 70
     0
1001
ACDBATTR
1070
     0
1070
     1
  0
ATTDEF
  5
26A5D
  8
DEFPOINTS
 10
6939.6295510256213674
 20
281.827834503179588
 30
0.0
 40
0.001
  1
TUMBLER AND HOLDER
  3

  2
PRODUCT
 70
     0
1001
ACDBATTR
1070
     0
1070
     1
  0
LINE
  5
3179C
  8
0
 10
6934.6231850294770993
 20
285.7348760974203969
 30
0.0
 11
6937.4098659921073704
 21
285.7348760974203969
 31
0.0
  0
LINE
  5
3179D
  8
0
 10
6934.6090458792396021
 20
282.1915690107204
 30
0.0
 11
6937.4240065091389624
 21
282.1915690107204
 31
0.0
  0
LINE
  5
3179E
  8
0
 10
6934.6090458792396021
 20
281.463222554120307
 30
0.0
 11
6937.4240065091389624
 21
281.463222554120307
 31
0.0
  0
LINE
  5
3179F
  8
0
 10
6939.3728403674404035
 20
280.882513892620409
 30
0.0
 11
6939.6287309186409402
 21
280.882513892620409
 31
0.0
  0
LINE
  5
317A0
  8
0
 10
6934.5837863974602442
 20
285.6951477754873849
 30
0.0
 11
6934.6124953175303745
 21
282.2500773611254203
 31
0.0
  0
LINE
  5
317A1
  8
0
 10
6937.4492646242533738
 20
285.6951477911188135
 30
0.0
 11
6937.4205570711646942
 21
282.2500773845326876
 31
0.0
  0
ARC
  5
317A2
  8
0
 10
6937.4098659921073704
 20
285.6954760974203964
 30
0.0
 40
0.0394
 50
359.5225689554720248
 51
90.0
  0
ARC
  5
317A3
  8
0
 10
6934.6231850294770993
 20
285.6954760974203964
 30
0.0
 40
0.0394
 50
90.0
 51
180.4774537764770912
  0
ARC
  5
317A4
  8
0
 10
6934.6714932690256319
 20
282.2505690107204259
 30
0.0
 40
0.059
 50
180.4774537764803881
 51
270.0
  0
ARC
  5
317A5
  8
0
 10
6937.3615591194748049
 20
282.2505690107204259
 30
0.0
 40
0.059
 50
270.0
 51
359.5225689554785049
  0
LINE
  5
317A6
  8
0
 10
6934.6090458792396021
 20
282.1915690107204
 30
0.0
 11
6934.6090458792396021
 21
281.463222554120307
 31
0.0
  0
LINE
  5
317A7
  8
0
 10
6937.4240065091389624
 20
281.463222554120307
 30
0.0
 11
6937.4240065091389624
 21
281.4730650737203064
 31
0.0
  0
LINE
  5
317A8
  8
0
 10
6937.4240065091389624
 20
282.1817264911202869
 30
0.0
 11
6937.4240065091389624
 21
282.1915690107204
 31
0.0
  0
LINE
  5
317A9
  8
0
 10
6939.6287309186409402
 20
282.7722776722204117
 30
0.0
 11
6939.6287309186409402
 21
280.882513892620409
 31
0.0
  0
LINE
  5
317AA
  8
0
 10
6939.3728403674404035
 20
282.7722776722204117
 30
0.0
 11
6939.6287309186409402
 21
282.7722776722204117
 31
0.0
  0
LINE
  5
317AB
  8
0
 10
6939.3531403674396643
 20
282.7525776722204114
 30
0.0
 11
6939.3531403674396643
 21
280.9022138926204093
 31
0.0
  0
ARC
  5
317AC
  8
0
 10
6939.3728403674404035
 20
282.7525776722204114
 30
0.0
 40
0.0197
 50
90.0
 51
180.0000000000032117
  0
ARC
  5
317AD
  8
0
 10
6939.3728403674404035
 20
280.9022138926204093
 30
0.0
 40
0.0197
 50
179.9999999999967031
 51
270.0
  0
LINE
  5
317AE
  8
0
 10
6939.3531403674396643
 20
282.1817264911202869
 30
0.0
 11
6937.4240065091389624
 21
282.1817264911202869
 31
0.0
  0
LINE
  5
317AF
  8
0
 10
6939.3531403674396643
 20
281.4730650737203064
 30
0.0
 11
6939.2153607282225494
 21
281.4730650737203064
 31
0.0
  0
LINE
  5
317B0
  8
0
 10
6938.9791102880872131
 20
281.4730650737203064
 30
0.0
 11
6937.4240065091389624
 21
281.4730650737203064
 31
0.0
  0
ARC
  5
317B1
  8
0
 10
6938.7861356893454285
 20
281.8273957824202967
 30
0.0
 40
1.4074608892235629
 50
165.4188054294791925
 51
194.5811945705208075
  0
ARC
  5
317B2
  8
0
 10
6939.0972355081539718
 20
281.1388766500389806
 30
0.0
 40
0.3544509417937303
 50
70.5330817036427931
 51
109.4669182963572069
  0
LINE
  5
317B3
  8
0
 10
6939.0770107148237003
 20
281.492750113120394
 30
0.0
 11
6939.1174603014860622
 21
281.492750113120394
 31
0.0
  0
ENDSEC
  0
EOF
