  0
SECTION
  2
HEADER
  9
$ACADVER
  1
AC1009
  9
$INSBASE
 10
4435.8855573086420918
 20
243.8826654646827023
 30
0.0
  9
$EXTMIN
 10
4431.4611214165306592
 20
243.8826654646827023
 30
0.0
  9
$EXTMAX
 10
4437.2755573086406002
 20
251.8789919257665133
 30
0.0
  9
$LIMMIN
 10
0.0
 20
0.0
  9
$LIMMAX
 10
11.6929133858000007
 20
8.2677165353999982
  9
$ORTHOMODE
 70
     1
  9
$REGENMODE
 70
     1
  9
$FILLMODE
 70
     1
  9
$QTEXTMODE
 70
     0
  9
$MIRRTEXT
 70
     0
  9
$DRAGMODE
 70
     2
  9
$LTSCALE
 40
0.6431102362
  9
$OSMODE
 70
  4095
  9
$ATTMODE
 70
     1
  9
$TEXTSIZE
 40
0.2
  9
$TRACEWID
 40
0.05
  9
$TEXTSTYLE
  7
STANDARD
  9
$CLAYER
  8
0
  9
$CELTYPE
  6
BYLAYER
  9
$CECOLOR
 62
   256
  9
$DIMSCALE
 40
1.0
  9
$DIMASZ
 40
0.1875
  9
$DIMEXO
 40
0.0625
  9
$DIMDLI
 40
0.4443307087
  9
$DIMRND
 40
0.0
  9
$DIMDLE
 40
0.0
  9
$DIMEXE
 40
0.125
  9
$DIMTP
 40
0.01
  9
$DIMTM
 40
0.01
  9
$DIMTXT
 40
2.0
  9
$DIMCEN
 40
0.1052362205
  9
$DIMTSZ
 40
0.0
  9
$DIMTOL
 70
     1
  9
$DIMLIM
 70
     0
  9
$DIMTIH
 70
     1
  9
$DIMTOH
 70
     1
  9
$DIMSE1
 70
     0
  9
$DIMSE2
 70
     0
  9
$DIMTAD
 70
     0
  9
$DIMZIN
 70
     0
  9
$DIMBLK
  1

  9
$DIMASO
 70
     1
  9
$DIMSHO
 70
     1
  9
$DIMPOST
  1
\X
  9
$DIMAPOST
  1

  9
$DIMALT
 70
     1
  9
$DIMALTD
 70
     2
  9
$DIMALTF
 40
25.3999999999999986
  9
$DIMLFAC
 40
1.0
  9
$DIMTOFL
 70
     0
  9
$DIMTVP
 40
0.0
  9
$DIMTIX
 70
     0
  9
$DIMSOXD
 70
     0
  9
$DIMSAH
 70
     0
  9
$DIMBLK1
  1

  9
$DIMBLK2
  1

  9
$DIMSTYLE
  2
STANDARD
  9
$DIMCLRD
 70
     0
  9
$DIMCLRE
 70
     0
  9
$DIMCLRT
 70
     0
  9
$DIMTFAC
 40
1.0
  9
$DIMGAP
 40
0.09
  9
$LUNITS
 70
     2
  9
$LUPREC
 70
     4
  9
$SKETCHINC
 40
0.1
  9
$FILLETRAD
 40
0.0
  9
$AUNITS
 70
     0
  9
$AUPREC
 70
     0
  9
$MENU
  1
.
  9
$ELEVATION
 40
0.0
  9
$PELEVATION
 40
0.0
  9
$THICKNESS
 40
0.0
  9
$LIMCHECK
 70
     0
  9
$BLIPMODE
 70
     0
  9
$CHAMFERA
 40
0.0
  9
$CHAMFERB
 40
0.0
  9
$SKPOLY
 70
     0
  9
$TDCREATE
 40
2458060.468368056230247
  9
$TDUPDATE
 40
2459032.7653819448314607
  9
$TDINDWG
 40
0.306071875
  9
$TDUSRTIMER
 40
0.306071875
  9
$USRTIMER
 70
     1
  9
$ANGBASE
 50
0.0
  9
$ANGDIR
 70
     0
  9
$PDMODE
 70
     0
  9
$PDSIZE
 40
0.3125
  9
$PLINEWID
 40
0.0
  9
$COORDS
 70
     1
  9
$SPLFRAME
 70
     0
  9
$SPLINETYPE
 70
     6
  9
$SPLINESEGS
 70
     8
  9
$ATTDIA
 70
     1
  9
$ATTREQ
 70
     1
  9
$HANDLING
 70
     1
  9
$HANDSEED
  5
758D
  9
$SURFTAB1
 70
     6
  9
$SURFTAB2
 70
     6
  9
$SURFTYPE
 70
     6
  9
$SURFU
 70
     6
  9
$SURFV
 70
     6
  9
$UCSNAME
  2

  9
$UCSORG
 10
0.0
 20
0.0
 30
0.0
  9
$UCSXDIR
 10
1.0
 20
0.0
 30
0.0
  9
$UCSYDIR
 10
0.0
 20
1.0
 30
0.0
  9
$PUCSNAME
  2

  9
$PUCSORG
 10
0.0
 20
0.0
 30
0.0
  9
$PUCSXDIR
 10
1.0
 20
0.0
 30
0.0
  9
$PUCSYDIR
 10
0.0
 20
1.0
 30
0.0
  9
$USERI1
 70
     0
  9
$USERI2
 70
     0
  9
$USERI3
 70
     0
  9
$USERI4
 70
     0
  9
$USERI5
 70
     0
  9
$USERR1
 40
0.0
  9
$USERR2
 40
0.0
  9
$USERR3
 40
0.0
  9
$USERR4
 40
0.0
  9
$USERR5
 40
0.0
  9
$WORLDVIEW
 70
     1
  9
$SHADEDGE
 70
     3
  9
$SHADEDIF
 70
    70
  9
$TILEMODE
 70
     1
  9
$MAXACTVP
 70
    64
  9
$PLIMCHECK
 70
     0
  9
$PEXTMIN
 10
1.0000000000000000E+20
 20
1.0000000000000000E+20
 30
1.0000000000000000E+20
  9
$PEXTMAX
 10
-1.0000000000000000E+20
 20
-1.0000000000000000E+20
 30
-1.0000000000000000E+20
  9
$PLIMMIN
 10
0.0
 20
0.0
  9
$PLIMMAX
 10
12.0
 20
9.0
  9
$UNITMODE
 70
     0
  9
$VISRETAIN
 70
     1
  9
$PLINEGEN
 70
     0
  9
$PSLTSCALE
 70
     1
  0
ENDSEC
  0
SECTION
  2
TABLES
  0
TABLE
  2
VPORT
 70
     1
  0
VPORT
  2
*ACTIVE
 70
     0
 10
0.0
 20
0.0
 11
1.0
 21
1.0
 12
0.0
 22
0.0
 13
0.0
 23
0.0
 14
1.0
 24
1.0
 15
0.0
 25
0.0
 16
0.0
 26
0.0
 36
28.3242046571059305
 17
4434.3681640625
 27
247.8808135986328125
 37
0.0
 40
9.8886337742259993
 41
2.1481900452488678
 42
50.0
 43
0.0
 44
0.0
 50
0.0
 51
0.0
 71
     0
 72
   100
 73
     1
 74
     1
 75
     0
 76
     0
 77
     0
 78
     0
  0
ENDTAB
  0
TABLE
  2
LTYPE
 70
     3
  0
LTYPE
  2
CONTINUOUS
 70
     0
  3
Solid line
 72
    65
 73
     0
 40
0.0
  0
LTYPE
  2
PHANTOM2
 70
     0
  3
___ _ _ ___ _ _ ___ _ _ ___ _ _
 72
    65
 73
     6
 40
1.25
 49
0.625
 49
-0.125
 49
0.125
 49
-0.125
 49
0.125
 49
-0.125
  0
ENDTAB
  0
TABLE
  2
LAYER
 70
     2
  0
LAYER
  2
0
 70
     0
 62
   255
  6
CONTINUOUS
  0
LAYER
  2
DEFPOINTS
 70
     0
 62
     7
  6
CONTINUOUS
  0
ENDTAB
  0
TABLE
  2
STYLE
 70
     1
  0
STYLE
  2
STANDARD
 70
     0
 40
0.0
 41
0.8
 50
0.0
 71
     0
 42
0.2
  3
txt
  4

  0
ENDTAB
  0
TABLE
  2
VIEW
 70
     0
  0
ENDTAB
  0
TABLE
  2
UCS
 70
     0
  0
ENDTAB
  0
TABLE
  2
APPID
 70
     9
  0
APPID
  2
ACAD
 70
     0
  0
APPID
  2
ACAD_MLEADERVER
 70
     0
  0
APPID
  2
ACAD_EXEMPT_FROM_CAD_STANDARDS
 70
     0
  0
APPID
  2
ACAD_NAV_VCDISPLAY
 70
     0
  0
APPID
  2
ACAECLAYERSTANDARD
 70
     0
  0
APPID
  2
ACCMTRANSPARENCY
 70
     0
  0
APPID
  2
ACAD_DSTYLE_DIMJAG
 70
     0
  0
APPID
  2
ACAD_DSTYLE_DIMTALN
 70
     0
  0
APPID
  2
ACDBATTR
 70
     0
  0
ENDTAB
  0
TABLE
  2
DIMSTYLE
 70
     2
  0
DIMSTYLE
  2
STANDARD
 70
     0
  3

  4

  5

  6

  7

 40
1.0
 41
0.1875
 42
0.0625
 43
0.38
 44
0.125
 45
0.0
 46
0.0
 47
0.01
 48
0.01
140
0.15625
141
0.09
142
0.0
143
25.3999999999999986
144
1.0
145
0.0
146
1.0
147
0.09
 71
     1
 72
     0
 73
     1
 74
     1
 75
     0
 76
     0
 77
     0
 78
     4
170
     0
171
     2
172
     0
173
     0
174
     0
175
     0
176
     0
177
     0
178
     0
  0
ENDTAB
  0
ENDSEC
  0
SECTION
  2
BLOCKS
  0
BLOCK
  8
0
  2
$MODEL_SPACE
 70
     0
 10
0.0
 20
0.0
 30
0.0
  3
$MODEL_SPACE
  1

  0
ENDBLK
  5
21
  8
0
  0
BLOCK
 67
     1
  8
0
  2
$PAPER_SPACE
 70
     0
 10
0.0
 20
0.0
 30
0.0
  3
$PAPER_SPACE
  1

  0
ENDBLK
  5
1D
 67
     1
  8
0
  0
ENDSEC
  0
SECTION
  2
ENTITIES
  0
ATTDEF
  5
3930
  8
DEFPOINTS
 10
4435.8819881844019619
 20
243.8932171330617109
 30
0.0
 40
0.001
  1
K-14434W-4
  3

  2
MODELNUMBER
 70
     0
1001
ACDBATTR
1070
     0
1070
     1
  0
ATTDEF
  5
3931
  8
DEFPOINTS
 10
4435.8819881844019619
 20
243.8915504663949889
 30
0.0
 40
0.001
  1
PURIST
  3

  2
TRADENAME
 70
     0
1001
ACDBATTR
1070
     0
1070
     1
  0
ATTDEF
  5
3932
  8
DEFPOINTS
 10
4435.8819881844019619
 20
243.889883799728409
 30
0.0
 40
0.001
  1
BIDET FAUCET
  3

  2
PRODUCT
 70
     0
1001
ACDBATTR
1070
     0
1070
     1
  0
LINE
  5
744D
  8
0
 10
4431.4611214165415731
 20
246.976262823182708
 30
0.0
 11
4431.8132501806421715
 21
246.2998297608826874
 31
0.0
  0
LINE
  5
744E
  8
0
 10
4431.4694927207419823
 20
247.0028132076826068
 30
0.0
 11
4431.8398005652406937
 21
246.2914584568827081
 31
0.0
  0
LINE
  5
744F
  8
0
 10
4432.097173392440709
 20
246.4254382703826991
 30
0.0
 11
4431.7268655479419976
 21
247.1367930212826991
 31
0.0
  0
LINE
  5
7450
  8
0
 10
4432.1196424095405746
 20
246.4675387047826973
 30
0.0
 11
4431.7742399035423659
 21
247.1310507453827086
 31
0.0
  0
LINE
  5
7451
  8
0
 10
4431.7857085893419935
 20
247.1674247697827127
 30
0.0
 11
4432.1560164339416588
 21
246.4560700189827003
 31
0.0
  0
LINE
  5
7452
  8
0
 10
4431.7723117246423499
 20
247.2016179985826909
 30
0.0
 11
4432.1763417612419289
 21
246.4254835195827127
 31
0.0
  0
LINE
  5
7453
  8
0
 10
4431.4694927207419823
 20
247.0028132076826068
 30
0.0
 11
4431.4611214165306592
 21
246.9762628232041948
 31
0.0
  0
LINE
  5
7454
  8
0
 10
4431.8398005652406937
 20
246.2914584568827081
 30
0.0
 11
4431.8132501806421715
 21
246.2998297608826874
 31
0.0
  0
LINE
  5
7455
  8
0
 10
4431.7742399035423659
 20
247.1310507453827086
 30
0.0
 11
4431.7857085893419935
 21
247.1674247697827127
 31
0.0
  0
LINE
  5
7456
  8
0
 10
4432.1196424095405746
 20
246.4675387047826973
 30
0.0
 11
4432.1560164339416588
 21
246.4560700189827003
 31
0.0
  0
LINE
  5
7457
  8
0
 10
4432.6714121286422596
 20
246.8951486461826903
 30
0.0
 11
4432.440999570340864
 21
247.3377670524826897
 31
0.0
  0
LINE
  5
7458
  8
0
 10
4432.5218821835405834
 20
247.2395128231827073
 30
0.0
 11
4432.6373193369418004
 21
247.0177601148826909
 31
0.0
  0
LINE
  5
7459
  8
0
 10
4437.2755573086406002
 20
245.9928977481827133
 30
0.0
 11
4436.7726260771405578
 21
245.9928977481827133
 31
0.0
  0
LINE
  5
745A
  8
0
 10
4432.5328912283421232
 20
247.4213971983826923
 30
0.0
 11
4432.7926248233407023
 21
246.922453604682687
 31
0.0
  0
LINE
  5
745B
  8
0
 10
4432.5168667216421454
 20
247.5536962659826941
 30
0.0
 11
4432.8918065956422652
 21
246.8334434694826882
 31
0.0
  0
LINE
  5
745C
  8
0
 10
4432.94502724564245
 20
246.8611483862827072
 30
0.0
 11
4432.5700873716414208
 21
247.581401182782713
 31
0.0
  0
LINE
  5
745D
  8
0
 10
4432.6261030458417736
 20
246.9821865844826903
 30
0.0
 11
4432.6373193369418004
 21
247.0177601148826909
 31
0.0
  0
LINE
  5
745E
  8
0
 10
4437.2755573086406002
 20
246.3678977481827133
 30
0.0
 11
4436.7726260771405578
 21
246.3678977481827133
 31
0.0
  0
LINE
  5
745F
  8
0
 10
4432.4863086531422596
 20
247.2507291141826897
 30
0.0
 11
4432.5218821835405834
 21
247.2395128231827073
 31
0.0
  0
LINE
  5
7460
  8
0
 10
4435.8974385495421302
 20
249.4113181524826928
 30
0.0
 11
4436.525270455142163
 21
249.6909440111826939
 31
0.0
  0
LINE
  5
7461
  8
0
 10
4434.9772991824420387
 20
247.082665464682691
 30
0.0
 11
4433.5962061642412664
 21
247.082665464682691
 31
0.0
  0
LINE
  5
7462
  8
0
 10
4432.1874327945406549
 20
247.4177163495826903
 30
0.0
 11
4431.7723117246423499
 21
247.2016179985826909
 31
0.0
  0
LINE
  5
7463
  8
0
 10
4432.5700873716414208
 20
247.581401182782713
 30
0.0
 11
4432.5168667216421454
 21
247.5536962659826941
 31
0.0
  0
LINE
  5
7464
  8
0
 10
4432.7923018285409853
 20
247.6959513252826923
 30
0.0
 11
4432.5705491202406847
 21
247.5805141719827134
 31
0.0
  0
LINE
  5
7465
  8
0
 10
4431.4694927207419823
 20
247.0028132076826068
 30
0.0
 11
4431.7268655479419976
 21
247.1367930212826991
 31
0.0
  0
LINE
  5
7466
  8
0
 10
4431.7857085893419935
 20
247.1674247697827127
 30
0.0
 11
4431.7891728206423068
 21
247.1692281344826085
 31
0.0
  0
LINE
  5
7467
  8
0
 10
4431.739318217141772
 20
247.1128716660826967
 30
0.0
 11
4431.7742399035423659
 21
247.1310507453827086
 31
0.0
  0
LINE
  5
7468
  8
0
 10
4432.5328912283421232
 20
247.4213971983826923
 30
0.0
 11
4432.574469861140642
 21
247.4430416645826938
 31
0.0
  0
LINE
  5
7469
  8
0
 10
4432.5218821835405834
 20
247.2395128231827073
 30
0.0
 11
4432.6050394492413034
 21
247.2828017556826978
 31
0.0
  0
LINE
  5
746A
  8
0
 10
4432.6373193369418004
 20
247.0177601148826909
 30
0.0
 11
4432.7204766025415665
 21
247.0610490473827099
 31
0.0
  0
LINE
  5
746B
  8
0
 10
4434.9775585915722331
 20
247.892665464682608
 30
0.0
 11
4433.5962061642412664
 21
247.892665464682608
 31
0.0
  0
LINE
  5
746C
  8
0
 10
4432.7926248233407023
 20
246.922453604682687
 30
0.0
 11
4432.8342034561419496
 21
246.9440980708826885
 31
0.0
  0
LINE
  5
746D
  8
0
 10
4432.0847207231417997
 20
246.4493596255827015
 30
0.0
 11
4432.1196424095405746
 21
246.4675387047826973
 31
0.0
  0
LINE
  5
746E
  8
0
 10
4431.8398005652406937
 20
246.2914584568827081
 30
0.0
 11
4432.097173392440709
 21
246.4254382703826991
 31
0.0
  0
LINE
  5
746F
  8
0
 10
4432.1560164339416588
 20
246.4560700189827003
 30
0.0
 11
4432.159480665241972
 21
246.4578733835826938
 31
0.0
  0
LINE
  5
7470
  8
0
 10
4433.1663182053416676
 20
246.9774725503827142
 30
0.0
 11
4432.9445654970422765
 21
246.8620353970827068
 31
0.0
  0
LINE
  5
7471
  8
0
 10
4432.94502724564245
 20
246.8611483862827072
 30
0.0
 11
4432.8918065956422652
 21
246.8334434694826882
 31
0.0
  0
LINE
  5
7472
  8
0
 10
4432.5914628311420529
 20
246.6415818705827121
 30
0.0
 11
4432.1763417612419289
 21
246.4254835195827127
 31
0.0
  0
LINE
  5
7473
  8
0
 10
4436.6005573162892688
 20
249.6476358714826915
 30
0.0
 11
4436.4280325530307891
 21
249.6476358714826915
 31
0.0
  0
LINE
  5
7474
  8
0
 10
4436.5905282244411865
 20
249.657665464682708
 30
0.0
 11
4436.450551566975264
 21
249.657665464682708
 31
0.0
  0
LINE
  5
7475
  8
0
 10
4436.5496444555410562
 20
249.6961312822826926
 30
0.0
 11
4436.7642129795422079
 21
249.6961309617826998
 31
0.0
  0
LINE
  5
7476
  8
0
 10
4436.7679525301418835
 20
250.1822460938826964
 30
0.0
 11
4436.7685153536422149
 21
250.1661294291826891
 31
0.0
  0
LINE
  5
7477
  8
0
 10
4436.7810871030405906
 20
249.8061325608827019
 30
0.0
 11
4436.784205747740998
 21
249.7168289728826096
 31
0.0
  0
LINE
  5
7478
  8
0
 10
4436.7726260771405578
 20
247.0546654644826958
 30
0.0
 11
4436.7726260771405578
 21
245.3356654649826964
 31
0.0
  0
LINE
  5
7479
  8
0
 10
4437.2755573086406002
 20
245.9928977481827133
 30
0.0
 11
4437.2755573086406002
 21
246.3678977481827133
 31
0.0
  0
LINE
  5
747A
  8
0
 10
4436.5905282244411865
 20
249.657665464682708
 30
0.0
 11
4436.6005573162892688
 21
249.6476358714826915
 31
0.0
  0
LINE
  5
747B
  8
0
 10
4435.2605595928407638
 20
251.2311305475826941
 30
0.0
 11
4433.5696825111417638
 21
251.231131943182703
 31
0.0
  0
LINE
  5
747C
  8
0
 10
4435.2605599560411065
 20
251.6711305475826919
 30
0.0
 11
4433.5696828743421065
 21
251.6711319431827008
 31
0.0
  0
LINE
  5
747D
  8
0
 10
4433.2890565670422802
 20
251.8786747295827126
 30
0.0
 11
4432.8822913313406389
 21
251.7736487554826965
 31
0.0
  0
ARC
  5
747E
  8
0
 10
4433.5962061642412664
 20
246.1516654646827078
 30
0.0
 40
1.740999999999999
 50
90.0
 51
117.4999999999835012
  0
ARC
  5
747F
  8
0
 10
4433.5962061642412664
 20
246.1516654646827078
 30
0.0
 40
0.9309999999999998
 50
90.0
 51
117.4999999999835012
  0
ARC
  5
7480
  8
0
 10
4432.2742415338416322
 20
247.2509583128826876
 30
0.0
 40
0.188
 50
27.5000000995013707
 51
117.4999999999835012
  0
ARC
  5
7481
  8
0
 10
4432.5046540918419851
 20
246.8083399071826989
 30
0.0
 40
0.188
 50
297.4999999999835154
 51
27.4999999005095006
  0
ARC
  5
7482
  8
0
 10
4433.5696831054410723
 20
251.9511319431827019
 30
0.0
 40
0.72
 50
195.2834554058964045
 51
269.9999527074850221
  0
ARC
  5
7483
  8
0
 10
4433.5696831054410723
 20
251.9511319431827019
 30
0.0
 40
0.28
 50
196.4511097116028964
 51
269.9999527074850221
  0
ARC
  5
7484
  8
0
 10
4433.2915557784126577
 20
251.8689875952956925
 30
0.0
 40
0.0100043304707885
 50
16.546482256209071
 51
104.4664441828781065
  0
ARC
  5
7485
  8
0
 10
4432.8847880712201004
 20
251.7639726012980077
 30
0.0
 40
0.0099930810975732
 50
104.4684500056865062
 51
195.2512903167533125
  0
ARC
  5
7486
  8
0
 10
4435.2605592585414342
 20
250.826130547582693
 30
0.0
 40
0.844999999999996
 50
0.1895548197239996
 51
89.9999527074850363
  0
ARC
  5
7487
  8
0
 10
4436.0690610089422989
 20
249.9861302253827091
 30
0.0
 40
0.73
 50
347.8034091907018137
 51
12.1967120870955501
  0
ARC
  5
7488
  8
0
 10
4435.2605587427078717
 20
250.8261293022551115
 30
0.0
 40
0.4050012453283859
 50
359.9910461533049784
 51
89.9998797324541187
  0
ARC
  5
7489
  8
0
 10
4436.5496455195270755
 20
249.636268251010307
 30
0.0
 40
0.0598630312818304
 50
90.0010183565467514
 51
114.0278464833522065
  0
ARC
  5
748A
  8
0
 10
4435.8730390888267721
 20
249.4661679536403938
 30
0.0
 40
0.0600387846717249
 50
270.0115224078282949
 51
293.9961375480227161
  0
ARC
  5
748B
  8
0
 10
4436.7630323705589035
 20
249.8361328489600908
 30
0.0
 40
0.0200031946422293
 50
315.7804735488180086
 51
347.7997114092411834
  0
ARC
  5
748C
  8
0
 10
4436.763034312804848
 20
250.1361302861996876
 30
0.0
 40
0.0200007290788752
 50
12.1983746266384792
 51
79.0593522165092111
  0
ARC
  5
748D
  8
0
 10
4436.7625177177897058
 20
249.7177732439795079
 30
0.0
 40
0.0217085764409496
 50
274.4788905833578951
 51
357.5069842083922254
  0
LINE
  5
748E
  8
0
 10
4434.7955664581422752
 20
243.8826654646827023
 30
0.0
 11
4436.9755481591419084
 21
243.8826654646827023
 31
0.0
  0
LINE
  5
748F
  8
0
 10
4434.7955573086419463
 20
244.0526654646826898
 30
0.0
 11
4436.9755573086422373
 21
244.0526654646826898
 31
0.0
  0
LINE
  5
7490
  8
0
 10
4434.9755573086422373
 20
244.2626654646826978
 30
0.0
 11
4436.7955573086410368
 21
244.2626654646826978
 31
0.0
  0
LINE
  5
7491
  8
0
 10
4434.765557308642201
 20
244.0226654646826887
 30
0.0
 11
4434.765557308642201
 21
243.9126654646827035
 31
0.0
  0
LINE
  5
7492
  8
0
 10
4434.9755573086422373
 20
249.3376654646826864
 30
0.0
 11
4434.9755573086422373
 21
247.8966654646827124
 31
0.0
  0
LINE
  5
7493
  8
0
 10
4434.9755573086422373
 20
247.0791867349578865
 30
0.0
 11
4434.9755573086422373
 21
244.2326654646826114
 31
0.0
  0
LINE
  5
7494
  8
0
 10
4435.0021586319417111
 20
250.1822443185826899
 30
0.0
 11
4434.9755573086422373
 21
249.429176137482699
 31
0.0
  0
LINE
  5
7495
  8
0
 10
4435.1705573058006848
 20
249.4061291701827088
 30
0.0
 11
4435.1705573086419463
 21
249.3876654646826978
 31
0.0
  0
LINE
  5
7496
  8
0
 10
4435.6647125302597487
 20
250.7664788950752097
 30
0.0
 11
4435.6607838505424297
 21
250.5413927077827054
 31
0.0
  0
LINE
  5
7497
  8
0
 10
4435.6655599830919527
 20
250.8061301950826874
 30
0.0
 11
4435.6655599830919527
 21
250.8260660110479137
 31
0.0
  0
LINE
  5
7498
  8
0
 10
4436.7955573086410368
 20
249.3376654646826864
 30
0.0
 11
4434.9755573086422373
 21
249.3376654646826864
 31
0.0
  0
ARC
  5
7499
  8
0
 10
4434.7809142603246073
 20
244.2473085130000072
 30
0.0
 40
0.1951930713992256
 50
274.3022725812875251
 51
355.6977274187116791
  0
ARC
  5
749A
  8
0
 10
4434.7955573086419463
 20
244.0226654646826887
 30
0.0
 40
0.03
 50
90.0
 51
180.0
  0
ARC
  5
749B
  8
0
 10
4434.797730903066622
 20
243.9148397206232062
 30
0.0
 40
0.0322469776438476
 50
183.8661072003305037
 51
266.1513643931054958
  0
ARC
  5
749C
  8
0
 10
4435.3111675054478837
 20
250.5473853456504116
 30
0.0
 40
0.3496677000599957
 50
285.9608527730613901
 51
359.0180114775490097
  0
ARC
  5
749D
  8
0
 10
4435.099517533787548
 20
249.3936442499243924
 30
0.0
 40
0.0712909214713014
 50
308.2593230301213794
 51
355.1892613795732245
  0
ARC
  5
749E
  8
0
 10
4435.035486946068886
 20
250.1777218098249875
 30
0.0
 40
0.0336337569710444
 50
95.5586672846987142
 51
172.2724088968753904
  0
ARC
  5
749F
  8
0
 10
4435.6855910920230599
 20
250.8061417059336975
 30
0.0
 40
0.0200311122394741
 50
180.0329250646339005
 51
267.4881519040318949
  0
ARC
  5
74A0
  8
0
 10
4435.6847094846416439
 20
250.7661298397248117
 30
0.0
 40
0.0200000006046397
 50
89.9893306673342295
 51
178.9999793385543967
  0
ARC
  5
74A1
  8
0
 10
4435.0002273060017615
 20
249.4304444059528976
 30
0.0
 40
0.0247025762753138
 50
182.9429478118007069
 51
259.8402718928771264
  0
LINE
  5
74A2
  8
0
 10
4437.0055573086410732
 20
244.0226654646826887
 30
0.0
 11
4437.0055573086410732
 21
243.9126654646827035
 31
0.0
  0
LINE
  5
74A3
  8
0
 10
4436.7955573086410368
 20
249.3376654646826864
 30
0.0
 11
4436.7955573086410368
 21
247.2576654646827023
 31
0.0
  0
LINE
  5
74A4
  8
0
 10
4436.7955573086410368
 20
245.1326654646827023
 30
0.0
 11
4436.7955573086410368
 21
244.2326654646826114
 31
0.0
  0
LINE
  5
74A5
  8
0
 10
4436.6005573162892688
 20
249.6476358714826915
 30
0.0
 11
4436.6005573086431468
 21
249.3876654646826978
 31
0.0
  0
LINE
  5
74A6
  8
0
 10
4436.1064020870226159
 20
250.7664788950752097
 30
0.0
 11
4436.1103307667417539
 21
250.5413927077827054
 31
0.0
  0
LINE
  5
74A7
  8
0
 10
4436.1055546341913214
 20
250.8061301950826874
 30
0.0
 11
4436.1055546341913214
 21
250.8289261030641057
 31
0.0
  0
ARC
  5
74A8
  8
0
 10
4436.9902003569595763
 20
244.2473085130000072
 30
0.0
 40
0.1951930713992256
 50
184.3022725812882072
 51
265.6977274187124749
  0
ARC
  5
74A9
  8
0
 10
4436.9755573086422373
 20
244.0226654646826887
 30
0.0
 40
0.03
 50
0.0
 51
90.0
  0
ARC
  5
74AA
  8
0
 10
4436.9733837142157427
 20
243.9148397206232062
 30
0.0
 40
0.0322469776438476
 50
273.8486356068945042
 51
356.1338927996695247
  0
ARC
  5
74AB
  8
0
 10
4436.4599471118353904
 20
250.5473853456504116
 30
0.0
 40
0.3496677000599957
 50
180.9819885224509903
 51
254.0391472269386099
  0
ARC
  5
74AC
  8
0
 10
4436.6715970834957261
 20
249.3936442499243924
 30
0.0
 40
0.0712909214713014
 50
184.8107386204250986
 51
231.7406769698785922
  0
ARC
  5
74AD
  8
0
 10
4436.7366028406158875
 20
250.1798383687620912
 30
0.0
 40
0.0314420128754642
 50
4.3918202855740232
 51
85.8365323771421203
  0
ARC
  5
74AE
  8
0
 10
4436.0855235252593047
 20
250.8061417059336975
 30
0.0
 40
0.0200311122394741
 50
272.5118480959681051
 51
359.9670749353659858
  0
ARC
  5
74AF
  8
0
 10
4436.0864051326407207
 20
250.7661298397248117
 30
0.0
 40
0.0200000006046397
 50
1.0000206614455729
 51
90.0106693326657563
  0
LINE
  5
74B0
  8
0
 10
4434.9958699462422373
 20
249.4061291701827088
 30
0.0
 11
4435.873051162813681
 21
249.4061291701827088
 31
0.0
  0
LINE
  5
74B1
  8
0
 10
4435.0322290147087188
 20
250.2111974052826895
 30
0.0
 11
4436.7388856025745554
 21
250.2111974052826895
 31
0.0
  0
LINE
  5
74B2
  8
0
 10
4435.6847132089378647
 20
250.7861298399826921
 30
0.0
 11
4436.086401408340862
 21
250.7861298399826921
 31
0.0
  0
ARC
  5
74B3
  8
0
 10
4437.7028553787440615
 20
245.337950601497397
 30
0.0
 40
0.930232108351929
 50
180.1407485383612084
 51
192.7490714754866872
  0
ARC
  5
74B4
  8
0
 10
4437.6840800438103543
 20
247.0545012222088985
 30
0.0
 40
0.9114539814663541
 50
167.1205045703975998
 51
179.9896754094584992
  0
ARC
  5
74B5
  8
0
 10
4437.6538959962454101
 20
250.0168305929850874
 30
0.0
 40
0.8978802953554593
 50
170.4284449140523918
 51
193.5716764520001902
  0
ARC
  5
74B6
  8
0
 10
4434.1636007043089194
 20
247.4879260998202994
 30
0.0
 40
0.9090332203542141
 50
333.2792932501729979
 51
26.7207067498269986
  0
ENDSEC
  0
EOF
